  0
SECTION
  2
HEADER
  9
$ACADVER
  1
AC1009
  9
$DWGCODEPAGE
  3
ansi_1252
  9
$INSBASE
 10
0.0
 20
0.0
 30
0.0
  9
$EXTMIN
 10
-6.207573378901911
 20
-6.888827935024388
 30
0.0
  9
$EXTMAX
 10
6.206529880700952
 20
0.9370053805013185
 30
0.0
  9
$LIMMIN
 10
0.0
 20
0.0
  9
$LIMMAX
 10
144.0
 20
108.0
  9
$ORTHOMODE
 70
     1
  9
$REGENMODE
 70
     1
  9
$FILLMODE
 70
     1
  9
$QTEXTMODE
 70
     0
  9
$MIRRTEXT
 70
     1
  9
$DRAGMODE
 70
     2
  9
$LTSCALE
 40
4.0
  9
$OSMODE
 70
    37
  9
$ATTMODE
 70
     1
  9
$TEXTSIZE
 40
0.003
  9
$TRACEWID
 40
0.05
  9
$TEXTSTYLE
  7
STANDARD
  9
$CLAYER
  8
0
  9
$CELTYPE
  6
CONTINUOUS
  9
$CECOLOR
 62
   256
  9
$DIMSCALE
 40
1.0
  9
$DIMASZ
 40
0.18
  9
$DIMEXO
 40
0.0625
  9
$DIMDLI
 40
0.38
  9
$DIMRND
 40
0.0
  9
$DIMDLE
 40
0.0
  9
$DIMEXE
 40
0.18
  9
$DIMTP
 40
0.0
  9
$DIMTM
 40
0.0
  9
$DIMTXT
 40
0.18
  9
$DIMCEN
 40
0.09
  9
$DIMTSZ
 40
0.0
  9
$DIMTOL
 70
     0
  9
$DIMLIM
 70
     0
  9
$DIMTIH
 70
     1
  9
$DIMTOH
 70
     1
  9
$DIMSE1
 70
     0
  9
$DIMSE2
 70
     0
  9
$DIMTAD
 70
     0
  9
$DIMZIN
 70
     0
  9
$DIMBLK
  1

  9
$DIMASO
 70
     1
  9
$DIMSHO
 70
     1
  9
$DIMPOST
  1

  9
$DIMAPOST
  1

  9
$DIMALT
 70
     0
  9
$DIMALTD
 70
     2
  9
$DIMALTF
 40
25.4
  9
$DIMLFAC
 40
1.0
  9
$DIMTOFL
 70
     0
  9
$DIMTVP
 40
0.0
  9
$DIMTIX
 70
     0
  9
$DIMSOXD
 70
     0
  9
$DIMSAH
 70
     0
  9
$DIMBLK1
  1

  9
$DIMBLK2
  1

  9
$DIMSTYLE
  2
STANDARD
  9
$DIMCLRD
 70
     0
  9
$DIMCLRE
 70
     0
  9
$DIMCLRT
 70
     0
  9
$DIMTFAC
 40
1.0
  9
$DIMGAP
 40
0.09
  9
$LUNITS
 70
     2
  9
$LUPREC
 70
     4
  9
$SKETCHINC
 40
0.1
  9
$FILLETRAD
 40
0.0
  9
$AUNITS
 70
     0
  9
$AUPREC
 70
     0
  9
$MENU
  1
acad
  9
$ELEVATION
 40
0.0
  9
$PELEVATION
 40
0.0
  9
$THICKNESS
 40
0.0
  9
$LIMCHECK
 70
     0
  9
$CHAMFERA
 40
0.0
  9
$CHAMFERB
 40
0.0
  9
$SKPOLY
 70
     0
  9
$TDCREATE
 40
2453715.504076748
  9
$TDUPDATE
 40
2453720.495873033
  9
$TDINDWG
 40
0.0218872569
  9
$TDUSRTIMER
 40
0.0218872569
  9
$USRTIMER
 70
     1
  9
$ANGBASE
 50
0.0
  9
$ANGDIR
 70
     0
  9
$PDMODE
 70
     3
  9
$PDSIZE
 40
-2.0
  9
$PLINEWID
 40
0.0
  9
$COORDS
 70
     1
  9
$SPLFRAME
 70
     0
  9
$SPLINETYPE
 70
     6
  9
$SPLINESEGS
 70
     8
  9
$ATTDIA
 70
     0
  9
$ATTREQ
 70
     1
  9
$HANDLING
 70
     1
  9
$HANDSEED
  5
1BF
  9
$SURFTAB1
 70
     6
  9
$SURFTAB2
 70
     6
  9
$SURFTYPE
 70
     6
  9
$SURFU
 70
     6
  9
$SURFV
 70
     6
  9
$UCSNAME
  2

  9
$UCSORG
 10
0.0
 20
0.0
 30
0.0
  9
$UCSXDIR
 10
1.0
 20
0.0
 30
0.0
  9
$UCSYDIR
 10
0.0
 20
1.0
 30
0.0
  9
$PUCSNAME
  2

  9
$PUCSORG
 10
0.0
 20
0.0
 30
0.0
  9
$PUCSXDIR
 10
1.0
 20
0.0
 30
0.0
  9
$PUCSYDIR
 10
0.0
 20
1.0
 30
0.0
  9
$USERI1
 70
     0
  9
$USERI2
 70
     0
  9
$USERI3
 70
     0
  9
$USERI4
 70
     0
  9
$USERI5
 70
     0
  9
$USERR1
 40
0.0
  9
$USERR2
 40
0.0
  9
$USERR3
 40
0.0
  9
$USERR4
 40
0.0
  9
$USERR5
 40
0.0
  9
$WORLDVIEW
 70
     1
  9
$SHADEDGE
 70
     3
  9
$SHADEDIF
 70
    70
  9
$TILEMODE
 70
     1
  9
$MAXACTVP
 70
    16
  9
$PLIMCHECK
 70
     0
  9
$PEXTMIN
 10
1.000000000000000E+20
 20
1.000000000000000E+20
 30
1.000000000000000E+20
  9
$PEXTMAX
 10
-1.000000000000000E+20
 20
-1.000000000000000E+20
 30
-1.000000000000000E+20
  9
$PLIMMIN
 10
0.0
 20
0.0
  9
$PLIMMAX
 10
12.0
 20
9.0
  9
$UNITMODE
 70
     0
  9
$VISRETAIN
 70
     0
  9
$PLINEGEN
 70
     1
  9
$PSLTSCALE
 70
     0
  0
ENDSEC
  0
SECTION
  2
TABLES
  0
TABLE
  2
VPORT
 70
     1
  0
VPORT
  2
*ACTIVE
 70
     0
 10
0.0
 20
0.0
 11
1.0
 21
1.0
 12
-1.31408194951117
 22
-3.391661281902344
 13
0.0
 23
0.0
 14
1.0
 24
1.0
 15
0.0
 25
0.0
 16
0.0
 26
0.0
 36
1.0
 17
0.0
 27
0.0
 37
0.0
 40
20.90385525257126
 41
1.583243823845328
 42
50.0
 43
0.0
 44
0.0
 50
0.0
 51
0.0
 71
     0
 72
   100
 73
     1
 74
     1
 75
     0
 76
     0
 77
     0
 78
     0
  0
ENDTAB
  0
TABLE
  2
LTYPE
 70
     1
  0
LTYPE
  2
CONTINUOUS
 70
     0
  3
Solid line
 72
    65
 73
     0
 40
0.0
  0
ENDTAB
  0
TABLE
  2
LAYER
 70
     1
  0
LAYER
  2
0
 70
     0
 62
     7
  6
CONTINUOUS
  0
ENDTAB
  0
TABLE
  2
STYLE
 70
     1
  0
STYLE
  2
STANDARD
 70
     0
 40
0.0
 41
1.0
 50
0.0
 71
     0
 42
0.003
  3
txt
  4

  0
ENDTAB
  0
TABLE
  2
VIEW
 70
     0
  0
ENDTAB
  0
TABLE
  2
UCS
 70
     0
  0
ENDTAB
  0
TABLE
  2
APPID
 70
     1
  0
APPID
  2
ACAD
 70
     0
  0
ENDTAB
  0
TABLE
  2
DIMSTYLE
 70
     1
  0
DIMSTYLE
  2
STANDARD
 70
     0
  3

  4

  5

  6

  7

 40
1.0
 41
0.18
 42
0.0625
 43
0.38
 44
0.18
 45
0.0
 46
0.0
 47
0.0
 48
0.0
140
0.18
141
0.09
142
0.0
143
25.4
144
1.0
145
0.0
146
1.0
147
0.09
 71
     0
 72
     0
 73
     1
 74
     1
 75
     0
 76
     0
 77
     0
 78
     0
170
     0
171
     2
172
     0
173
     0
174
     0
175
     0
176
     0
177
     0
178
     0
  0
ENDTAB
  0
ENDSEC
  0
SECTION
  2
BLOCKS
  0
BLOCK
  8
0
  2
$MODEL_SPACE
 70
     2
 10
0.0
 20
0.0
 30
0.0
  3
$MODEL_SPACE
  1

  0
ENDBLK
  5
B
  8
0
  0
BLOCK
 67
     1
  8
0
  2
$PAPER_SPACE
 70
     0
 10
0.0
 20
0.0
 30
0.0
  3
$PAPER_SPACE
  1

  0
ENDBLK
  5
10
 67
     1
  8
0
  0
ENDSEC
  0
SECTION
  2
ENTITIES
  0
LINE
  5
2A
  8
0
 10
4.961100676534286
 20
0.0530213910221278
 30
0.0
 11
4.951807902014974
 21
0.1554252279860862
 31
0.0
  0
LINE
  5
2B
  8
0
 10
4.951807902014974
 20
-0.1648723143988491
 30
0.0
 11
4.961072473880204
 21
-0.0633921143560201
 31
0.0
  0
LINE
  5
2C
  8
0
 10
4.908065585537106
 20
-0.3186261337787641
 30
0.0
 11
4.951807902014974
 21
-0.1648723143988491
 31
0.0
  0
LINE
  5
2D
  8
0
 10
4.836938491947695
 20
-0.4621705923817103
 30
0.0
 11
4.908065585537106
 21
-0.3186261337787641
 31
0.0
  0
LINE
  5
2E
  8
0
 10
4.740175185799696
 20
-0.5911836334700524
 30
0.0
 11
4.836938491947695
 21
-0.4621705923817103
 31
0.0
  0
LINE
  5
2F
  8
0
 10
4.6210612762934
 20
-0.7022315839095086
 30
0.0
 11
4.740175185799696
 21
-0.5911836334700524
 31
0.0
  0
LINE
  5
30
  8
0
 10
4.482924676610242
 20
-0.7918807705658537
 30
0.0
 11
4.6210612762934
 21
-0.7022315839095086
 31
0.0
  0
LINE
  5
31
  8
0
 10
4.330207304767793
 20
-0.8579313864208871
 30
0.0
 11
4.482924676610242
 21
-0.7918807705658537
 31
0.0
  0
LINE
  5
32
  8
0
 10
4.167365180110675
 20
-0.8981695231293543
 30
0.0
 11
4.330207304767793
 21
-0.8579313864208871
 31
0.0
  0
LINE
  5
33
  8
0
 10
3.999474780373262
 20
-0.9118407596945417
 30
0.0
 11
4.167365180110675
 21
-0.8981695231293543
 31
0.0
  0
LINE
  5
34
  8
0
 10
3.83157027930881
 20
-0.8981695231293543
 30
0.0
 11
3.999474780373262
 21
-0.9118407596945417
 31
0.0
  0
LINE
  5
35
  8
0
 10
3.668728154651692
 20
-0.8579313864208871
 30
0.0
 11
3.83157027930881
 21
-0.8981695231293543
 31
0.0
  0
LINE
  5
36
  8
0
 10
3.516010782809243
 20
-0.7918807705658537
 30
0.0
 11
3.668728154651692
 21
-0.8579313864208871
 31
0.0
  0
LINE
  5
37
  8
0
 10
3.377874183126085
 20
-0.7022315839095086
 30
0.0
 11
3.516010782809243
 21
-0.7918807705658537
 31
0.0
  0
LINE
  5
38
  8
0
 10
3.258774374946828
 20
-0.5911836334700524
 30
0.0
 11
3.377874183126085
 21
-0.7022315839095086
 31
0.0
  0
LINE
  5
39
  8
0
 10
3.161996967471787
 20
-0.4621705923817103
 30
0.0
 11
3.258774374946828
 21
-0.5911836334700524
 31
0.0
  0
LINE
  5
3A
  8
0
 10
3.090869873882376
 20
-0.3186190831152089
 30
0.0
 11
3.161996967471787
 21
-0.4621705923817103
 31
0.0
  0
LINE
  5
3B
  8
0
 10
3.047127557404512
 20
-0.1648723143988491
 30
0.0
 11
3.090869873882376
 21
-0.3186190831152089
 31
0.0
  0
LINE
  5
3C
  8
0
 10
3.032560886572263
 20
-0.0052452923068813
 30
0.0
 11
3.047127557404512
 21
-0.1648723143988491
 31
0.0
  0
LINE
  5
3D
  8
0
 10
3.047141658731551
 20
0.1554252279860862
 30
0.0
 11
3.032560886572263
 21
-0.0052452923068813
 31
0.0
  0
LINE
  5
3E
  8
0
 10
3.090869873882376
 20
0.3123024913053314
 30
0.0
 11
3.047141658731551
 21
0.1554252279860862
 31
0.0
  0
LINE
  5
3F
  8
0
 10
3.161996967471787
 20
0.4605708944666844
 30
0.0
 11
3.090869873882376
 21
0.3123024913053314
 31
0.0
  0
LINE
  5
40
  8
0
 10
3.258774374946828
 20
0.5954148342860322
 30
0.0
 11
3.161996967471787
 21
0.4605708944666844
 31
0.0
  0
LINE
  5
41
  8
0
 10
3.377874183126085
 20
0.7126532672959911
 30
0.0
 11
3.258774374946828
 21
0.5954148342860322
 31
0.0
  0
LINE
  5
42
  8
0
 10
3.516010782809243
 20
0.8081051500292915
 30
0.0
 11
3.377874183126085
 21
0.7126532672959911
 31
0.0
  0
LINE
  5
43
  8
0
 10
3.668728154651692
 20
0.8789220144238357
 30
0.0
 11
3.516010782809243
 21
0.8081051500292915
 31
0.0
  0
LINE
  5
44
  8
0
 10
3.831598481962889
 20
0.9220297711848957
 30
0.0
 11
3.668728154651692
 21
0.8789220144238357
 31
0.0
  0
LINE
  5
45
  8
0
 10
3.999474780373262
 20
0.9370053805013185
 30
0.0
 11
3.831598481962889
 21
0.9220297711848957
 31
0.0
  0
LINE
  5
46
  8
0
 10
4.167365180110675
 20
0.9222271897634755
 30
0.0
 11
3.999474780373262
 21
0.9370053805013185
 31
0.0
  0
LINE
  5
47
  8
0
 10
4.330207304767793
 20
0.8789220144238357
 30
0.0
 11
4.167365180110675
 21
0.9222271897634755
 31
0.0
  0
LINE
  5
48
  8
0
 10
4.482924676610242
 20
0.8081051500292915
 30
0.0
 11
4.330207304767793
 21
0.8789220144238357
 31
0.0
  0
LINE
  5
49
  8
0
 10
4.6210612762934
 20
0.7126462166324927
 30
0.0
 11
4.482924676610242
 21
0.8081051500292915
 31
0.0
  0
LINE
  5
4A
  8
0
 10
4.740175185799696
 20
0.5954077836225338
 30
0.0
 11
4.6210612762934
 21
0.7126462166324927
 31
0.0
  0
LINE
  5
4B
  8
0
 10
4.836938491947695
 20
0.4605708944666844
 30
0.0
 11
4.740175185799696
 21
0.5954077836225338
 31
0.0
  0
LINE
  5
4C
  8
0
 10
4.908065585537106
 20
0.3123024913053314
 30
0.0
 11
4.836938491947695
 21
0.4605708944666844
 31
0.0
  0
LINE
  5
4D
  8
0
 10
4.951807902014974
 20
0.1554252279860862
 30
0.0
 11
4.908065585537106
 21
0.3123024913053314
 31
0.0
  0
LINE
  5
4E
  8
0
 10
4.960959663263889
 20
0.0530213910221278
 30
0.0
 11
4.951807902014974
 21
0.1554252279860862
 31
0.0
  0
LINE
  5
4F
  8
0
 10
4.951596382109372
 20
-0.1648370610812435
 30
0.0
 11
4.960860953974606
 21
-0.0633921143560201
 31
0.0
  0
LINE
  5
50
  8
0
 10
4.908065585537106
 20
-0.3186261337787641
 30
0.0
 11
4.951596382109372
 21
-0.1648370610812435
 31
0.0
  0
LINE
  5
51
  8
0
 10
4.836938491947695
 20
-0.4621705923817103
 30
0.0
 11
4.908065585537106
 21
-0.3186261337787641
 31
0.0
  0
LINE
  5
52
  8
0
 10
4.568463326434458
 20
0.0530213910221278
 30
0.0
 11
6.206529880700952
 21
0.0530213910221278
 31
0.0
  0
LINE
  5
53
  8
0
 10
4.537172481732856
 20
0.0853275312705932
 30
0.0
 11
4.568463326434458
 21
0.0530213910221278
 31
0.0
  0
LINE
  5
54
  8
0
 10
4.472320478676213
 20
0.2566445534787363
 30
0.0
 11
4.537172481732856
 21
0.0853275312705932
 31
0.0
  0
LINE
  5
55
  8
0
 10
4.350428607743051
 20
0.3974181013183511
 30
0.0
 11
4.472320478676213
 21
0.2566445534787363
 31
0.0
  0
LINE
  5
56
  8
0
 10
4.186218654363064
 20
0.4898593507286364
 30
0.0
 11
4.350428607743051
 21
0.3974181013183511
 31
0.0
  0
LINE
  5
57
  8
0
 10
3.999474780373262
 20
0.5220738323513388
 30
0.0
 11
4.186218654363064
 21
0.4898593507286364
 31
0.0
  0
LINE
  5
58
  8
0
 10
3.812730906383461
 20
0.4898593507286364
 30
0.0
 11
3.999474780373262
 21
0.5220738323513388
 31
0.0
  0
LINE
  5
59
  8
0
 10
3.64850685167643
 20
0.3974181013183511
 30
0.0
 11
3.812730906383461
 21
0.4898593507286364
 31
0.0
  0
LINE
  5
5A
  8
0
 10
3.526629082070311
 20
0.2566445534787363
 30
0.0
 11
3.64850685167643
 21
0.3974181013183511
 31
0.0
  0
LINE
  5
5B
  8
0
 10
3.461762977686629
 20
0.0853275312705932
 30
0.0
 11
3.526629082070311
 21
0.2566445534787363
 31
0.0
  0
LINE
  5
5C
  8
0
 10
3.461762977686629
 20
-0.0954726333718554
 30
0.0
 11
3.461762977686629
 21
0.0853275312705932
 31
0.0
  0
LINE
  5
5D
  8
0
 10
3.526614980743272
 20
-0.2640398968071622
 30
0.0
 11
3.461762977686629
 21
-0.0954726333718554
 31
0.0
  0
LINE
  5
5E
  8
0
 10
3.64850685167643
 20
-0.4005830465348481
 30
0.0
 11
3.526614980743272
 21
-0.2640398968071622
 31
0.0
  0
LINE
  5
5F
  8
0
 10
3.812730906383461
 20
-0.4893156469335622
 30
0.0
 11
3.64850685167643
 21
-0.4005830465348481
 31
0.0
  0
LINE
  5
60
  8
0
 10
3.999474780373262
 20
-0.5200565398806134
 30
0.0
 11
3.812730906383461
 21
-0.4893156469335622
 31
0.0
  0
LINE
  5
61
  8
0
 10
4.186218654363064
 20
-0.4893156469335622
 30
0.0
 11
3.999474780373262
 21
-0.5200565398806134
 31
0.0
  0
LINE
  5
62
  8
0
 10
4.350428607743051
 20
-0.4005830465348481
 30
0.0
 11
4.186218654363064
 21
-0.4893156469335622
 31
0.0
  0
LINE
  5
63
  8
0
 10
4.472320478676213
 20
-0.2640398968071622
 30
0.0
 11
4.350428607743051
 21
-0.4005830465348481
 31
0.0
  0
LINE
  5
64
  8
0
 10
4.537172481732856
 20
-0.0954726333718554
 30
0.0
 11
4.472320478676213
 21
-0.2640398968071622
 31
0.0
  0
LINE
  5
65
  8
0
 10
4.568463326434458
 20
-0.0633921143560201
 30
0.0
 11
4.537172481732856
 21
-0.0954726333718554
 31
0.0
  0
LINE
  5
66
  8
0
 10
6.206529880700952
 20
-0.0633921143560201
 30
0.0
 11
4.568463326434458
 21
-0.0633921143560201
 31
0.0
  0
LINE
  5
67
  8
0
 10
6.206529880700952
 20
0.0530213910221278
 30
0.0
 11
6.206529880700952
 21
-0.0633921143560201
 31
0.0
  0
LINE
  5
68
  8
0
 10
-0.4169973925613064
 20
-6.267875998821019
 30
0.0
 11
-0.4169973925613064
 21
-6.252336336423021
 31
0.0
  0
LINE
  5
69
  8
0
 10
-0.3957184900580515
 20
-6.354627362770721
 30
0.0
 11
-0.4169973925613064
 21
-6.267875998821019
 31
0.0
  0
LINE
  5
6A
  8
0
 10
-0.3364788151633036
 20
-6.430266881012877
 30
0.0
 11
-0.3957184900580515
 21
-6.354627362770721
 31
0.0
  0
LINE
  5
6B
  8
0
 10
-0.2461809674631077
 20
-6.4900988116433
 30
0.0
 11
-0.3364788151633036
 21
-6.430266881012877
 31
0.0
  0
LINE
  5
6C
  8
0
 10
-0.1317204958799927
 20
-6.529427412757691
 30
0.0
 11
-0.2461809674631077
 21
-6.4900988116433
 31
0.0
  0
LINE
  5
6D
  8
0
 10
0.0
 20
-6.543571043778748
 30
0.0
 11
-0.1317204958799927
 21
-6.529427412757691
 31
0.0
  0
LINE
  5
6E
  8
0
 10
0.1317204958799909
 20
-6.529427412757691
 30
0.0
 11
0.0
 21
-6.543571043778748
 31
0.0
  0
LINE
  5
6F
  8
0
 10
0.2461809674631077
 20
-6.4900988116433
 30
0.0
 11
0.1317204958799909
 21
-6.529427412757691
 31
0.0
  0
LINE
  5
70
  8
0
 10
0.3364858658268233
 20
-6.430266881012877
 30
0.0
 11
0.2461809674631077
 21
-6.4900988116433
 31
0.0
  0
LINE
  5
71
  8
0
 10
0.3957114393945318
 20
-6.354627362770721
 30
0.0
 11
0.3364858658268233
 21
-6.430266881012877
 31
0.0
  0
LINE
  5
72
  8
0
 10
0.4169903418977867
 20
-6.267875998821019
 30
0.0
 11
0.3957114393945318
 21
-6.354627362770721
 31
0.0
  0
LINE
  5
73
  8
0
 10
0.4169903418977867
 20
-0.0806700131904157
 30
0.0
 11
0.417012708173359
 21
-6.613564052002348
 31
0.0
  0
LINE
  5
74
  8
0
 10
0.4169903418977867
 20
-0.0100820474815464
 30
0.0
 11
0.4169903418977867
 21
-0.0806700131904157
 31
0.0
  0
LINE
  5
75
  8
0
 10
0.406357941309679
 20
0.0528944790787591
 30
0.0
 11
0.4169903418977867
 21
-0.0100820474815464
 31
0.0
  0
LINE
  5
76
  8
0
 10
0.3957114393945318
 20
0.1161107281988052
 30
0.0
 11
0.406357941309679
 21
0.0528944790787591
 31
0.0
  0
LINE
  5
77
  8
0
 10
0.3364717644997821
 20
0.226390156314551
 30
0.0
 11
0.3957114393945318
 21
0.1161107281988052
 31
0.0
  0
LINE
  5
78
  8
0
 10
0.2461809674631077
 20
0.3138183839621433
 30
0.0
 11
0.3364717644997821
 21
0.226390156314551
 31
0.0
  0
LINE
  5
79
  8
0
 10
0.1317204958799909
 20
0.3713870516026532
 30
0.0
 11
0.2461809674631077
 21
0.3138183839621433
 31
0.0
  0
LINE
  5
7A
  8
0
 10
0.0
 20
0.3921089516878169
 30
0.0
 11
0.1317204958799909
 21
0.3713870516026532
 31
0.0
  0
LINE
  5
7B
  8
0
 10
-0.1317275465435124
 20
0.3713870516026532
 30
0.0
 11
0.0
 21
0.3921089516878169
 31
0.0
  0
LINE
  5
7C
  8
0
 10
-0.2461809674631077
 20
0.3138183839621433
 30
0.0
 11
-0.1317275465435124
 21
0.3713870516026532
 31
0.0
  0
LINE
  5
7D
  8
0
 10
-0.3364858658268233
 20
0.226390156314551
 30
0.0
 11
-0.2461809674631077
 21
0.3138183839621433
 31
0.0
  0
LINE
  5
7E
  8
0
 10
-0.3957184900580515
 20
0.1161107281988052
 30
0.0
 11
-0.3364858658268233
 21
0.226390156314551
 31
0.0
  0
LINE
  5
7F
  8
0
 10
-0.406357941309679
 20
0.0528944790787591
 30
0.0
 11
-0.3957184900580515
 21
0.1161107281988052
 31
0.0
  0
LINE
  5
80
  8
0
 10
-0.4169973925613064
 20
-0.0100820474815464
 30
0.0
 11
-0.406357941309679
 21
0.0528944790787591
 31
0.0
  0
LINE
  5
81
  8
0
 10
-0.4169973925613064
 20
-0.0806700131904157
 30
0.0
 11
-0.4169973925613064
 21
-0.0100820474815464
 31
0.0
  0
LINE
  5
82
  8
0
 10
-0.4169973925613064
 20
-0.2775267876476266
 30
0.0
 11
-0.4169973925613064
 21
-0.0806700131904157
 31
0.0
  0
LINE
  5
83
  8
0
 10
-0.4169973925613064
 20
-0.5776933889773048
 30
0.0
 11
-0.4169973925613064
 21
-0.2775267876476266
 31
0.0
  0
LINE
  5
84
  8
0
 10
-0.4169973925613064
 20
-6.61359823385903
 30
0.0
 11
-0.4169973925613064
 21
-0.5776933889773048
 31
0.0
  0
POLYLINE
  5
85
  8
0
 66
     1
 10
0.0
 20
0.0
 30
0.0
 70
   133
 75
     6
  0
VERTEX
  5
86
  8
0
 10
-0.1317204958799927
 20
-6.879239032637209
 30
0.0
 70
    16
  0
VERTEX
  5
87
  8
0
 10
0.0000000000000018
 20
-6.888827935024388
 30
0.0
 70
     8
  0
VERTEX
  5
88
  8
0
 10
0.0164594434875074
 20
-6.888604227936703
 30
0.0
 70
     8
  0
VERTEX
  5
89
  8
0
 10
0.0328851759900584
 20
-6.887937237921911
 30
0.0
 70
     8
  0
VERTEX
  5
8A
  8
0
 10
0.0492434865227018
 20
-6.886833161852117
 30
0.0
 70
     8
  0
VERTEX
  5
8B
  8
0
 10
0.0655006641004778
 20
-6.885298196599656
 30
0.0
 70
     8
  0
VERTEX
  5
8C
  8
0
 10
0.0816229977384371
 20
-6.88333853903675
 30
0.0
 70
     8
  0
VERTEX
  5
8D
  8
0
 10
0.0975767764516196
 20
-6.880960386035618
 30
0.0
 70
     8
  0
VERTEX
  5
8E
  8
0
 10
0.113328289255076
 20
-6.878169934468538
 30
0.0
 70
     8
  0
VERTEX
  5
8F
  8
0
 10
0.1288438251638446
 20
-6.874973381207674
 30
0.0
 70
     8
  0
VERTEX
  5
90
  8
0
 10
0.1440930470456383
 20
-6.871377446416666
 30
0.0
 70
     8
  0
VERTEX
  5
91
  8
0
 10
0.1590591131788024
 20
-6.867390943425058
 30
0.0
 70
     8
  0
VERTEX
  5
92
  8
0
 10
0.1737285556943515
 20
-6.86302320885347
 30
0.0
 70
     8
  0
VERTEX
  5
93
  8
0
 10
0.1880879067232932
 20
-6.858283579322979
 30
0.0
 70
     8
  0
VERTEX
  5
94
  8
0
 10
0.2021236983966386
 20
-6.853181391454207
 30
0.0
 70
     8
  0
VERTEX
  5
95
  8
0
 10
0.2158224628453986
 20
-6.847725981868116
 30
0.0
 70
     8
  0
VERTEX
  5
96
  8
0
 10
0.2291707322005845
 20
-6.841926687185499
 30
0.0
 70
     8
  0
VERTEX
  5
97
  8
0
 10
0.2421550385932072
 20
-6.835792844027203
 30
0.0
 70
     8
  0
VERTEX
  5
98
  8
0
 10
0.2547619049737246
 20
-6.829333793604299
 30
0.0
 70
     8
  0
VERTEX
  5
99
  8
0
 10
0.2669778175703907
 20
-6.822558895489074
 30
0.0
 70
     8
  0
VERTEX
  5
9A
  8
0
 10
0.2787892534309062
 20
-6.815477513843923
 30
0.0
 70
     8
  0
VERTEX
  5
9B
  8
0
 10
0.2901826896029771
 20
-6.808099012831356
 30
0.0
 70
     8
  0
VERTEX
  5
9C
  8
0
 10
0.3011446031343006
 20
-6.800432756613937
 30
0.0
 70
     8
  0
VERTEX
  5
9D
  8
0
 10
0.3116614710725809
 20
-6.792488109354061
 30
0.0
 70
     8
  0
VERTEX
  5
9E
  8
0
 10
0.3217197704655224
 20
-6.784274435214236
 30
0.0
 70
     8
  0
VERTEX
  5
9F
  8
0
 10
0.3313059783608221
 20
-6.775801098356972
 30
0.0
 70
     8
  0
VERTEX
  5
A0
  8
0
 10
0.3404065947575639
 20
-6.767077453764223
 30
0.0
 70
     8
  0
VERTEX
  5
A1
  8
0
 10
0.3490082114603403
 20
-6.758112819695676
 30
0.0
 70
     8
  0
VERTEX
  5
A2
  8
0
 10
0.3570974432251273
 20
-6.748916505230518
 30
0.0
 70
     8
  0
VERTEX
  5
A3
  8
0
 10
0.3646609048079004
 20
-6.739497819447998
 30
0.0
 70
     8
  0
VERTEX
  5
A4
  8
0
 10
0.3716852109646265
 20
-6.729866071427132
 30
0.0
 70
     8
  0
VERTEX
  5
A5
  8
0
 10
0.3781569764512884
 20
-6.720030570247282
 30
0.0
 70
     8
  0
VERTEX
  5
A6
  8
0
 10
0.3840628160238531
 20
-6.710000624987522
 30
0.0
 70
     8
  0
VERTEX
  5
A7
  8
0
 10
0.3893893444382961
 20
-6.699785544727099
 30
0.0
 70
     8
  0
VERTEX
  5
A8
  8
0
 10
0.3941238925336084
 20
-6.689454082615789
 30
0.0
 70
     8
  0
VERTEX
  5
A9
  8
0
 10
0.3982566554808269
 20
-6.679312768086284
 30
0.0
 70
     8
  0
VERTEX
  5
AA
  8
0
 10
0.4017785445340127
 20
-6.669727574641918
 30
0.0
 70
     8
  0
VERTEX
  5
AB
  8
0
 10
0.4046804709472216
 20
-6.661064475786027
 30
0.0
 70
     8
  0
VERTEX
  5
AC
  8
0
 10
0.4069533459745056
 20
-6.653689445021946
 30
0.0
 70
     8
  0
VERTEX
  5
AD
  8
0
 10
0.4085880808699276
 20
-6.647968455853011
 30
0.0
 70
     8
  0
VERTEX
  5
AE
  8
0
 10
0.4095755868875379
 20
-6.644267481782499
 30
0.0
 70
     8
  0
VERTEX
  5
AF
  8
0
 10
0.4099067752813959
 20
-6.642952496313804
 30
0.0
 70
     8
  0
VERTEX
  5
B0
  8
0
 10
0.4095755868875379
 20
-6.644267481782499
 30
0.0
 70
     8
  0
VERTEX
  5
B1
  8
0
 10
0.4085880808699276
 20
-6.647968455852954
 30
0.0
 70
     8
  0
VERTEX
  5
B2
  8
0
 10
0.4069533459745056
 20
-6.653689445021946
 30
0.0
 70
     8
  0
VERTEX
  5
B3
  8
0
 10
0.4046804709472216
 20
-6.661064475786027
 30
0.0
 70
     8
  0
VERTEX
  5
B4
  8
0
 10
0.4017785445340145
 20
-6.669727574641918
 30
0.0
 70
     8
  0
VERTEX
  5
B5
  8
0
 10
0.3982566554808269
 20
-6.679312768086284
 30
0.0
 70
     8
  0
VERTEX
  5
B6
  8
0
 10
0.3941238925336084
 20
-6.689454082615789
 30
0.0
 70
     8
  0
VERTEX
  5
B7
  8
0
 10
0.3893893444382961
 20
-6.699785544727099
 30
0.0
 70
     8
  0
VERTEX
  5
B8
  8
0
 10
0.3840628160238513
 20
-6.710000624987579
 30
0.0
 70
     8
  0
VERTEX
  5
B9
  8
0
 10
0.3781569764512849
 20
-6.720030570247339
 30
0.0
 70
     8
  0
VERTEX
  5
BA
  8
0
 10
0.3716852109646247
 20
-6.729866071427189
 30
0.0
 70
     8
  0
VERTEX
  5
BB
  8
0
 10
0.3646609048078968
 20
-6.739497819447998
 30
0.0
 70
     8
  0
VERTEX
  5
BC
  8
0
 10
0.3570974432251255
 20
-6.748916505230575
 30
0.0
 70
     8
  0
VERTEX
  5
BD
  8
0
 10
0.3490082114603386
 20
-6.758112819695676
 30
0.0
 70
     8
  0
VERTEX
  5
BE
  8
0
 10
0.3404065947575621
 20
-6.767077453764223
 30
0.0
 70
     8
  0
VERTEX
  5
BF
  8
0
 10
0.3313059783608221
 20
-6.775801098356972
 30
0.0
 70
     8
  0
VERTEX
  5
C0
  8
0
 10
0.3217197704655224
 20
-6.784274435214236
 30
0.0
 70
     8
  0
VERTEX
  5
C1
  8
0
 10
0.3116614710725845
 20
-6.792488109354004
 30
0.0
 70
     8
  0
VERTEX
  5
C2
  8
0
 10
0.3011446031343024
 20
-6.80043275661388
 30
0.0
 70
     8
  0
VERTEX
  5
C3
  8
0
 10
0.2901826896029771
 20
-6.808099012831356
 30
0.0
 70
     8
  0
VERTEX
  5
C4
  8
0
 10
0.2787892534309098
 20
-6.815477513843867
 30
0.0
 70
     8
  0
VERTEX
  5
C5
  8
0
 10
0.2669778175703907
 20
-6.822558895489017
 30
0.0
 70
     8
  0
VERTEX
  5
C6
  8
0
 10
0.2547619049737246
 20
-6.829333793604299
 30
0.0
 70
     8
  0
VERTEX
  5
C7
  8
0
 10
0.2421550385932072
 20
-6.835792844027203
 30
0.0
 70
     8
  0
VERTEX
  5
C8
  8
0
 10
0.2291707322005845
 20
-6.841926687185499
 30
0.0
 70
     8
  0
VERTEX
  5
C9
  8
0
 10
0.2158224628453986
 20
-6.847725981868116
 30
0.0
 70
     8
  0
VERTEX
  5
CA
  8
0
 10
0.2021236983966386
 20
-6.853181391454207
 30
0.0
 70
     8
  0
VERTEX
  5
CB
  8
0
 10
0.1880879067232932
 20
-6.858283579322979
 30
0.0
 70
     8
  0
VERTEX
  5
CC
  8
0
 10
0.1737285556943515
 20
-6.86302320885347
 30
0.0
 70
     8
  0
VERTEX
  5
CD
  8
0
 10
0.1590591131788024
 20
-6.867390943425001
 30
0.0
 70
     8
  0
VERTEX
  5
CE
  8
0
 10
0.1440930470456383
 20
-6.871377446416666
 30
0.0
 70
     8
  0
VERTEX
  5
CF
  8
0
 10
0.1288438251638446
 20
-6.874973381207674
 30
0.0
 70
     8
  0
VERTEX
  5
D0
  8
0
 10
0.1133282892550742
 20
-6.878169934468538
 30
0.0
 70
     8
  0
VERTEX
  5
D1
  8
0
 10
0.0975767764516196
 20
-6.880960386035675
 30
0.0
 70
     8
  0
VERTEX
  5
D2
  8
0
 10
0.0816229977384335
 20
-6.883338539036807
 30
0.0
 70
     8
  0
VERTEX
  5
D3
  8
0
 10
0.0655006641004778
 20
-6.885298196599713
 30
0.0
 70
     8
  0
VERTEX
  5
D4
  8
0
 10
0.0492434865227001
 20
-6.886833161852174
 30
0.0
 70
     8
  0
VERTEX
  5
D5
  8
0
 10
0.0328851759900584
 20
-6.887937237921911
 30
0.0
 70
     8
  0
VERTEX
  5
D6
  8
0
 10
0.0164594434875074
 20
-6.888604227936703
 30
0.0
 70
     8
  0
VERTEX
  5
D7
  8
0
 10
0.0000000000000018
 20
-6.888827935024388
 30
0.0
 70
     8
  0
VERTEX
  5
D8
  8
0
 10
-0.0164594434875038
 20
-6.888604227936703
 30
0.0
 70
     8
  0
VERTEX
  5
D9
  8
0
 10
-0.0328851759900566
 20
-6.887937237921911
 30
0.0
 70
     8
  0
VERTEX
  5
DA
  8
0
 10
-0.0492434865227001
 20
-6.886833161852117
 30
0.0
 70
     8
  0
VERTEX
  5
DB
  8
0
 10
-0.0655006641004778
 20
-6.885298196599656
 30
0.0
 70
     8
  0
VERTEX
  5
DC
  8
0
 10
-0.0816229977384335
 20
-6.88333853903675
 30
0.0
 70
     8
  0
VERTEX
  5
DD
  8
0
 10
-0.0975767764516196
 20
-6.880960386035618
 30
0.0
 70
     8
  0
VERTEX
  5
DE
  8
0
 10
-0.1133282892550742
 20
-6.878169934468538
 30
0.0
 70
     8
  0
VERTEX
  5
DF
  8
0
 10
-0.1288438251638464
 20
-6.874973381207674
 30
0.0
 70
     8
  0
VERTEX
  5
E0
  8
0
 10
-0.1440930447505018
 20
-6.871377446416666
 30
0.0
 70
     8
  0
VERTEX
  5
E1
  8
0
 10
-0.1590590948177031
 20
-6.867390943425058
 30
0.0
 70
     8
  0
VERTEX
  5
E2
  8
0
 10
-0.1737284937256316
 20
-6.86302320885347
 30
0.0
 70
     8
  0
VERTEX
  5
E3
  8
0
 10
-0.1880877598344721
 20
-6.858283579322979
 30
0.0
 70
     8
  0
VERTEX
  5
E4
  8
0
 10
-0.2021234115044077
 20
-6.853181391454207
 30
0.0
 70
     8
  0
VERTEX
  5
E5
  8
0
 10
-0.2158219670956232
 20
-6.847725981868116
 30
0.0
 70
     8
  0
VERTEX
  5
E6
  8
0
 10
-0.2291699449682998
 20
-6.841926687185499
 30
0.0
 70
     8
  0
VERTEX
  5
E7
  8
0
 10
-0.2421538634826224
 20
-6.835792844027203
 30
0.0
 70
     8
  0
VERTEX
  5
E8
  8
0
 10
-0.2547602432939122
 20
-6.829333793604299
 30
0.0
 70
     8
  0
VERTEX
  5
E9
  8
0
 10
-0.2669756142380404
 20
-6.822558895489074
 30
0.0
 70
     8
  0
VERTEX
  5
EA
  8
0
 10
-0.2787865084460215
 20
-6.815477513843923
 30
0.0
 70
     8
  0
VERTEX
  5
EB
  8
0
 10
-0.2901794580488648
 20
-6.808099012831356
 30
0.0
 70
     8
  0
VERTEX
  5
EC
  8
0
 10
-0.3011409951775796
 20
-6.800432756613937
 30
0.0
 70
     8
  0
VERTEX
  5
ED
  8
0
 10
-0.3116576519631771
 20
-6.792488109354061
 30
0.0
 70
     8
  0
VERTEX
  5
EE
  8
0
 10
-0.3217159605366664
 20
-6.784274435214236
 30
0.0
 70
     8
  0
VERTEX
  5
EF
  8
0
 10
-0.3313024530290623
 20
-6.775801098356972
 30
0.0
 70
     8
  0
VERTEX
  5
F0
  8
0
 10
-0.3404036592762321
 20
-6.767077453764223
 30
0.0
 70
     8
  0
VERTEX
  5
F1
  8
0
 10
-0.3490060999335025
 20
-6.758112819695676
 30
0.0
 70
     8
  0
VERTEX
  5
F2
  8
0
 10
-0.3570962933610566
 20
-6.748916505230518
 30
0.0
 70
     8
  0
VERTEX
  5
F3
  8
0
 10
-0.3646607579190739
 20
-6.739497819447998
 30
0.0
 70
     8
  0
VERTEX
  5
F4
  8
0
 10
-0.371686011967741
 20
-6.729866071427132
 30
0.0
 70
     8
  0
VERTEX
  5
F5
  8
0
 10
-0.3781585738672408
 20
-6.720030570247282
 30
0.0
 70
     8
  0
VERTEX
  5
F6
  8
0
 10
-0.3840649619777548
 20
-6.710000624987522
 30
0.0
 70
     8
  0
VERTEX
  5
F7
  8
0
 10
-0.3893916946594693
 20
-6.699785544727099
 30
0.0
 70
     8
  0
VERTEX
  5
F8
  8
0
 10
-0.3941260407826484
 20
-6.689454082615789
 30
0.0
 70
     8
  0
VERTEX
  5
F9
  8
0
 10
-0.3982582712578839
 20
-6.679312768086284
 30
0.0
 70
     8
  0
VERTEX
  5
FA
  8
0
 10
-0.4017794075058507
 20
-6.669727574641918
 30
0.0
 70
     8
  0
VERTEX
  5
FB
  8
0
 10
-0.4046804709472216
 20
-6.661064475786027
 30
0.0
 70
     8
  0
VERTEX
  5
FC
  8
0
 10
-0.4069524830026712
 20
-6.653689445021946
 30
0.0
 70
     8
  0
VERTEX
  5
FD
  8
0
 10
-0.4085864650928706
 20
-6.647968455853011
 30
0.0
 70
     8
  0
VERTEX
  5
FE
  8
0
 10
-0.4095734386384944
 20
-6.644267481782499
 30
0.0
 70
     8
  0
VERTEX
  5
FF
  8
0
 10
-0.4099044250602226
 20
-6.642952496313804
 30
0.0
 70
     8
  0
VERTEX
  5
100
  8
0
 10
-0.4095734386384979
 20
-6.644267481782499
 30
0.0
 70
     8
  0
VERTEX
  5
101
  8
0
 10
-0.4085864650928706
 20
-6.647968455852954
 30
0.0
 70
     8
  0
VERTEX
  5
102
  8
0
 10
-0.4069524830026712
 20
-6.653689445021946
 30
0.0
 70
     8
  0
VERTEX
  5
103
  8
0
 10
-0.4046804709472216
 20
-6.661064475786027
 30
0.0
 70
     8
  0
VERTEX
  5
104
  8
0
 10
-0.4017794075058507
 20
-6.669727574641918
 30
0.0
 70
     8
  0
VERTEX
  5
105
  8
0
 10
-0.3982582712578839
 20
-6.679312768086284
 30
0.0
 70
     8
  0
VERTEX
  5
106
  8
0
 10
-0.3941260407826484
 20
-6.689454082615789
 30
0.0
 70
     8
  0
VERTEX
  5
107
  8
0
 10
-0.3893916946594693
 20
-6.699785544727099
 30
0.0
 70
     8
  0
VERTEX
  5
108
  8
0
 10
-0.3840649619777548
 20
-6.710000624987579
 30
0.0
 70
     8
  0
VERTEX
  5
109
  8
0
 10
-0.3781585738672408
 20
-6.720030570247339
 30
0.0
 70
     8
  0
VERTEX
  5
10A
  8
0
 10
-0.371686011967741
 20
-6.729866071427189
 30
0.0
 70
     8
  0
VERTEX
  5
10B
  8
0
 10
-0.3646607579190739
 20
-6.739497819447998
 30
0.0
 70
     8
  0
VERTEX
  5
10C
  8
0
 10
-0.3570962933610566
 20
-6.748916505230575
 30
0.0
 70
     8
  0
VERTEX
  5
10D
  8
0
 10
-0.3490060999335025
 20
-6.758112819695676
 30
0.0
 70
     8
  0
VERTEX
  5
10E
  8
0
 10
-0.3404036592762321
 20
-6.767077453764223
 30
0.0
 70
     8
  0
VERTEX
  5
10F
  8
0
 10
-0.3313024530290623
 20
-6.775801098356972
 30
0.0
 70
     8
  0
VERTEX
  5
110
  8
0
 10
-0.3217159605366664
 20
-6.784274435214236
 30
0.0
 70
     8
  0
VERTEX
  5
111
  8
0
 10
-0.3116576519631753
 20
-6.792488109354004
 30
0.0
 70
     8
  0
VERTEX
  5
112
  8
0
 10
-0.3011409951775796
 20
-6.80043275661388
 30
0.0
 70
     8
  0
VERTEX
  5
113
  8
0
 10
-0.2901794580488648
 20
-6.808099012831356
 30
0.0
 70
     8
  0
VERTEX
  5
114
  8
0
 10
-0.2787865084460215
 20
-6.815477513843867
 30
0.0
 70
     8
  0
VERTEX
  5
115
  8
0
 10
-0.2669756142380404
 20
-6.822558895489017
 30
0.0
 70
     8
  0
VERTEX
  5
116
  8
0
 10
-0.2547602432939122
 20
-6.829333793604299
 30
0.0
 70
     8
  0
VERTEX
  5
117
  8
0
 10
-0.2421538634826224
 20
-6.835792844027203
 30
0.0
 70
     8
  0
VERTEX
  5
118
  8
0
 10
-0.2291699449682998
 20
-6.841926687185499
 30
0.0
 70
     8
  0
VERTEX
  5
119
  8
0
 10
-0.2158219670956232
 20
-6.847725981868116
 30
0.0
 70
     8
  0
VERTEX
  5
11A
  8
0
 10
-0.2021234115044077
 20
-6.853181391454207
 30
0.0
 70
     8
  0
VERTEX
  5
11B
  8
0
 10
-0.1880877598344721
 20
-6.858283579322979
 30
0.0
 70
     8
  0
VERTEX
  5
11C
  8
0
 10
-0.1737284937256316
 20
-6.86302320885347
 30
0.0
 70
     8
  0
VERTEX
  5
11D
  8
0
 10
-0.1590590948177031
 20
-6.867390943425001
 30
0.0
 70
     8
  0
VERTEX
  5
11E
  8
0
 10
-0.1440930447505018
 20
-6.871377446416666
 30
0.0
 70
     8
  0
VERTEX
  5
11F
  8
0
 10
-0.1288438251638464
 20
-6.874973381207674
 30
0.0
 70
     8
  0
VERTEX
  5
120
  8
0
 10
-0.113328289255076
 20
-6.878169934468538
 30
0.0
 70
     8
  0
VERTEX
  5
121
  8
0
 10
-0.0975767764516213
 20
-6.880960386035675
 30
0.0
 70
     8
  0
VERTEX
  5
122
  8
0
 10
-0.0816229977384371
 20
-6.883338539036807
 30
0.0
 70
     8
  0
VERTEX
  5
123
  8
0
 10
-0.0655006641004778
 20
-6.885298196599713
 30
0.0
 70
     8
  0
VERTEX
  5
124
  8
0
 10
-0.0492434865227001
 20
-6.886833161852174
 30
0.0
 70
     8
  0
VERTEX
  5
125
  8
0
 10
-0.0328851759900584
 20
-6.887937237921911
 30
0.0
 70
     8
  0
VERTEX
  5
126
  8
0
 10
-0.0164594434875074
 20
-6.888604227936703
 30
0.0
 70
     8
  0
VERTEX
  5
127
  8
0
 10
0.0
 20
-6.893622386217949
 30
0.0
 70
    16
  0
VERTEX
  5
128
  8
0
 10
0.1317204958799909
 20
-6.879239032637209
 30
0.0
 70
    16
  0
VERTEX
  5
129
  8
0
 10
0.2461809674631077
 20
-6.839261770479034
 30
0.0
 70
    16
  0
VERTEX
  5
12A
  8
0
 10
0.3364858658268233
 20
-6.778470949609876
 30
0.0
 70
    16
  0
VERTEX
  5
12B
  8
0
 10
0.3957114393945318
 20
-6.701661021223409
 30
0.0
 70
    16
  0
VERTEX
  5
12C
  8
0
 10
0.4170044432248261
 20
-6.61359823385903
 30
0.0
 70
    16
  0
VERTEX
  5
12D
  8
0
 10
0.3957114393945318
 20
-6.701661021223409
 30
0.0
 70
    16
  0
VERTEX
  5
12E
  8
0
 10
0.3364858658268233
 20
-6.778470949609876
 30
0.0
 70
    16
  0
VERTEX
  5
12F
  8
0
 10
0.2461809674631077
 20
-6.839261770479034
 30
0.0
 70
    16
  0
VERTEX
  5
130
  8
0
 10
0.1317204958799909
 20
-6.879239032637209
 30
0.0
 70
    16
  0
VERTEX
  5
131
  8
0
 10
0.0
 20
-6.893622386217949
 30
0.0
 70
    16
  0
VERTEX
  5
132
  8
0
 10
-0.1317204958799927
 20
-6.879239032637209
 30
0.0
 70
    16
  0
VERTEX
  5
133
  8
0
 10
-0.2461809674631077
 20
-6.839261770479034
 30
0.0
 70
    16
  0
VERTEX
  5
134
  8
0
 10
-0.3364788151633036
 20
-6.778470949609876
 30
0.0
 70
    16
  0
VERTEX
  5
135
  8
0
 10
-0.3957184900580515
 20
-6.701661021223409
 30
0.0
 70
    16
  0
VERTEX
  5
136
  8
0
 10
-0.4169973925613064
 20
-6.61359823385903
 30
0.0
 70
    16
  0
VERTEX
  5
137
  8
0
 10
-0.3957184900580515
 20
-6.701661021223409
 30
0.0
 70
    16
  0
VERTEX
  5
138
  8
0
 10
-0.3364788151633036
 20
-6.778470949609876
 30
0.0
 70
    16
  0
VERTEX
  5
139
  8
0
 10
-0.2461809674631077
 20
-6.839261770479034
 30
0.0
 70
    16
  0
SEQEND
  5
13A
  8
0
  0
LINE
  5
13B
  8
0
 10
-0.1549594828417966
 20
0.9210497289556088
 30
0.0
 11
0.0
 21
0.9335435047129863
 31
0.0
  0
LINE
  5
13C
  8
0
 10
-0.3048354372856998
 20
0.8850067370415786
 30
0.0
 11
-0.1549594828417966
 21
0.9210497289556088
 31
0.0
  0
LINE
  5
13D
  8
0
 10
-0.4445584362608521
 20
0.8268528643288846
 30
0.0
 11
-0.3048354372856998
 21
0.8850067370415786
 31
0.0
  0
LINE
  5
13E
  8
0
 10
-0.572097888673504
 20
0.7488090698263932
 30
0.0
 11
-0.4445584362608521
 21
0.8268528643288846
 31
0.0
  0
LINE
  5
13F
  8
0
 10
-0.6854302540934256
 20
0.6531104138699106
 30
0.0
 11
-0.572097888673504
 21
0.7488090698263932
 31
0.0
  0
LINE
  5
140
  8
0
 10
-0.7825178907633479
 20
0.5419778554681898
 30
0.0
 11
-0.6854302540934256
 21
0.6531104138699106
 31
0.0
  0
LINE
  5
141
  8
0
 10
-0.8613372582530392
 20
0.4176464549571506
 30
0.0
 11
-0.7825178907633479
 21
0.5419778554681898
 31
0.0
  0
LINE
  5
142
  8
0
 10
-0.9198577654687501
 20
0.2822666647102778
 30
0.0
 11
-0.8613372582530392
 21
0.4176464549571506
 31
0.0
  0
LINE
  5
143
  8
0
 10
-0.9560558719802526
 20
0.1380100890917788
 30
0.0
 11
-0.9198577654687501
 21
0.2822666647102778
 31
0.0
  0
LINE
  5
144
  8
0
 10
-0.9685707997281909
 20
-0.0102230607519687
 30
0.0
 11
-0.9560558719802526
 21
0.1380100890917788
 31
0.0
  0
LINE
  5
145
  8
0
 10
-0.9560558719802526
 20
-0.1575114216840348
 30
0.0
 11
-0.9685707997281909
 21
-0.0102230607519687
 31
0.0
  0
LINE
  5
146
  8
0
 10
-0.9198577654687501
 20
-0.2991804037906718
 30
0.0
 11
-0.9560558719802526
 21
-0.1575114216840348
 31
0.0
  0
LINE
  5
147
  8
0
 10
-0.8613372582530392
 20
-0.4305624678217441
 30
0.0
 11
-0.9198577654687501
 21
-0.2991804037906718
 31
0.0
  0
LINE
  5
148
  8
0
 10
-0.7825178907633479
 20
-0.5499372518782479
 30
0.0
 11
-0.8613372582530392
 21
-0.4305624678217441
 31
0.0
  0
LINE
  5
149
  8
0
 10
-0.6854302540934256
 20
-0.6556055460519588
 30
0.0
 11
-0.7825178907633479
 21
-0.5499372518782479
 31
0.0
  0
LINE
  5
14A
  8
0
 10
-0.572097888673504
 20
-0.7458399377804881
 30
0.0
 11
-0.6854302540934256
 21
-0.6556055460519588
 31
0.0
  0
LINE
  5
14B
  8
0
 10
-0.4445584362608521
 20
-0.8189130145013905
 30
0.0
 11
-0.572097888673504
 21
-0.7458399377804881
 31
0.0
  0
LINE
  5
14C
  8
0
 10
-0.4169973925613064
 20
-0.8295947697341717
 30
0.0
 11
-0.4445584362608521
 21
-0.8189130145013905
 31
0.0
  0
LINE
  5
14D
  8
0
 10
-0.4445584362608521
 20
-0.8189130145013905
 30
0.0
 11
-0.572097888673504
 21
-0.7458399377804881
 31
0.0
  0
LINE
  5
14E
  8
0
 10
-0.4169973925613064
 20
-0.8295947697341717
 30
0.0
 11
-0.4445584362608521
 21
-0.8189130145013905
 31
0.0
  0
LINE
  5
14F
  8
0
 10
0.4445584362608503
 20
-0.8189130145013905
 30
0.0
 11
0.4169903418977867
 21
-0.8295947697341717
 31
0.0
  0
LINE
  5
150
  8
0
 10
0.5721049393370219
 20
-0.7458328871169897
 30
0.0
 11
0.4445584362608503
 21
-0.8189130145013905
 31
0.0
  0
LINE
  5
151
  8
0
 10
0.6854232034299024
 20
-0.6556055460519588
 30
0.0
 11
0.5721049393370219
 21
-0.7458328871169897
 31
0.0
  0
LINE
  5
152
  8
0
 10
0.7825108400998246
 20
-0.5499372518782479
 30
0.0
 11
0.6854232034299024
 21
-0.6556055460519588
 31
0.0
  0
LINE
  5
153
  8
0
 10
0.8613372582530374
 20
-0.4305624678217441
 30
0.0
 11
0.7825108400998246
 21
-0.5499372518782479
 31
0.0
  0
LINE
  5
154
  8
0
 10
0.9198577654687483
 20
-0.299187454454227
 30
0.0
 11
0.8613372582530374
 21
-0.4305624678217441
 31
0.0
  0
LINE
  5
155
  8
0
 10
0.9560558719802508
 20
-0.1575114216840348
 30
0.0
 11
0.9198577654687483
 21
-0.299187454454227
 31
0.0
  0
LINE
  5
156
  8
0
 10
0.9685637490646695
 20
-0.0102230607519687
 30
0.0
 11
0.9560558719802508
 21
-0.1575114216840348
 31
0.0
  0
LINE
  5
157
  8
0
 10
0.9560558719802508
 20
0.1380100890917788
 30
0.0
 11
0.9685637490646695
 21
-0.0102230607519687
 31
0.0
  0
LINE
  5
158
  8
0
 10
0.9198577654687483
 20
0.2822666647102778
 30
0.0
 11
0.9560558719802508
 21
0.1380100890917788
 31
0.0
  0
LINE
  5
159
  8
0
 10
0.8613372582530374
 20
0.4176464549571506
 30
0.0
 11
0.9198577654687483
 21
0.2822666647102778
 31
0.0
  0
LINE
  5
15A
  8
0
 10
0.7825108400998246
 20
0.5419778554681898
 30
0.0
 11
0.8613372582530374
 21
0.4176464549571506
 31
0.0
  0
LINE
  5
15B
  8
0
 10
0.6854232034299024
 20
0.6531104138699106
 30
0.0
 11
0.7825108400998246
 21
0.5419778554681898
 31
0.0
  0
LINE
  5
15C
  8
0
 10
0.5720908380099807
 20
0.7488090698263932
 30
0.0
 11
0.6854232034299024
 21
0.6531104138699106
 31
0.0
  0
LINE
  5
15D
  8
0
 10
0.4445584362608503
 20
0.8268528643288846
 30
0.0
 11
0.5720908380099807
 21
0.7488090698263932
 31
0.0
  0
LINE
  5
15E
  8
0
 10
0.3048283866221784
 20
0.8850067370415786
 30
0.0
 11
0.4445584362608503
 21
0.8268528643288846
 31
0.0
  0
LINE
  5
15F
  8
0
 10
0.1549594828417966
 20
0.9210497289556088
 30
0.0
 11
0.3048283866221784
 21
0.8850067370415786
 31
0.0
  0
LINE
  5
160
  8
0
 10
0.0
 20
0.9335435047129863
 30
0.0
 11
0.1549594828417966
 21
0.9210497289556088
 31
0.0
  0
LINE
  5
161
  8
0
 10
-0.1549594828417966
 20
0.9210497289556088
 30
0.0
 11
0.0
 21
0.9335435047129863
 31
0.0
  0
LINE
  5
162
  8
0
 10
-0.3048354372856998
 20
0.8850067370415786
 30
0.0
 11
-0.1549594828417966
 21
0.9210497289556088
 31
0.0
  0
LINE
  5
163
  8
0
 10
-4.962137124071724
 20
0.0505254561360857
 30
0.0
 11
-4.952844349552409
 21
0.1529222424365457
 31
0.0
  0
LINE
  5
164
  8
0
 10
-4.952844349552409
 20
-0.167368249284948
 30
0.0
 11
-4.962115972081163
 21
-0.0658880492420622
 31
0.0
  0
LINE
  5
165
  8
0
 10
-4.909116134401584
 20
-0.3211220686648062
 30
0.0
 11
-4.952844349552409
 21
-0.167368249284948
 31
0.0
  0
LINE
  5
166
  8
0
 10
-4.837981990148656
 20
-0.4646665272678092
 30
0.0
 11
-4.909116134401584
 21
-0.3211220686648062
 31
0.0
  0
LINE
  5
167
  8
0
 10
-4.741211633337132
 20
-0.5936795683560945
 30
0.0
 11
-4.837981990148656
 21
-0.4646665272678092
 31
0.0
  0
LINE
  5
168
  8
0
 10
-4.622104774494359
 20
-0.7047275187955506
 30
0.0
 11
-4.741211633337132
 21
-0.5936795683560945
 31
0.0
  0
LINE
  5
169
  8
0
 10
-4.483968174811199
 20
-0.794383756115451
 30
0.0
 11
-4.622104774494359
 21
-0.7047275187955506
 31
0.0
  0
LINE
  5
16A
  8
0
 10
-4.33125785363227
 20
-0.860427321306986
 30
0.0
 11
-4.483968174811199
 21
-0.794383756115451
 31
0.0
  0
LINE
  5
16B
  8
0
 10
-4.168415728975152
 20
-0.9006725086789515
 30
0.0
 11
-4.33125785363227
 21
-0.860427321306986
 31
0.0
  0
LINE
  5
16C
  8
0
 10
-4.0005112279107
 20
-0.9143366945806406
 30
0.0
 11
-4.168415728975152
 21
-0.9006725086789515
 31
0.0
  0
LINE
  5
16D
  8
0
 10
-3.832606726846246
 20
-0.9006725086789515
 30
0.0
 11
-4.0005112279107
 21
-0.9143366945806406
 31
0.0
  0
LINE
  5
16E
  8
0
 10
-3.669771652852647
 20
-0.860427321306986
 30
0.0
 11
-3.832606726846246
 21
-0.9006725086789515
 31
0.0
  0
LINE
  5
16F
  8
0
 10
-3.5170542810102
 20
-0.7943767054519526
 30
0.0
 11
-3.669771652852647
 21
-0.860427321306986
 31
0.0
  0
LINE
  5
170
  8
0
 10
-3.378917681327041
 20
-0.7047275187955506
 30
0.0
 11
-3.5170542810102
 21
-0.7943767054519526
 31
0.0
  0
LINE
  5
171
  8
0
 10
-3.259817873147787
 20
-0.5936795683560945
 30
0.0
 11
-3.378917681327041
 21
-0.7047275187955506
 31
0.0
  0
LINE
  5
172
  8
0
 10
-3.163040465672744
 20
-0.4646665272678092
 30
0.0
 11
-3.259817873147787
 21
-0.5936795683560945
 31
0.0
  0
LINE
  5
173
  8
0
 10
-3.091913372083333
 20
-0.3211220686648062
 30
0.0
 11
-3.163040465672744
 21
-0.4646665272678092
 31
0.0
  0
LINE
  5
174
  8
0
 10
-3.048178106268988
 20
-0.167368249284948
 30
0.0
 11
-3.091913372083333
 21
-0.3211220686648062
 31
0.0
  0
LINE
  5
175
  8
0
 10
-3.0335973341097
 20
-0.0077412271929234
 30
0.0
 11
-3.048178106268988
 21
-0.167368249284948
 31
0.0
  0
LINE
  5
176
  8
0
 10
-3.048178106268988
 20
0.1529292931000441
 30
0.0
 11
-3.0335973341097
 21
-0.0077412271929234
 31
0.0
  0
LINE
  5
177
  8
0
 10
-3.091913372083333
 20
0.3098065564192893
 30
0.0
 11
-3.048178106268988
 21
0.1529292931000441
 31
0.0
  0
LINE
  5
178
  8
0
 10
-3.163040465672744
 20
0.4580749595806424
 30
0.0
 11
-3.091913372083333
 21
0.3098065564192893
 31
0.0
  0
LINE
  5
179
  8
0
 10
-3.259817873147787
 20
0.5929118487364349
 30
0.0
 11
-3.163040465672744
 21
0.4580749595806424
 31
0.0
  0
LINE
  5
17A
  8
0
 10
-3.378917681327041
 20
0.7101502817464507
 30
0.0
 11
-3.259817873147787
 21
0.5929118487364349
 31
0.0
  0
LINE
  5
17B
  8
0
 10
-3.5170542810102
 20
0.8056092151432495
 30
0.0
 11
-3.378917681327041
 21
0.7101502817464507
 31
0.0
  0
LINE
  5
17C
  8
0
 10
-3.669771652852647
 20
0.8764260795377368
 30
0.0
 11
-3.5170542810102
 21
0.8056092151432495
 31
0.0
  0
LINE
  5
17D
  8
0
 10
-3.832649030827366
 20
0.9195338362988537
 30
0.0
 11
-3.669771652852647
 21
0.8764260795377368
 31
0.0
  0
LINE
  5
17E
  8
0
 10
-4.0005112279107
 20
0.9345094456152197
 30
0.0
 11
-3.832649030827366
 21
0.9195338362988537
 31
0.0
  0
LINE
  5
17F
  8
0
 10
-4.168415728975152
 20
0.9197312548773766
 30
0.0
 11
-4.0005112279107
 21
0.9345094456152197
 31
0.0
  0
LINE
  5
180
  8
0
 10
-4.33125785363227
 20
0.8764260795377368
 30
0.0
 11
-4.168415728975152
 21
0.9197312548773766
 31
0.0
  0
LINE
  5
181
  8
0
 10
-4.483968174811199
 20
0.8056092151432495
 30
0.0
 11
-4.33125785363227
 21
0.8764260795377368
 31
0.0
  0
LINE
  5
182
  8
0
 10
-4.622104774494359
 20
0.7101502817464507
 30
0.0
 11
-4.483968174811199
 21
0.8056092151432495
 31
0.0
  0
LINE
  5
183
  8
0
 10
-4.741211633337132
 20
0.5929118487364349
 30
0.0
 11
-4.622104774494359
 21
0.7101502817464507
 31
0.0
  0
LINE
  5
184
  8
0
 10
-4.837981990148656
 20
0.4580749595806424
 30
0.0
 11
-4.741211633337132
 21
0.5929118487364349
 31
0.0
  0
LINE
  5
185
  8
0
 10
-4.909116134401584
 20
0.3098065564192893
 30
0.0
 11
-4.837981990148656
 21
0.4580749595806424
 31
0.0
  0
LINE
  5
186
  8
0
 10
-4.952844349552409
 20
0.1529222424365457
 30
0.0
 11
-4.909116134401584
 21
0.3098065564192893
 31
0.0
  0
LINE
  5
187
  8
0
 10
-4.962010212128364
 20
0.0505254561360857
 30
0.0
 11
-4.952844349552409
 21
0.1529222424365457
 31
0.0
  0
LINE
  5
188
  8
0
 10
-4.952646930973851
 20
-0.1673329959673424
 30
0.0
 11
-4.961911502839085
 21
-0.0658880492420622
 31
0.0
  0
LINE
  5
189
  8
0
 10
-4.909116134401584
 20
-0.3211220686648062
 30
0.0
 11
-4.952646930973851
 21
-0.1673329959673424
 31
0.0
  0
LINE
  5
18A
  8
0
 10
-4.837981990148656
 20
-0.4646665272678092
 30
0.0
 11
-4.909116134401584
 21
-0.3211220686648062
 31
0.0
  0
LINE
  5
18B
  8
0
 10
-4.569506824635417
 20
0.0505254561360857
 30
0.0
 11
-6.207573378901911
 21
0.0505254561360857
 31
0.0
  0
LINE
  5
18C
  8
0
 10
-4.538215979933812
 20
0.0828245457210528
 30
0.0
 11
-4.569506824635417
 21
0.0505254561360857
 31
0.0
  0
LINE
  5
18D
  8
0
 10
-4.47336397687717
 20
0.2541486185926942
 30
0.0
 11
-4.538215979933812
 21
0.0828245457210528
 31
0.0
  0
LINE
  5
18E
  8
0
 10
-4.35147915660753
 20
0.3949151157687538
 30
0.0
 11
-4.47336397687717
 21
0.2541486185926942
 31
0.0
  0
LINE
  5
18F
  8
0
 10
-4.187262152564019
 20
0.4873563651790391
 30
0.0
 11
-4.35147915660753
 21
0.3949151157687538
 31
0.0
  0
LINE
  5
190
  8
0
 10
-4.000518278574219
 20
0.5195708468017415
 30
0.0
 11
-4.187262152564019
 21
0.4873563651790391
 31
0.0
  0
LINE
  5
191
  8
0
 10
-3.81377440458442
 20
0.4873563651790391
 30
0.0
 11
-4.000518278574219
 21
0.5195708468017415
 31
0.0
  0
LINE
  5
192
  8
0
 10
-3.649557400540907
 20
0.3949151157687538
 30
0.0
 11
-3.81377440458442
 21
0.4873563651790391
 31
0.0
  0
LINE
  5
193
  8
0
 10
-3.527665529607749
 20
0.2541486185926942
 30
0.0
 11
-3.649557400540907
 21
0.3949151157687538
 31
0.0
  0
LINE
  5
194
  8
0
 10
-3.462813526551107
 20
0.0828245457210528
 30
0.0
 11
-3.527665529607749
 21
0.2541486185926942
 31
0.0
  0
LINE
  5
195
  8
0
 10
-3.462813526551107
 20
-0.0979685682578975
 30
0.0
 11
-3.462813526551107
 21
0.0828245457210528
 31
0.0
  0
LINE
  5
196
  8
0
 10
-3.527665529607749
 20
-0.2665358316932611
 30
0.0
 11
-3.462813526551107
 21
-0.0979685682578975
 31
0.0
  0
LINE
  5
197
  8
0
 10
-3.649557400540907
 20
-0.4030789814208902
 30
0.0
 11
-3.527665529607749
 21
-0.2665358316932611
 31
0.0
  0
LINE
  5
198
  8
0
 10
-3.81377440458442
 20
-0.4918115818196611
 30
0.0
 11
-3.649557400540907
 21
-0.4030789814208902
 31
0.0
  0
LINE
  5
199
  8
0
 10
-4.000518278574219
 20
-0.5225595254302107
 30
0.0
 11
-3.81377440458442
 21
-0.4918115818196611
 31
0.0
  0
LINE
  5
19A
  8
0
 10
-4.187262152564019
 20
-0.4918115818196611
 30
0.0
 11
-4.000518278574219
 21
-0.5225595254302107
 31
0.0
  0
LINE
  5
19B
  8
0
 10
-4.35147915660753
 20
-0.4030789814208902
 30
0.0
 11
-4.187262152564019
 21
-0.4918115818196611
 31
0.0
  0
LINE
  5
19C
  8
0
 10
-4.47336397687717
 20
-0.2665358316932611
 30
0.0
 11
-4.35147915660753
 21
-0.4030789814208902
 31
0.0
  0
LINE
  5
19D
  8
0
 10
-4.538215979933812
 20
-0.0979685682578975
 30
0.0
 11
-4.47336397687717
 21
-0.2665358316932611
 31
0.0
  0
LINE
  5
19E
  8
0
 10
-4.569506824635417
 20
-0.0658880492420622
 30
0.0
 11
-4.538215979933812
 21
-0.0979685682578975
 31
0.0
  0
LINE
  5
19F
  8
0
 10
-6.207573378901911
 20
-0.0658880492420622
 30
0.0
 11
-4.569506824635417
 21
-0.0658880492420622
 31
0.0
  0
LINE
  5
1A0
  8
0
 10
-6.207573378901911
 20
0.0505254561360857
 30
0.0
 11
-6.207573378901911
 21
-0.0658880492420622
 31
0.0
  0
LINE
  5
1A1
  8
0
 10
-0.4169973925613064
 20
-6.61359823385903
 30
0.0
 11
-0.4099044250602226
 21
-6.642952496313804
 31
0.0
  0
LINE
  5
1A2
  8
0
 10
0.4170044432248261
 20
-6.61359823385903
 30
0.0
 11
0.4099067752813959
 21
-6.642952496313804
 31
0.0
  0
ATTDEF
  5
1A3
  8
0
 10
-0.0018
 20
-0.0065
 30
0.0
 40
0.003
  1
K-T954-4
  3

  2
MODELNUMBER
 70
     2
  0
ATTDEF
  5
1A4
  8
0
 10
-0.0018
 20
-0.0098
 30
0.0
 40
0.003
  1
STILLNESS
  3

  2
TRADENAME
 70
     2
  0
ATTDEF
  5
1A5
  8
0
 10
-0.0018
 20
-0.0132
 30
0.0
 40
0.003
  1
FAUCET
  3

  2
PRODUCT
 70
     2
  0
ATTDEF
  5
1A6
  8
0
 10
-0.0018
 20
-0.0165
 30
0.0
 40
0.003
  1
BRASS
  3

  2
MATERIAL
 70
     2
  0
ENDSEC
  0
EOF
