999
DXF file: 37343in_2D.dxf
999
Pro/ENGINEER 2012070 by Parametric Technology Corporation
  0
SECTION
  2
HEADER
  9
$ACADVER
  1
AC1021
  9
$DWGCODEPAGE
  3
ANSI_1252
  9
$EXTMAX
 10
594.0
 20
420.0
 30
0.0
  9
$EXTMIN
 10
0.0
 20
0.0
 30
0.0
  9
$LIMMIN
 10
0.0
 20
0.0
  9
$LIMMAX
 10
594.0
 20
420.0
  9
$VIEWCTR
 10
297.0
 20
210.0
  9
$VIEWSIZE
 40
420.0
  9
$CLAYER
  8
0
  9
$LTSCALE
 40
32.67
  9
$CELTYPE
  6
BYLAYER
  9
$DIMSCALE
 40
1.0
  9
$DIMASZ
 40
3.5
  9
$DIMEXO
 40
1.0
  9
$DIMDLI
 40
22.572
  9
$DIMEXE
 40
1.5
  9
$DIMCEN
 40
5.346
  9
$DIMLFAC
 40
1.0
  9
$DIMBLK
  1
_FILLED
  9
$DIMTXT
 40
3.5
  9
$DIMTOL
 70
1
  9
$DIMLIM
 70
0
  9
$DIMTFAC
 40
1.0
  9
$DIMTP
 40
0.01
  9
$DIMTM
 40
0.01
  9
$DIMGAP
 40
0.625
  9
$DIMDSEP
 70
46
  9
$PDMODE
 70
3
  9
$PDSIZE
 40
0.3125
  9
$HANDSEED
  5
3CF
  9
$TILEMODE
 70
1
  9
$MEASUREMENT
 70
1
  9
$INSUNITS
 70
4
  0
ENDSEC
  0
SECTION
  2
CLASSES
  0
CLASS
  1
ACDBDICTIONARYWDFLT
  2
AcDbDictionaryWithDefault
  3
AutoCAD 2000
 90
0
 91
1
280
0
281
0
  0
CLASS
  1
ACDBPLACEHOLDER
  2
AcDbPlaceHolder
  3
AutoCAD 2000
 90
0
 91
1
280
0
281
0
  0
CLASS
  1
LAYOUT
  2
AcDbLayout
  3
AutoCAD 2000
 90
0
 91
0
280
0
281
0
  0
ENDSEC
  0
SECTION
  2
TABLES
  0
TABLE
  2
VPORT
  5
8
100
AcDbSymbolTable
 70
2
  0
VPORT
  5
1F4
100
AcDbSymbolTableRecord
100
AcDbViewportTableRecord
  2
*ACTIVE
 70
0
 10
0.0
 20
0.0
 11
1.0
 21
1.0
 12
297.0
 22
210.0
 13
0.0
 23
0.0
 14
1.0
 24
1.0
 15
0.0
 25
0.0
 16
0.0
 26
0.0
 36
1.0
 17
0.0
 27
0.0
 37
0.0
 40
420.0
 41
1.4142857143
 42
50.0
 43
0.0
 44
0.0
 50
0.0
 51
0.0
 71
0
 72
100
 73
1
 74
1
 75
0
 76
0
 77
0
 78
0
  0
ENDTAB
  0
TABLE
  2
LTYPE
  5
5
100
AcDbSymbolTable
 70
6
  0
LTYPE
  5
14
100
AcDbSymbolTableRecord
100
AcDbLinetypeTableRecord
  2
BYBLOCK
 70
0
  3

 72
65
 73
0
 40
0.0
  0
LTYPE
  5
15
100
AcDbSymbolTableRecord
100
AcDbLinetypeTableRecord
  2
BYLAYER
 70
0
  3

 72
65
 73
0
 40
0.0
  0
LTYPE
  5
16
100
AcDbSymbolTableRecord
100
AcDbLinetypeTableRecord
  2
CONTINUOUS
 70
64
  3
Solid line
 72
65
 73
0
 40
0.0
  0
LTYPE
  5
1F5
100
AcDbSymbolTableRecord
100
AcDbLinetypeTableRecord
  2
CENTER
 70
64
  3
____ _ ____ _ ____ _ ____ _ ____ _ ____ _ ____
 72
65
 73
4
 40
0.6
 49
0.375
 74
0
 49
-0.075
 74
0
 49
0.075
 74
0
 49
-0.075
 74
0
  0
LTYPE
  5
1F6
100
AcDbSymbolTableRecord
100
AcDbLinetypeTableRecord
  2
HIDDEN
 70
64
  3
- - - - - - - - - - - - - - - - - - - -
 72
65
 73
2
 40
0.2
 49
0.1
 74
0
 49
-0.1
 74
0
  0
LTYPE
  5
1F7
100
AcDbSymbolTableRecord
100
AcDbLinetypeTableRecord
  2
PHANTOM
 70
64
  3
_____ _ _ _____ _ _ _____ _ _ _____
 72
65
 73
6
 40
0.8
 49
0.45
 74
0
 49
-0.05
 74
0
 49
0.1
 74
0
 49
-0.05
 74
0
 49
0.1
 74
0
 49
-0.05
 74
0
  0
LTYPE
  5
1F8
100
AcDbSymbolTableRecord
100
AcDbLinetypeTableRecord
  2
DOT
 70
64
  3
. . . . . . . . . . . . . . . . . . . .
 72
65
 73
2
 40
0.2
 49
0.1
 74
0
 49
-0.1
 74
0
  0
LTYPE
  5
1F9
100
AcDbSymbolTableRecord
100
AcDbLinetypeTableRecord
  2
DASHED
 70
64
  3
- - - - - - - - - - - - - - - - - - - -
 72
65
 73
2
 40
0.2
 49
0.1
 74
0
 49
-0.1
 74
0
  0
ENDTAB
  0
TABLE
  2
LAYER
  5
2
100
AcDbSymbolTable
 70
36
  0
LAYER
  5
10
100
AcDbSymbolTableRecord
100
AcDbLayerTableRecord
  2
0
 70
0
 62
7
  6
CONTINUOUS
370
-3
390
F
  0
LAYER
  5
1FA
100
AcDbSymbolTableRecord
100
AcDbLayerTableRecord
  2
DEFAULT_1
 70
0
 62
7
  6
CENTER
370
-3
390
F
  0
LAYER
  5
1FB
100
AcDbSymbolTableRecord
100
AcDbLayerTableRecord
  2
DEFAULT_2
 70
0
 62
8
  6
HIDDEN
370
-3
390
F
  0
LAYER
  5
1FC
100
AcDbSymbolTableRecord
100
AcDbLayerTableRecord
  2
DEFAULT_3
 70
0
 62
7
  6
PHANTOM
370
-3
390
F
  0
LAYER
  5
1FD
100
AcDbSymbolTableRecord
100
AcDbLayerTableRecord
  2
01_ALL_PLANES
 70
0
 62
7
  6
CONTINUOUS
370
-3
390
F
  0
LAYER
  5
1FE
100
AcDbSymbolTableRecord
100
AcDbLayerTableRecord
  2
02_ALL_CSYS
 70
0
 62
7
  6
CONTINUOUS
370
-3
390
F
  0
LAYER
  5
1FF
100
AcDbSymbolTableRecord
100
AcDbLayerTableRecord
  2
20_ALL_FEATURES
 70
0
 62
7
  6
CONTINUOUS
370
-3
390
F
  0
LAYER
  5
200
100
AcDbSymbolTableRecord
100
AcDbLayerTableRecord
  2
AXES_REF
 70
0
 62
7
  6
CONTINUOUS
370
-3
390
F
  0
LAYER
  5
201
100
AcDbSymbolTableRecord
100
AcDbLayerTableRecord
  2
DATUMS
 70
0
 62
7
  6
CONTINUOUS
370
-3
390
F
  0
LAYER
  5
202
100
AcDbSymbolTableRecord
100
AcDbLayerTableRecord
  2
DATUM_AXIS
 70
0
 62
7
  6
CONTINUOUS
370
-3
390
F
  0
LAYER
  5
203
100
AcDbSymbolTableRecord
100
AcDbLayerTableRecord
  2
DATUM_CSYS
 70
0
 62
7
  6
CONTINUOUS
370
-3
390
F
  0
LAYER
  5
204
100
AcDbSymbolTableRecord
100
AcDbLayerTableRecord
  2
DATUM_PLANE
 70
0
 62
7
  6
CONTINUOUS
370
-3
390
F
  0
LAYER
  5
205
100
AcDbSymbolTableRecord
100
AcDbLayerTableRecord
  2
DATUM_POINT
 70
0
 62
7
  6
CONTINUOUS
370
-3
390
F
  0
LAYER
  5
206
100
AcDbSymbolTableRecord
100
AcDbLayerTableRecord
  2
LAY0001
 70
0
 62
7
  6
CONTINUOUS
370
-3
390
F
  0
LAYER
  5
207
100
AcDbSymbolTableRecord
100
AcDbLayerTableRecord
  2
PLAN_REF
 70
0
 62
7
  6
CONTINUOUS
370
-3
390
F
  0
LAYER
  5
208
100
AcDbSymbolTableRecord
100
AcDbLayerTableRecord
  2
REPERE
 70
0
 62
7
  6
CONTINUOUS
370
-3
390
F
  0
LAYER
  5
209
100
AcDbSymbolTableRecord
100
AcDbLayerTableRecord
  2
XSEC_DATUMS
 70
0
 62
7
  6
CONTINUOUS
370
-3
390
F
  0
LAYER
  5
20A
100
AcDbSymbolTableRecord
100
AcDbLayerTableRecord
  2
_CURVE
 70
0
 62
7
  6
CONTINUOUS
370
-3
390
F
  0
LAYER
  5
20B
100
AcDbSymbolTableRecord
100
AcDbLayerTableRecord
  2
_SURFACE
 70
0
 62
7
  6
CONTINUOUS
370
-3
390
F
  0
LAYER
  5
20C
100
AcDbSymbolTableRecord
100
AcDbLayerTableRecord
  2
__REF_CURVE
 70
0
 62
7
  6
CONTINUOUS
370
-3
390
F
  0
LAYER
  5
20D
100
AcDbSymbolTableRecord
100
AcDbLayerTableRecord
  2
__REF_SURFACE
 70
0
 62
7
  6
CONTINUOUS
370
-3
390
F
  0
LAYER
  5
20E
100
AcDbSymbolTableRecord
100
AcDbLayerTableRecord
  2
___COSMETIC_THREAD
 70
0
 62
7
  6
CONTINUOUS
370
-3
390
F
  0
LAYER
  5
20F
100
AcDbSymbolTableRecord
100
AcDbLayerTableRecord
  2
___GDT
 70
0
 62
7
  6
CONTINUOUS
370
-3
390
F
  0
LAYER
  5
210
100
AcDbSymbolTableRecord
100
AcDbLayerTableRecord
  2
___NOTE
 70
0
 62
7
  6
CONTINUOUS
370
-3
390
F
  0
LAYER
  5
211
100
AcDbSymbolTableRecord
100
AcDbLayerTableRecord
  2
___SYMBOL
 70
0
 62
7
  6
CONTINUOUS
370
-3
390
F
  0
ENDTAB
  0
TABLE
  2
STYLE
  5
3
100
AcDbSymbolTable
 70
1
  0
STYLE
  5
11
100
AcDbSymbolTableRecord
100
AcDbTextStyleTableRecord
  2
STANDARD
 70
0
 40
0.0
 41
0.8
 50
0.0
 71
0
 42
0.2
  3
txt
  4

  0
STYLE
  5
212
100
AcDbSymbolTableRecord
100
AcDbTextStyleTableRecord
  2
TEXTSTYLE_1
 70
0
 40
0.0
 41
0.8
 50
0.0
 71
0
 42
0.2
  3
gdt
  4

  0
ENDTAB
  0
TABLE
  2
VIEW
  5
6
100
AcDbSymbolTable
 70
0
  0
ENDTAB
  0
TABLE
  2
UCS
  5
7
100
AcDbSymbolTable
 70
0
  0
ENDTAB
  0
TABLE
  2
APPID
  5
9
100
AcDbSymbolTable
 70
1
  0
APPID
  5
213
100
AcDbSymbolTableRecord
100
AcDbRegAppTableRecord
  2
ACAD
 70
0
  0
ENDTAB
  0
TABLE
  2
BLOCK_RECORD
  5
1
100
AcDbSymbolTable
 70
0
  0
BLOCK_RECORD
  5
214
100
AcDbSymbolTableRecord
100
AcDbBlockTableRecord
  2
*Model_Space
  0
BLOCK_RECORD
  5
215
100
AcDbSymbolTableRecord
100
AcDbBlockTableRecord
  2
*Paper_Space
  0
ENDTAB
  0
TABLE
  2
DIMSTYLE
  5
A
100
AcDbSymbolTable
 70
1
100
AcDbDimStyleTable
 71
0
  0
DIMSTYLE
105
216
100
AcDbSymbolTableRecord
100
AcDbDimStyleTableRecord
  2
STANDARD
 70
0
  3

  4

 40
1.0
 41
3.5
 42
1.0
 43
0.38
 44
1.5
 45
0.0
 46
0.0
 47
0.01
 48
0.01
140
3.5
141
0.09
142
0.0
143
25.4
144
1.0
145
0.0
146
1.0
147
0.625
 71
1.0
 72
0.0
 73
0
 74
0
 75
0
 76
0
 77
1
 78
8
170
0
171
2
172
0
173
0
174
0
175
0
176
0
177
0
178
0
270
2
271
3
272
3
273
2
274
2
275
0
280
0
281
0
282
0
283
1
284
8
285
0
286
0
287
3
288
0
340
11
278
46
  0
ENDTAB
  0
ENDSEC
  0
SECTION
  2
BLOCKS
  0
BLOCK
  5
20
100
AcDbEntity
  8
0
100
AcDbBlockBegin
  2
*Model_Space
 70
0
 10
0.0
 20
0.0
 30
0.0
  3
*Model_Space
  1

  0
ENDBLK
  5
21
100
AcDbEntity
  8
0
100
AcDbBlockEnd
  0
BLOCK
  5
1C
100
AcDbEntity
  8
0
100
AcDbBlockBegin
  2
*Paper_Space
 70
0
 10
0.0
 20
0.0
 30
0.0
  3
*Paper_Space
  1

  0
ENDBLK
  5
1D
100
AcDbEntity
  8
0
100
AcDbBlockEnd
  0
ENDSEC
  0
SECTION
  2
ENTITIES
  0
LINE
  5
217
100
AcDbEntity
  8
0
100
AcDbLine
 62
7
  6
CONTINUOUS
 10
0.0
 20
0.0
 11
0.0
 21
420.0
  0
LINE
  5
218
100
AcDbEntity
  8
0
100
AcDbLine
 62
7
  6
CONTINUOUS
 10
0.0
 20
0.0
 11
594.0
 21
0.0
  0
LINE
  5
219
100
AcDbEntity
  8
0
100
AcDbLine
 62
7
  6
CONTINUOUS
 10
0.0
 20
420.0
 11
594.0
 21
420.0
  0
LINE
  5
21A
100
AcDbEntity
  8
0
100
AcDbLine
 62
7
  6
CONTINUOUS
 10
594.0
 20
0.0
 11
594.0
 21
420.0
  0
LINE
  5
21B
100
AcDbEntity
  8
0
100
AcDbLine
 62
7
  6
CONTINUOUS
 10
176.7784939402
 20
94.0298588761
 11
176.7784939402
 21
74.5298588761
  0
LINE
  5
21C
100
AcDbEntity
  8
0
100
AcDbLine
 62
7
  6
CONTINUOUS
 10
247.2784439722
 20
51.9122047194
 11
246.2784439488
 21
52.9122046972
  0
LINE
  5
21D
100
AcDbEntity
  8
DATUM_AXIS
100
AcDbLine
 62
7
  6
CONTINUOUS
 10
244.7784441882
 20
62.4122049366
 11
244.7784441882
 21
66.0299105455
  0
LINE
  5
21E
100
AcDbEntity
  8
0
100
AcDbLine
 62
7
  6
CONTINUOUS
 10
245.2784434672
 20
61.9122042145
 11
244.7784434353
 21
62.4122041837
  0
LINE
  5
21F
100
AcDbEntity
  8
0
100
AcDbLine
 62
7
  6
CONTINUOUS
 10
245.2784441882
 20
117.5298588761
 11
245.2784441882
 21
114.9298588761
  0
LINE
  5
220
100
AcDbEntity
  8
DATUM_AXIS
100
AcDbLine
 62
7
  6
CONTINUOUS
 10
246.2784441882
 20
52.9122049366
 11
246.2784441882
 21
61.912204936
  0
LINE
  5
221
100
AcDbEntity
  8
0
100
AcDbLine
 62
2
  6
CONTINUOUS
 10
247.4629441882
 20
51.912204936
 11
247.4629441882
 21
61.912204936
  0
LINE
  5
222
100
AcDbEntity
  8
0
100
AcDbLine
 62
7
  6
CONTINUOUS
 10
250.2784441882
 20
112.9798588761
 11
250.2784441882
 21
99.9298588761
  0
LINE
  5
223
100
AcDbEntity
  8
0
100
AcDbLine
 62
7
  6
CONTINUOUS
 10
252.7784441882
 20
99.2298588761
 11
252.7784441882
 21
96.2798588761
  0
LINE
  5
224
100
AcDbEntity
  8
0
100
AcDbLine
 62
7
  6
CONTINUOUS
 10
260.7784441882
 20
99.2298588761
 11
260.7784441882
 21
96.2798588761
  0
LINE
  5
225
100
AcDbEntity
  8
0
100
AcDbLine
 62
7
  6
CONTINUOUS
 10
247.2784441888
 20
51.912204936
 11
266.2784441877
 21
51.912204936
  0
LINE
  5
226
100
AcDbEntity
  8
0
100
AcDbLine
 62
7
  6
CONTINUOUS
 10
246.2784441882
 20
52.9122049366
 11
267.2784441882
 21
52.9122049366
  0
LINE
  5
227
100
AcDbEntity
  8
0
100
AcDbLine
 62
7
  6
CONTINUOUS
 10
263.2784441882
 20
112.9798588761
 11
263.2784441882
 21
99.9298588761
  0
LINE
  5
228
100
AcDbEntity
  8
0
100
AcDbLine
 62
2
  6
CONTINUOUS
 10
266.0939441882
 20
51.912204936
 11
266.0939441882
 21
61.912204936
  0
LINE
  5
229
100
AcDbEntity
  8
DATUM_AXIS
100
AcDbLine
 62
7
  6
CONTINUOUS
 10
267.2784441882
 20
52.9122049366
 11
267.2784441882
 21
61.912204936
  0
LINE
  5
22A
100
AcDbEntity
  8
0
100
AcDbLine
 62
7
  6
CONTINUOUS
 10
268.2784441882
 20
117.5298588761
 11
268.2784441882
 21
114.9298588761
  0
LINE
  5
22B
100
AcDbEntity
  8
DATUM_AXIS
100
AcDbLine
 62
7
  6
CONTINUOUS
 10
268.7784441882
 20
62.4122049366
 11
268.7784441882
 21
66.0299106234
  0
LINE
  5
22C
100
AcDbEntity
  8
0
100
AcDbLine
 62
7
  6
CONTINUOUS
 10
352.4784939402
 20
61.2798588761
 11
356.0784939402
 21
61.2798588761
  0
LINE
  5
22D
100
AcDbEntity
  8
0
100
AcDbLine
 62
7
  6
CONTINUOUS
 10
245.2784441888
 20
61.912204936
 11
268.2784441877
 21
61.912204936
  0
LINE
  5
22E
100
AcDbEntity
  8
0
100
AcDbLine
 62
7
  6
CONTINUOUS
 10
244.7784441882
 20
62.4122049366
 11
268.7784441882
 21
62.4122049366
  0
LINE
  5
22F
100
AcDbEntity
  8
0
100
AcDbLine
 62
7
  6
CONTINUOUS
 10
358.7784939402
 20
64.2798588761
 11
356.7784939402
 21
64.2798588761
  0
LINE
  5
230
100
AcDbEntity
  8
0
100
AcDbLine
 62
7
  6
CONTINUOUS
 10
256.7784441871
 20
66.0301151191
 11
269.0284441882
 21
66.0298588843
  0
LINE
  5
231
100
AcDbEntity
  8
0
100
AcDbLine
 62
7
  6
CONTINUOUS
 10
244.5284441882
 20
66.0298588839
 11
256.7784441871
 21
66.0301151191
  0
LWPOLYLINE
  5
232
100
AcDbEntity
  8
0
100
AcDbPolyline
 62
7
  6
CONTINUOUS
 90
15
 70
0
 10
212.7038530055
 20
72.4857901939
 10
213.8481496274
 20
72.4382507351
 10
215.7888794142
 20
72.3196994695
 10
217.7835088907
 20
72.149739467
 10
219.8354832975
 20
71.9259452663
 10
221.9566923919
 20
71.644504441
 10
224.1442084106
 20
71.3031619392
 10
226.3982899286
 20
70.8995441267
 10
228.7351013885
 20
70.428108904
 10
231.1485486113
 20
69.8873935477
 10
233.6403004585
 20
69.2748300731
 10
236.237102311
 20
68.5811383663
 10
238.9450491966
 20
67.801468148
 10
241.7500242488
 20
66.9375765478
 10
244.5284442112
 20
66.0298588684
  0
LINE
  5
233
100
AcDbEntity
  8
0
100
AcDbLine
 62
7
  6
CONTINUOUS
 10
178.7784939402
 20
72.5298588761
 11
351.7784939402
 21
72.5298588761
  0
LINE
  5
234
100
AcDbEntity
  8
0
100
AcDbLine
 62
7
  6
CONTINUOUS
 10
405.2784939402
 20
73.7798588761
 11
358.7784939402
 21
73.7798588761
  0
LINE
  5
235
100
AcDbEntity
  8
0
100
AcDbLine
 62
2
  6
CONTINUOUS
 10
406.4634939402
 20
74.9648588761
 11
358.7784939402
 21
74.9648588761
  0
LINE
  5
236
100
AcDbEntity
  8
0
100
AcDbLine
 62
7
  6
CONTINUOUS
 10
268.2784449092
 20
61.9122042145
 11
268.7784449412
 21
62.4122041837
  0
LINE
  5
237
100
AcDbEntity
  8
0
100
AcDbLine
 62
7
  6
CONTINUOUS
 10
266.2784444043
 20
51.9122047194
 11
267.2784444277
 21
52.9122046972
  0
LINE
  5
238
100
AcDbEntity
  8
0
100
AcDbLine
 62
2
  6
CONTINUOUS
 10
406.4634939402
 20
93.5948588761
 11
358.7784939402
 21
93.5948588761
  0
LWPOLYLINE
  5
239
100
AcDbEntity
  8
0
100
AcDbPolyline
 62
7
  6
CONTINUOUS
 90
16
 70
0
 10
269.0284441638
 20
66.0298588679
 10
271.8066157537
 20
66.9374984343
 10
274.6113940248
 20
67.8013383306
 10
277.3192020111
 20
68.580981907
 10
279.9159308674
 20
69.2746702297
 10
282.407670524
 20
69.8872479117
 10
284.821147893
 20
70.4279870487
 10
287.1580399161
 20
70.8994540506
 10
289.4122451245
 20
71.3031066662
 10
291.5998855653
 20
71.6444777175
 10
293.7212267751
 20
71.9259413807
 10
295.7733336871
 20
72.1497512678
 10
297.7680316367
 20
72.3197149279
 10
299.7087441322
 20
72.4382612745
 10
301.5904186191
 20
72.5074232161
 10
303.4112650923
 20
72.5298588636
  0
LINE
  5
23A
100
AcDbEntity
  8
0
100
AcDbLine
 62
7
  6
CONTINUOUS
 10
405.2784939402
 20
94.7798588761
 11
358.7784939402
 21
94.7798588761
  0
LINE
  5
23B
100
AcDbEntity
  8
0
100
AcDbLine
 62
7
  6
CONTINUOUS
 10
351.7784939402
 20
96.0298588761
 11
178.7784939402
 21
96.0298588761
  0
LINE
  5
23C
100
AcDbEntity
  8
0
100
AcDbLine
 62
7
  6
CONTINUOUS
 10
250.9784441882
 20
99.2298588761
 11
262.5784441882
 21
99.2298588761
  0
LINE
  5
23D
100
AcDbEntity
  8
0
100
AcDbLine
 62
7
  6
CONTINUOUS
 10
358.7784939402
 20
104.2798588761
 11
356.7784939402
 21
104.2798588761
  0
LINE
  5
23E
100
AcDbEntity
  8
0
100
AcDbLine
 62
7
  6
CONTINUOUS
 10
352.4784939402
 20
107.2798588761
 11
356.0784939402
 21
107.2798588761
  0
LINE
  5
23F
100
AcDbEntity
  8
0
100
AcDbLine
 62
7
  6
CONTINUOUS
 10
246.9784441885
 20
113.2298588761
 11
266.5784441879
 21
113.2298588761
  0
LINE
  5
240
100
AcDbEntity
  8
0
100
AcDbLine
 62
7
  6
CONTINUOUS
 10
245.9784441882
 20
118.2298588761
 11
267.5784441882
 21
118.2298588761
  0
LINE
  5
241
100
AcDbEntity
  8
0
100
AcDbLine
 62
7
  6
CONTINUOUS
 10
351.7784939402
 20
61.9798588761
 11
351.7784939402
 21
106.5798588761
  0
LINE
  5
242
100
AcDbEntity
  8
0
100
AcDbLine
 62
7
  6
CONTINUOUS
 10
356.7784939402
 20
61.9798588761
 11
356.7784939402
 21
106.5798588761
  0
LINE
  5
243
100
AcDbEntity
  8
0
100
AcDbLine
 62
7
  6
CONTINUOUS
 10
358.7784939402
 20
64.2798588761
 11
358.7784939402
 21
104.2798588761
  0
LINE
  5
244
100
AcDbEntity
  8
0
100
AcDbLine
 62
7
  6
CONTINUOUS
 10
406.7784939402
 20
75.2798588761
 11
405.2784939402
 21
73.7798588761
  0
LINE
  5
245
100
AcDbEntity
  8
0
100
AcDbLine
 62
7
  6
CONTINUOUS
 10
406.7784939402
 20
93.279858876
 11
405.2784939402
 21
94.779858876
  0
LINE
  5
246
100
AcDbEntity
  8
0
100
AcDbLine
 62
7
  6
CONTINUOUS
 10
405.2784939402
 20
94.7798588761
 11
405.2784939402
 21
73.7798588761
  0
LINE
  5
247
100
AcDbEntity
  8
0
100
AcDbLine
 62
7
  6
CONTINUOUS
 10
406.4634939402
 20
74.9648588761
 11
406.4634939402
 21
93.5948588761
  0
LINE
  5
248
100
AcDbEntity
  8
0
100
AcDbLine
 62
7
  6
CONTINUOUS
 10
406.7784939402
 20
93.2798588761
 11
406.7784939402
 21
75.2798588761
  0
LINE
  5
249
100
AcDbEntity
  8
0
100
AcDbLine
 62
7
  6
CONTINUOUS
 10
176.7784939402
 20
217.2263399228
 11
176.7784939402
 21
175.2263399228
  0
LINE
  5
24A
100
AcDbEntity
  8
0
100
AcDbLine
 62
7
  6
CONTINUOUS
 10
178.7784939402
 20
173.2263399228
 11
178.7784939402
 21
219.2263399228
  0
LINE
  5
24B
100
AcDbEntity
  8
0
100
AcDbLine
 62
7
  6
CONTINUOUS
 10
245.2784441882
 20
205.2263399228
 11
245.2784441882
 21
187.2263399228
  0
LINE
  5
24C
100
AcDbEntity
  8
0
100
AcDbLine
 62
7
  6
CONTINUOUS
 10
245.9784441882
 20
205.2263399228
 11
245.9784441882
 21
187.2263399228
  0
LINE
  5
24D
100
AcDbEntity
  8
0
100
AcDbLine
 62
7
  6
CONTINUOUS
 10
247.7784441882
 20
185.4263399228
 11
247.7784441882
 21
184.7263399228
  0
LINE
  5
24E
100
AcDbEntity
  8
0
100
AcDbLine
 62
7
  6
CONTINUOUS
 10
247.7784441882
 20
207.0263399228
 11
247.7784441882
 21
207.7263399228
  0
LINE
  5
24F
100
AcDbEntity
  8
0
100
AcDbLine
 62
7
  6
CONTINUOUS
 10
352.4784939402
 20
164.7263399228
 11
356.0784939402
 21
164.7263399228
  0
LINE
  5
250
100
AcDbEntity
  8
0
100
AcDbLine
 62
7
  6
CONTINUOUS
 10
265.7784441882
 20
185.4263399228
 11
265.7784441882
 21
184.7263399228
  0
LINE
  5
251
100
AcDbEntity
  8
0
100
AcDbLine
 62
7
  6
CONTINUOUS
 10
265.7784441882
 20
207.0263399228
 11
265.7784441882
 21
207.7263399228
  0
LINE
  5
252
100
AcDbEntity
  8
0
100
AcDbLine
 62
7
  6
CONTINUOUS
 10
267.5784441882
 20
187.2263399228
 11
267.5784441882
 21
205.2263399228
  0
LINE
  5
253
100
AcDbEntity
  8
0
100
AcDbLine
 62
7
  6
CONTINUOUS
 10
268.2784441882
 20
187.2263399228
 11
268.2784441882
 21
205.2263399228
  0
LINE
  5
254
100
AcDbEntity
  8
0
100
AcDbLine
 62
7
  6
CONTINUOUS
 10
358.7784939402
 20
167.7263399228
 11
356.7784939402
 21
167.7263399228
  0
LINE
  5
255
100
AcDbEntity
  8
0
100
AcDbLine
 62
7
  6
CONTINUOUS
 10
351.7784939402
 20
169.7263399228
 11
356.7784939402
 21
169.7263399228
  0
LINE
  5
256
100
AcDbEntity
  8
0
100
AcDbLine
 62
7
  6
CONTINUOUS
 10
358.7784939402
 20
172.7263399228
 11
356.7784939402
 21
172.7263399228
  0
LINE
  5
257
100
AcDbEntity
  8
0
100
AcDbLine
 62
7
  6
CONTINUOUS
 10
351.7784939402
 20
173.2263399228
 11
178.7784939402
 21
173.2263399228
  0
LINE
  5
258
100
AcDbEntity
  8
0
100
AcDbLine
 62
7
  6
CONTINUOUS
 10
351.7784939402
 20
178.2263399228
 11
176.7784939402
 21
178.2263399228
  0
LINE
  5
259
100
AcDbEntity
  8
0
100
AcDbLine
 62
7
  6
CONTINUOUS
 10
247.7784441882
 20
184.7263399228
 11
265.7784441882
 21
184.7263399228
  0
LINE
  5
25A
100
AcDbEntity
  8
0
100
AcDbLine
 62
7
  6
CONTINUOUS
 10
247.7784441882
 20
185.4263399228
 11
265.7784441882
 21
185.4263399228
  0
LINE
  5
25B
100
AcDbEntity
  8
0
100
AcDbLine
 62
7
  6
CONTINUOUS
 10
405.2784939402
 20
185.7263399228
 11
358.7784939402
 21
185.7263399228
  0
LINE
  5
25C
100
AcDbEntity
  8
0
100
AcDbLine
 62
2
  6
CONTINUOUS
 10
406.4634939402
 20
186.9113399228
 11
358.7784939402
 21
186.9113399228
  0
LINE
  5
25D
100
AcDbEntity
  8
0
100
AcDbLine
 62
7
  6
CONTINUOUS
 10
245.9784441882
 20
187.2263399228
 11
245.2784441882
 21
187.2263399228
  0
LINE
  5
25E
100
AcDbEntity
  8
0
100
AcDbLine
 62
7
  6
CONTINUOUS
 10
267.5784441882
 20
187.2263399228
 11
268.2784441882
 21
187.2263399228
  0
LINE
  5
25F
100
AcDbEntity
  8
0
100
AcDbLine
 62
4
  6
CONTINUOUS
 10
341.7784939402
 20
188.2263399228
 11
339.3784939402
 21
188.2263399228
  0
LINE
  5
260
100
AcDbEntity
  8
0
100
AcDbLine
 62
4
  6
CONTINUOUS
 10
339.3784939402
 20
204.2263399228
 11
341.7784939402
 21
204.2263399228
  0
LINE
  5
261
100
AcDbEntity
  8
0
100
AcDbLine
 62
7
  6
CONTINUOUS
 10
245.9784441882
 20
205.2263399228
 11
245.2784441882
 21
205.2263399228
  0
LINE
  5
262
100
AcDbEntity
  8
0
100
AcDbLine
 62
7
  6
CONTINUOUS
 10
267.5784441882
 20
205.2263399228
 11
268.2784441882
 21
205.2263399228
  0
LINE
  5
263
100
AcDbEntity
  8
0
100
AcDbLine
 62
2
  6
CONTINUOUS
 10
406.4634939402
 20
205.5413399228
 11
358.7784939402
 21
205.5413399228
  0
LINE
  5
264
100
AcDbEntity
  8
0
100
AcDbLine
 62
7
  6
CONTINUOUS
 10
405.2784939402
 20
206.7263399228
 11
358.7784939402
 21
206.7263399228
  0
LINE
  5
265
100
AcDbEntity
  8
0
100
AcDbLine
 62
7
  6
CONTINUOUS
 10
265.7784441882
 20
207.0263399228
 11
247.7784441882
 21
207.0263399228
  0
LINE
  5
266
100
AcDbEntity
  8
0
100
AcDbLine
 62
7
  6
CONTINUOUS
 10
265.7784441882
 20
207.7263399228
 11
247.7784441882
 21
207.7263399228
  0
LINE
  5
267
100
AcDbEntity
  8
0
100
AcDbLine
 62
7
  6
CONTINUOUS
 10
176.7784939402
 20
214.2263399228
 11
351.7784939402
 21
214.2263399228
  0
LINE
  5
268
100
AcDbEntity
  8
0
100
AcDbLine
 62
7
  6
CONTINUOUS
 10
178.7784939402
 20
219.2263399228
 11
351.7784939402
 21
219.2263399228
  0
LINE
  5
269
100
AcDbEntity
  8
0
100
AcDbLine
 62
7
  6
CONTINUOUS
 10
358.7784939402
 20
219.7263399228
 11
356.7784939402
 21
219.7263399228
  0
LINE
  5
26A
100
AcDbEntity
  8
0
100
AcDbLine
 62
7
  6
CONTINUOUS
 10
351.7784939402
 20
222.7263399228
 11
356.7784939402
 21
222.7263399228
  0
LINE
  5
26B
100
AcDbEntity
  8
0
100
AcDbLine
 62
7
  6
CONTINUOUS
 10
358.7784939402
 20
224.7263399228
 11
356.7784939402
 21
224.7263399228
  0
LINE
  5
26C
100
AcDbEntity
  8
0
100
AcDbLine
 62
7
  6
CONTINUOUS
 10
352.4784939402
 20
227.7263399228
 11
356.0784939402
 21
227.7263399228
  0
LINE
  5
26D
100
AcDbEntity
  8
0
100
AcDbLine
 62
4
  6
CONTINUOUS
 10
339.3784939402
 20
188.2263399228
 11
339.3784939402
 21
204.2263399228
  0
LINE
  5
26E
100
AcDbEntity
  8
0
100
AcDbLine
 62
4
  6
CONTINUOUS
 10
341.7784939402
 20
204.2263399228
 11
341.7784939402
 21
188.2263399228
  0
LINE
  5
26F
100
AcDbEntity
  8
0
100
AcDbLine
 62
7
  6
CONTINUOUS
 10
351.7784939402
 20
165.4263399228
 11
351.7784939402
 21
227.0263399228
  0
LINE
  5
270
100
AcDbEntity
  8
0
100
AcDbLine
 62
7
  6
CONTINUOUS
 10
352.4784939402
 20
164.7263399228
 11
352.4784939402
 21
227.7263399228
  0
LINE
  5
271
100
AcDbEntity
  8
0
100
AcDbLine
 62
7
  6
CONTINUOUS
 10
356.0784939402
 20
227.7263399228
 11
356.0784939402
 21
164.7263399228
  0
LINE
  5
272
100
AcDbEntity
  8
0
100
AcDbLine
 62
7
  6
CONTINUOUS
 10
356.7784939402
 20
165.4263399228
 11
356.7784939402
 21
227.0263399228
  0
LINE
  5
273
100
AcDbEntity
  8
0
100
AcDbLine
 62
7
  6
CONTINUOUS
 10
358.7784939402
 20
167.7263399228
 11
358.7784939402
 21
224.7263399228
  0
LINE
  5
274
100
AcDbEntity
  8
0
100
AcDbLine
 62
7
  6
CONTINUOUS
 10
406.7784939402
 20
187.2263399228
 11
405.2784939402
 21
185.7263399228
  0
LINE
  5
275
100
AcDbEntity
  8
0
100
AcDbLine
 62
7
  6
CONTINUOUS
 10
406.7784939402
 20
205.2263399228
 11
405.2784939402
 21
206.7263399228
  0
LINE
  5
276
100
AcDbEntity
  8
0
100
AcDbLine
 62
7
  6
CONTINUOUS
 10
405.2784939402
 20
206.7263399228
 11
405.2784939402
 21
185.7263399228
  0
LINE
  5
277
100
AcDbEntity
  8
0
100
AcDbLine
 62
7
  6
CONTINUOUS
 10
406.4634939402
 20
186.9113399228
 11
406.4634939402
 21
205.5413399228
  0
LINE
  5
278
100
AcDbEntity
  8
0
100
AcDbLine
 62
7
  6
CONTINUOUS
 10
406.7784939402
 20
205.2263399228
 11
406.7784939402
 21
187.2263399228
  0
LINE
  5
279
100
AcDbEntity
  8
0
100
AcDbLine
 62
7
  6
CONTINUOUS
 10
58.0232166282
 20
51.912204936
 11
77.0232166282
 21
51.912204936
  0
LINE
  5
27A
100
AcDbEntity
  8
0
100
AcDbLine
 62
7
  6
CONTINUOUS
 10
36.0232166282
 20
102.2798588761
 11
36.0232166282
 21
66.2798588761
  0
LINE
  5
27B
100
AcDbEntity
  8
0
100
AcDbLine
 62
7
  6
CONTINUOUS
 10
36.7232166282
 20
102.2798790313
 11
36.7232166282
 21
66.2798588761
  0
LINE
  5
27C
100
AcDbEntity
  8
0
100
AcDbLine
 62
7
  6
CONTINUOUS
 10
57.0232166282
 20
52.912204936
 11
78.0232166282
 21
52.912204936
  0
LINE
  5
27D
100
AcDbEntity
  8
0
100
AcDbLine
 62
7
  6
CONTINUOUS
 10
58.0232164119
 20
51.9122047196
 11
57.0232163892
 21
52.9122046968
  0
LINE
  5
27E
100
AcDbEntity
  8
0
100
AcDbLine
 62
7
  6
CONTINUOUS
 10
41.0232166282
 20
107.2798588761
 11
41.0232166282
 21
106.5798588761
  0
LINE
  5
27F
100
AcDbEntity
  8
0
100
AcDbLine
 62
7
  6
CONTINUOUS
 10
41.0232166282
 20
61.2798588761
 11
41.0232166282
 21
61.9798588761
  0
LINE
  5
280
100
AcDbEntity
  8
0
100
AcDbLine
 62
7
  6
CONTINUOUS
 10
56.023215907
 20
61.9122042147
 11
55.5232158757
 21
62.4122041833
  0
LINE
  5
281
100
AcDbEntity
  8
0
100
AcDbLine
 62
7
  6
CONTINUOUS
 10
44.5232166282
 20
77.5298588761
 11
44.5232166282
 21
91.0298588761
  0
LINE
  5
282
100
AcDbEntity
  8
0
100
AcDbLine
 62
7
  6
CONTINUOUS
 10
46.5232166282
 20
77.5298588761
 11
46.5232166282
 21
91.0298588761
  0
LINE
  5
283
100
AcDbEntity
  8
0
100
AcDbLine
 62
7
  6
CONTINUOUS
 10
41.0232166282
 20
61.2798588761
 11
57.0232166282
 21
61.2798588761
  0
LINE
  5
284
100
AcDbEntity
  8
0
100
AcDbLine
 62
7
  6
CONTINUOUS
 10
78.0232166282
 20
61.2798588761
 11
94.0232166282
 21
61.2798588761
  0
LINE
  5
285
100
AcDbEntity
  8
0
100
AcDbLine
 62
7
  6
CONTINUOUS
 10
56.0232166282
 20
61.912204936
 11
79.0232166283
 21
61.912204936
  0
LINE
  5
286
100
AcDbEntity
  8
0
100
AcDbLine
 62
7
  6
CONTINUOUS
 10
41.0232166282
 20
61.9798588761
 11
55.9555612371
 21
61.9798588761
  0
LINE
  5
287
100
AcDbEntity
  8
0
100
AcDbLine
 62
7
  6
CONTINUOUS
 10
79.0908720194
 20
61.9798588761
 11
94.0232166282
 21
61.9798588761
  0
LINE
  5
288
100
AcDbEntity
  8
0
100
AcDbLine
 62
7
  6
CONTINUOUS
 10
55.5232166282
 20
62.412204936
 11
79.5232166282
 21
62.412204936
  0
LINE
  5
289
100
AcDbEntity
  8
0
100
AcDbLine
 62
7
  6
CONTINUOUS
 10
53.3496636263
 20
67.8697975013
 11
53.3988611955
 21
67.7870414429
  0
LINE
  5
28A
100
AcDbEntity
  8
0
100
AcDbLine
 62
7
  6
CONTINUOUS
 10
49.5232166418
 20
96.0298588761
 11
49.5232166282
 21
94.0298588761
  0
LINE
  5
28B
100
AcDbEntity
  8
0
100
AcDbLine
 62
7
  6
CONTINUOUS
 10
49.5232166418
 20
72.5298588761
 11
49.5232166282
 21
74.5298588761
  0
LINE
  5
28C
100
AcDbEntity
  8
0
100
AcDbLine
 62
7
  6
CONTINUOUS
 10
55.2732166282
 20
66.0296029225
 11
79.7732166282
 21
66.0301151191
  0
LINE
  5
28D
100
AcDbEntity
  8
0
100
AcDbLine
 62
7
  6
CONTINUOUS
 10
99.0232166282
 20
66.2798588761
 11
98.3232166282
 21
66.2798588761
  0
LINE
  5
28E
100
AcDbEntity
  8
0
100
AcDbLine
 62
7
  6
CONTINUOUS
 10
36.0232166282
 20
66.2798588761
 11
36.7232166282
 21
66.2798588761
  0
LWPOLYLINE
  5
28F
100
AcDbEntity
  8
0
100
AcDbPolyline
 62
7
  6
CONTINUOUS
 90
24
 70
0
 10
50.1622521551
 20
72.430825446
 10
50.3209322512
 20
72.3700544976
 10
50.4755079213
 20
72.2951850054
 10
50.6261022399
 20
72.206707805
 10
50.7726295402
 20
72.104828464
 10
50.9129561984
 20
71.9915487318
 10
51.0473273243
 20
71.8677260654
 10
51.1766035586
 20
71.7336754826
 10
51.3000393301
 20
71.5914996178
 10
51.4177107783
 20
71.442767214
 10
51.5305829296
 20
71.2878764536
 10
51.6392966116
 20
71.1274042354
 10
51.7441832001
 20
70.9622547997
 10
51.8456303672
 20
70.793179989
 10
51.9442946379
 20
70.6203679486
 10
52.0404491539
 20
70.4445660299
 10
52.134435849
 20
70.2663584488
 10
52.2269621241
 20
70.0855506497
 10
52.3183482015
 20
69.902616087
 10
52.4088128437
 20
69.718215106
 10
52.4988835614
 20
69.5323621843
 10
52.5889140288
 20
69.3454590642
 10
52.6791798015
 20
69.1581236338
 10
52.7676181226
 20
68.9757750368
  0
LINE
  5
290
100
AcDbEntity
  8
0
100
AcDbLine
 62
7
  6
CONTINUOUS
 10
53.2473526251
 20
68.0479546909
 11
53.3496636263
 21
67.8697975013
  0
LINE
  5
291
100
AcDbEntity
  8
0
100
AcDbLine
 62
7
  6
CONTINUOUS
 10
53.1478017378
 20
68.228820462
 11
53.2473526251
 21
68.0479546909
  0
LINE
  5
292
100
AcDbEntity
  8
0
100
AcDbLine
 62
7
  6
CONTINUOUS
 10
53.0506086821
 20
68.412043082
 11
53.1478017378
 21
68.228820462
  0
LINE
  5
293
100
AcDbEntity
  8
0
100
AcDbLine
 62
7
  6
CONTINUOUS
 10
52.9555387993
 20
68.5969909427
 11
53.0506086821
 21
68.412043082
  0
LINE
  5
294
100
AcDbEntity
  8
0
100
AcDbLine
 62
7
  6
CONTINUOUS
 10
52.9078354517
 20
68.692192074
 11
52.9555387993
 21
68.5969909427
  0
LINE
  5
295
100
AcDbEntity
  8
0
100
AcDbLine
 62
7
  6
CONTINUOUS
 10
52.8622771287
 20
68.7831241357
 11
52.9078354517
 21
68.692192074
  0
LINE
  5
296
100
AcDbEntity
  8
0
100
AcDbLine
 62
7
  6
CONTINUOUS
 10
52.7676181226
 20
68.9757750368
 11
52.8622771287
 21
68.7831241357
  0
LINE
  5
297
100
AcDbEntity
  8
0
100
AcDbLine
 62
7
  6
CONTINUOUS
 10
55.5232166282
 20
62.412204936
 11
55.5232166282
 21
66.0296123435
  0
LINE
  5
298
100
AcDbEntity
  8
DATUM_AXIS
100
AcDbLine
 62
7
  6
CONTINUOUS
 10
55.5232166282
 20
62.412204936
 11
55.5232166282
 21
66.0296123435
  0
LINE
  5
299
100
AcDbEntity
  8
0
100
AcDbLine
 62
7
  6
CONTINUOUS
 10
85.5232166282
 20
72.5298588761
 11
49.5232166282
 21
72.5298588761
  0
LWPOLYLINE
  5
29A
100
AcDbEntity
  8
0
100
AcDbPolyline
 62
7
  6
CONTINUOUS
 90
5
 70
0
 10
49.5358705618
 20
72.5298245867
 10
49.6815853397
 20
72.5243613731
 10
49.8415453579
 20
72.5069863193
 10
50.0019463237
 20
72.4763420775
 10
50.1622521551
 20
72.430825446
  0
LINE
  5
29B
100
AcDbEntity
  8
0
100
AcDbLine
 62
7
  6
CONTINUOUS
 10
56.0232166282
 20
117.5298588761
 11
56.0232166282
 21
114.9298588761
  0
LINE
  5
29C
100
AcDbEntity
  8
0
100
AcDbLine
 62
7
  6
CONTINUOUS
 10
57.0232166282
 20
52.912204936
 11
57.0232166282
 21
61.912204936
  0
LINE
  5
29D
100
AcDbEntity
  8
DATUM_AXIS
100
AcDbLine
 62
7
  6
CONTINUOUS
 10
57.0232166282
 20
52.912204936
 11
57.0232166282
 21
61.912204936
  0
LINE
  5
29E
100
AcDbEntity
  8
0
100
AcDbLine
 62
2
  6
CONTINUOUS
 10
58.2077166282
 20
51.912204936
 11
58.2077166282
 21
61.912204936
  0
LINE
  5
29F
100
AcDbEntity
  8
0
100
AcDbLine
 62
7
  6
CONTINUOUS
 10
58.5232166282
 20
118.2298588761
 11
58.5232166282
 21
113.2298588761
  0
LINE
  5
2A0
100
AcDbEntity
  8
0
100
AcDbLine
 62
7
  6
CONTINUOUS
 10
85.5232166282
 20
74.5298588761
 11
49.5232166282
 21
74.5298588761
  0
LINE
  5
2A1
100
AcDbEntity
  8
0
100
AcDbLine
 62
7
  6
CONTINUOUS
 10
61.0232166282
 20
112.9798588761
 11
61.0232166282
 21
99.9298588761
  0
LINE
  5
2A2
100
AcDbEntity
  8
0
100
AcDbLine
 62
7
  6
CONTINUOUS
 10
90.5232166282
 20
77.5298588904
 11
88.5232166282
 21
77.5298588761
  0
LINE
  5
2A3
100
AcDbEntity
  8
0
100
AcDbLine
 62
7
  6
CONTINUOUS
 10
44.5232166282
 20
77.5298588904
 11
46.5232166282
 21
77.5298588761
  0
LINE
  5
2A4
100
AcDbEntity
  8
0
100
AcDbLine
 62
7
  6
CONTINUOUS
 10
63.5232166282
 20
99.2298588761
 11
63.5232166282
 21
96.2798588761
  0
LINE
  5
2A5
100
AcDbEntity
  8
0
100
AcDbLine
 62
7
  6
CONTINUOUS
 10
67.523222033
 20
72.4857429199
 11
67.5232215904
 21
72.5298588761
  0
LINE
  5
2A6
100
AcDbEntity
  8
0
100
AcDbLine
 62
7
  6
CONTINUOUS
 10
71.5232166282
 20
99.2298588761
 11
71.5232166282
 21
96.2798588761
  0
LINE
  5
2A7
100
AcDbEntity
  8
0
100
AcDbLine
 62
7
  6
CONTINUOUS
 10
74.0232166282
 20
112.9798588761
 11
74.0232166282
 21
99.9298588761
  0
LINE
  5
2A8
100
AcDbEntity
  8
0
100
AcDbLine
 62
7
  6
CONTINUOUS
 10
90.5232166282
 20
91.0298588617
 11
88.5232166282
 21
91.0298588761
  0
LINE
  5
2A9
100
AcDbEntity
  8
0
100
AcDbLine
 62
7
  6
CONTINUOUS
 10
44.5232166282
 20
91.0298588617
 11
46.5232166282
 21
91.0298588761
  0
LINE
  5
2AA
100
AcDbEntity
  8
0
100
AcDbLine
 62
7
  6
CONTINUOUS
 10
76.5232166282
 20
118.2298588761
 11
76.5232166282
 21
113.2298588761
  0
LINE
  5
2AB
100
AcDbEntity
  8
0
100
AcDbLine
 62
2
  6
CONTINUOUS
 10
76.8387166282
 20
51.912204936
 11
76.8387166282
 21
61.912204936
  0
LINE
  5
2AC
100
AcDbEntity
  8
0
100
AcDbLine
 62
7
  6
CONTINUOUS
 10
49.5231881222
 20
94.0298588761
 11
85.5232166282
 21
94.0298588761
  0
LINE
  5
2AD
100
AcDbEntity
  8
0
100
AcDbLine
 62
7
  6
CONTINUOUS
 10
78.0232166282
 20
52.912204936
 11
78.0232166282
 21
61.912204936
  0
LINE
  5
2AE
100
AcDbEntity
  8
DATUM_AXIS
100
AcDbLine
 62
7
  6
CONTINUOUS
 10
78.0232166282
 20
52.912204936
 11
78.0232166282
 21
61.912204936
  0
LINE
  5
2AF
100
AcDbEntity
  8
0
100
AcDbLine
 62
7
  6
CONTINUOUS
 10
79.0232166282
 20
117.5298588761
 11
79.0232166282
 21
114.9298588761
  0
LINE
  5
2B0
100
AcDbEntity
  8
0
100
AcDbLine
 62
7
  6
CONTINUOUS
 10
79.5232166282
 20
62.412204936
 11
79.5232166282
 21
66.0301109251
  0
LINE
  5
2B1
100
AcDbEntity
  8
DATUM_AXIS
100
AcDbLine
 62
7
  6
CONTINUOUS
 10
79.5232166282
 20
62.412204936
 11
79.5232166282
 21
66.0301109251
  0
LINE
  5
2B2
100
AcDbEntity
  8
0
100
AcDbLine
 62
7
  6
CONTINUOUS
 10
49.5232166418
 20
96.0298588761
 11
85.5232166147
 21
96.0298588761
  0
LINE
  5
2B3
100
AcDbEntity
  8
0
100
AcDbLine
 62
7
  6
CONTINUOUS
 10
63.5232166282
 20
96.2798588761
 11
71.5232166282
 21
96.2798588761
  0
LINE
  5
2B4
100
AcDbEntity
  8
0
100
AcDbLine
 62
7
  6
CONTINUOUS
 10
61.7232166282
 20
99.2298588761
 11
73.3232166282
 21
99.2298588761
  0
LINE
  5
2B5
100
AcDbEntity
  8
0
100
AcDbLine
 62
7
  6
CONTINUOUS
 10
61.0232166282
 20
99.9298588761
 11
74.0232166282
 21
99.9298588761
  0
LINE
  5
2B6
100
AcDbEntity
  8
0
100
AcDbLine
 62
7
  6
CONTINUOUS
 10
85.5232166147
 20
96.0298588761
 11
85.5232166282
 21
94.0298588761
  0
LINE
  5
2B7
100
AcDbEntity
  8
0
100
AcDbLine
 62
7
  6
CONTINUOUS
 10
85.5232166147
 20
72.5298588761
 11
85.5232166282
 21
74.5298588761
  0
LINE
  5
2B8
100
AcDbEntity
  8
0
100
AcDbLine
 62
7
  6
CONTINUOUS
 10
99.0232166282
 20
102.2798588761
 11
98.3232166282
 21
102.2798588761
  0
LINE
  5
2B9
100
AcDbEntity
  8
0
100
AcDbLine
 62
7
  6
CONTINUOUS
 10
36.0232166282
 20
102.2798588761
 11
36.7232166282
 21
102.2798588761
  0
LINE
  5
2BA
100
AcDbEntity
  8
0
100
AcDbLine
 62
7
  6
CONTINUOUS
 10
88.5232166282
 20
91.0298588761
 11
88.5232166282
 21
77.5298588761
  0
LINE
  5
2BB
100
AcDbEntity
  8
0
100
AcDbLine
 62
7
  6
CONTINUOUS
 10
94.023236784
 20
106.5798588761
 11
74.0232166282
 21
106.5798588761
  0
LINE
  5
2BC
100
AcDbEntity
  8
0
100
AcDbLine
 62
7
  6
CONTINUOUS
 10
61.0232166282
 20
106.5798588761
 11
41.0232166282
 21
106.5798588761
  0
LINE
  5
2BD
100
AcDbEntity
  8
0
100
AcDbLine
 62
7
  6
CONTINUOUS
 10
90.5232166282
 20
91.0298588761
 11
90.5232166282
 21
77.5298588761
  0
LINE
  5
2BE
100
AcDbEntity
  8
0
100
AcDbLine
 62
7
  6
CONTINUOUS
 10
79.0232173495
 20
61.9122042147
 11
79.5232173808
 21
62.4122041833
  0
LINE
  5
2BF
100
AcDbEntity
  8
0
100
AcDbLine
 62
7
  6
CONTINUOUS
 10
94.0232166282
 20
107.2798588761
 11
74.0232166282
 21
107.2798588761
  0
LINE
  5
2C0
100
AcDbEntity
  8
0
100
AcDbLine
 62
7
  6
CONTINUOUS
 10
61.0232166282
 20
107.2798588761
 11
41.0232166282
 21
107.2798588761
  0
LINE
  5
2C1
100
AcDbEntity
  8
0
100
AcDbLine
 62
7
  6
CONTINUOUS
 10
94.0232166282
 20
107.2798588761
 11
94.0232166282
 21
106.5798588761
  0
LINE
  5
2C2
100
AcDbEntity
  8
0
100
AcDbLine
 62
7
  6
CONTINUOUS
 10
94.0232166282
 20
61.2798588761
 11
94.0232166282
 21
61.9798588761
  0
LINE
  5
2C3
100
AcDbEntity
  8
0
100
AcDbLine
 62
7
  6
CONTINUOUS
 10
98.3232166282
 20
66.2798588761
 11
98.3232166282
 21
102.2798588761
  0
LINE
  5
2C4
100
AcDbEntity
  8
0
100
AcDbLine
 62
7
  6
CONTINUOUS
 10
77.0232168446
 20
51.9122047196
 11
78.0232168673
 21
52.9122046969
  0
LINE
  5
2C5
100
AcDbEntity
  8
0
100
AcDbLine
 62
7
  6
CONTINUOUS
 10
74.0232166282
 20
112.9798588761
 11
61.0232166282
 21
112.9798588761
  0
LINE
  5
2C6
100
AcDbEntity
  8
0
100
AcDbLine
 62
7
  6
CONTINUOUS
 10
57.7232166285
 20
113.2298588761
 11
77.3232166279
 21
113.2298588761
  0
LINE
  5
2C7
100
AcDbEntity
  8
0
100
AcDbLine
 62
7
  6
CONTINUOUS
 10
79.0232166282
 20
114.9298588761
 11
56.0232166282
 21
114.9298588761
  0
LINE
  5
2C8
100
AcDbEntity
  8
0
100
AcDbLine
 62
7
  6
CONTINUOUS
 10
99.0232166282
 20
66.2798588761
 11
99.0232166282
 21
102.2798588761
  0
LINE
  5
2C9
100
AcDbEntity
  8
0
100
AcDbLine
 62
7
  6
CONTINUOUS
 10
56.0232166282
 20
117.5298588761
 11
79.0232166282
 21
117.5298588761
  0
LINE
  5
2CA
100
AcDbEntity
  8
0
100
AcDbLine
 62
7
  6
CONTINUOUS
 10
56.7232166282
 20
118.2298588761
 11
78.3232166282
 21
118.2298588761
  0
LINE
  5
2CB
100
AcDbEntity
  8
0
100
AcDbLine
 62
7
  6
CONTINUOUS
 10
381.5675218387
 20
293.5425261057
 11
381.5675218387
 21
304.565308737
  0
LINE
  5
2CC
100
AcDbEntity
  8
0
100
AcDbLine
 62
7
  6
CONTINUOUS
 10
382.1533141643
 20
292.726037798
 11
382.1533141643
 21
303.7488204292
  0
LINE
  5
2CD
100
AcDbEntity
  8
0
100
AcDbLine
 62
7
  6
CONTINUOUS
 10
410.1448180865
 20
273.4395688246
 11
384.6888679812
 21
288.1362359874
  0
LINE
  5
2CE
100
AcDbEntity
  8
0
100
AcDbLine
 62
7
  6
CONTINUOUS
 10
409.730593445
 20
274.3551411203
 11
384.2746433397
 21
289.051808283
  0
LINE
  5
2CF
100
AcDbEntity
  8
0
100
AcDbLine
 62
7
  6
CONTINUOUS
 10
384.2746231828
 20
304.9736170544
 11
409.730593445
 21
290.2769382543
  0
LINE
  5
2D0
100
AcDbEntity
  8
0
100
AcDbLine
 62
7
  6
CONTINUOUS
 10
385.6888510142
 20
307.4230985591
 11
411.1448011195
 21
292.7264313963
  0
LINE
  5
2D1
100
AcDbEntity
  8
0
100
AcDbLine
 62
7
  6
CONTINUOUS
 10
411.8519226205
 20
286.6027087394
 11
411.8519226205
 21
275.5799261081
  0
LINE
  5
2D2
100
AcDbEntity
  8
0
100
AcDbLine
 62
7
  6
CONTINUOUS
 10
414.6803497452
 20
286.6027155381
 11
414.6803497452
 21
275.5799329068
  0
LINE
  5
2D3
100
AcDbEntity
  8
0
100
AcDbLine
 62
7
  6
CONTINUOUS
 10
446.8532318771
 20
292.0173969966
 11
446.4666471208
 21
292.2405981708
  0
LINE
  5
2D4
100
AcDbEntity
  8
0
100
AcDbLine
 62
7
  6
CONTINUOUS
 10
438.3429681284
 20
349.4725600428
 11
438.3429681284
 21
347.3496537583
  0
LINE
  5
2D5
100
AcDbEntity
  8
0
100
AcDbLine
 62
7
  6
CONTINUOUS
 10
500.0023660667
 20
391.2384280877
 11
502.5479398806
 21
392.7081070417
  0
LINE
  5
2D6
100
AcDbEntity
  8
0
100
AcDbLine
 62
7
  6
CONTINUOUS
 10
439.0752085354
 20
348.4519496582
 11
439.0752085354
 21
346.3290433736
  0
LINE
  5
2D7
100
AcDbEntity
  8
0
100
AcDbLine
 62
7
  6
CONTINUOUS
 10
502.5023548745
 20
390.9908066927
 11
505.0479286884
 21
392.4604856466
  0
LINE
  5
2D8
100
AcDbEntity
  8
0
100
AcDbLine
 62
7
  6
CONTINUOUS
 10
451.9480412599
 20
358.162006858
 11
439.2201721901
 21
350.8136120883
  0
LINE
  5
2D9
100
AcDbEntity
  8
0
100
AcDbLine
 62
7
  6
CONTINUOUS
 10
452.298039693
 20
358.1273398626
 11
439.5701706232
 21
350.778945093
  0
LINE
  5
2DA
100
AcDbEntity
  8
0
100
AcDbLine
 62
7
  6
CONTINUOUS
 10
447.0708901897
 20
341.1378776027
 11
447.0708901897
 21
335.1021480955
  0
LINE
  5
2DB
100
AcDbEntity
  8
0
100
AcDbLine
 62
7
  6
CONTINUOUS
 10
451.8031835881
 20
341.1036160768
 11
451.8031835881
 21
338.9807097923
  0
LINE
  5
2DC
100
AcDbEntity
  8
0
100
AcDbLine
 62
7
  6
CONTINUOUS
 10
383.1888622064
 20
307.6707199541
 11
444.1134332958
 21
342.8453275088
  0
LINE
  5
2DD
100
AcDbEntity
  8
0
100
AcDbLine
 62
7
  6
CONTINUOUS
 10
462.9183101348
 20
353.7022634067
 11
505.5178260444
 21
378.2969585739
  0
LINE
  5
2DE
100
AcDbEntity
  8
0
100
AcDbLine
 62
7
  6
CONTINUOUS
 10
385.6888510142
 20
307.4230985591
 11
445.5778875926
 21
341.9998435538
  0
LINE
  5
2DF
100
AcDbEntity
  8
0
100
AcDbLine
 62
7
  6
CONTINUOUS
 10
464.3827644315
 20
352.8567794516
 11
508.0178148522
 21
378.0493371788
  0
LINE
  5
2E0
100
AcDbEntity
  8
0
100
AcDbLine
 62
7
  6
CONTINUOUS
 10
455.338717494
 20
341.1036245752
 11
455.338717494
 21
338.9807182906
  0
LINE
  5
2E1
100
AcDbEntity
  8
0
100
AcDbLine
 62
7
  6
CONTINUOUS
 10
460.0708901897
 20
341.1378652992
 11
460.0708901897
 21
335.1021480955
  0
LINE
  5
2E2
100
AcDbEntity
  8
0
100
AcDbLine
 62
7
  6
CONTINUOUS
 10
454.8437406864
 20
341.9609447953
 11
467.5716097562
 21
349.309339565
  0
LINE
  5
2E3
100
AcDbEntity
  8
0
100
AcDbLine
 62
7
  6
CONTINUOUS
 10
455.338717494
 20
341.1036245752
 11
468.0665865638
 21
348.4520193449
  0
LINE
  5
2E4
100
AcDbEntity
  8
0
100
AcDbLine
 62
4
  6
CONTINUOUS
 10
506.3208245222
 20
368.9047021256
 11
508.0178737315
 21
369.8844880949
  0
LINE
  5
2E5
100
AcDbEntity
  8
0
100
AcDbLine
 62
7
  6
CONTINUOUS
 10
468.0665865638
 20
346.3291130603
 11
455.338717494
 21
338.9807182906
  0
LINE
  5
2E6
100
AcDbEntity
  8
0
100
AcDbLine
 62
2
  6
CONTINUOUS
 10
462.8863901897
 20
295.8956175886
 11
462.8863901897
 21
300.103677928
  0
LINE
  5
2E7
100
AcDbEntity
  8
DATUM_AXIS
100
AcDbLine
 62
7
  6
CONTINUOUS
 10
464.0708901897
 20
296.7121201922
 11
464.0708901897
 21
301.115514534
  0
LINE
  5
2E8
100
AcDbEntity
  8
0
100
AcDbLine
 62
7
  6
CONTINUOUS
 10
468.0665865638
 20
348.4520193449
 11
468.0665865638
 21
346.3291130603
  0
LINE
  5
2E9
100
AcDbEntity
  8
0
100
AcDbLine
 62
7
  6
CONTINUOUS
 10
467.7144962257
 20
345.5508769596
 11
454.9866271559
 21
338.2024821899
  0
LINE
  5
2EA
100
AcDbEntity
  8
0
100
AcDbLine
 62
7
  6
CONTINUOUS
 10
553.3258686994
 20
392.0414427378
 11
529.7550273737
 21
378.4328923855
  0
LINE
  5
2EB
100
AcDbEntity
  8
0
100
AcDbLine
 62
2
  6
CONTINUOUS
 10
554.7562840939
 20
391.4989704252
 11
530.9400425461
 21
377.7487390343
  0
LINE
  5
2EC
100
AcDbEntity
  8
0
100
AcDbLine
 62
7
  6
CONTINUOUS
 10
452.1552745333
 20
338.202473341
 11
439.4272994806
 21
345.5508069223
  0
LINE
  5
2ED
100
AcDbEntity
  8
0
100
AcDbLine
 62
7
  6
CONTINUOUS
 10
451.8031835881
 20
338.9807097923
 11
439.0752085354
 21
346.3290433736
  0
LINE
  5
2EE
100
AcDbEntity
  8
0
100
AcDbLine
 62
7
  6
CONTINUOUS
 10
468.7988122509
 20
349.4726212312
 11
468.7988122509
 21
347.3497149466
  0
LINE
  5
2EF
100
AcDbEntity
  8
0
100
AcDbLine
 62
4
  6
CONTINUOUS
 10
519.3316293339
 20
363.3526360226
 11
517.6345801245
 21
362.3728500533
  0
LINE
  5
2F0
100
AcDbEntity
  8
0
100
AcDbLine
 62
7
  6
CONTINUOUS
 10
439.0752085354
 20
348.4519496582
 11
451.8031835881
 21
341.1036160768
  0
LINE
  5
2F1
100
AcDbEntity
  8
0
100
AcDbLine
 62
7
  6
CONTINUOUS
 10
439.5701812215
 20
349.3092722579
 11
452.2981562741
 21
341.9609386765
  0
LINE
  5
2F2
100
AcDbEntity
  8
0
100
AcDbLine
 62
7
  6
CONTINUOUS
 10
539.9791703073
 20
369.3540467031
 11
542.5247441212
 21
370.823725657
  0
LINE
  5
2F3
100
AcDbEntity
  8
0
100
AcDbLine
 62
7
  6
CONTINUOUS
 10
533.4737649575
 20
363.3526700161
 11
411.1448011195
 21
292.7264313963
  0
LINE
  5
2F4
100
AcDbEntity
  8
0
100
AcDbLine
 62
2
  6
CONTINUOUS
 10
564.0712423918
 20
375.3648930761
 11
546.2642242369
 21
365.0840677191
  0
LINE
  5
2F5
100
AcDbEntity
  8
0
100
AcDbLine
 62
7
  6
CONTINUOUS
 10
543.514718933
 20
363.2303308448
 11
546.060292747
 21
364.7000097988
  0
LINE
  5
2F6
100
AcDbEntity
  8
0
100
AcDbLine
 62
7
  6
CONTINUOUS
 10
563.8258216921
 20
373.8548821188
 11
546.2653159394
 21
363.716379914
  0
LINE
  5
2F7
100
AcDbEntity
  8
0
100
AcDbLine
 62
7
  6
CONTINUOUS
 10
537.0093135832
 20
357.2289541578
 11
414.6803497452
 21
286.6027155381
  0
LINE
  5
2F8
100
AcDbEntity
  8
0
100
AcDbLine
 62
7
  6
CONTINUOUS
 10
467.5715991579
 20
350.7790124001
 11
454.8436241053
 21
358.1273459815
  0
LINE
  5
2F9
100
AcDbEntity
  8
0
100
AcDbLine
 62
7
  6
CONTINUOUS
 10
467.9215932195
 20
350.8136819193
 11
455.1936181668
 21
358.1620155007
  0
LINE
  5
2FA
100
AcDbEntity
  8
0
100
AcDbLine
 62
7
  6
CONTINUOUS
 10
414.6803497452
 20
275.5799329068
 11
537.0093135832
 21
346.2061715266
  0
LINE
  5
2FB
100
AcDbEntity
  8
0
100
AcDbLine
 62
7
  6
CONTINUOUS
 10
413.6447899273
 20
273.2910031987
 11
535.9737537653
 21
343.9172418185
  0
LINE
  5
2FC
100
AcDbEntity
  8
0
100
AcDbLine
 62
7
  6
CONTINUOUS
 10
462.0562068915
 20
299.5700039142
 11
462.0563515955
 21
299.5700874631
  0
LINE
  5
2FD
100
AcDbEntity
  8
0
100
AcDbLine
 62
7
  6
CONTINUOUS
 10
461.7026520289
 20
299.3658730829
 11
461.7027917725
 21
299.3659536079
  0
LINE
  5
2FE
100
AcDbEntity
  8
0
100
AcDbLine
 62
7
  6
CONTINUOUS
 10
498.7617830563
 20
388.6637298514
 11
498.7617830563
 21
374.3963786194
  0
LINE
  5
2FF
100
AcDbEntity
  8
0
100
AcDbLine
 62
7
  6
CONTINUOUS
 10
498.9668103703
 20
388.3779754005
 11
498.9668103703
 21
374.5147504877
  0
LINE
  5
300
100
AcDbEntity
  8
0
100
AcDbLine
 62
7
  6
CONTINUOUS
 10
460.9956698861
 20
292.425665746
 11
460.288432723
 21
292.0173301507
  0
LINE
  5
301
100
AcDbEntity
  8
0
100
AcDbLine
 62
7
  6
CONTINUOUS
 10
527.2730493787
 20
338.893917784
 11
539.6291762457
 21
331.7602659959
  0
LINE
  5
302
100
AcDbEntity
  8
0
100
AcDbLine
 62
7
  6
CONTINUOUS
 10
527.4780827409
 20
339.0122931442
 11
539.4841976212
 21
332.0807162994
  0
LINE
  5
303
100
AcDbEntity
  8
0
100
AcDbLine
 62
7
  6
CONTINUOUS
 10
543.514718933
 20
333.8362438282
 11
546.060292747
 21
335.3059227821
  0
LINE
  5
304
100
AcDbEntity
  8
0
100
AcDbLine
 62
7
  6
CONTINUOUS
 10
542.4791591151
 20
331.54731412
 11
545.024732929
 21
333.016993074
  0
LINE
  5
305
100
AcDbEntity
  8
0
100
AcDbLine
 62
4
  6
CONTINUOUS
 10
517.6345801245
 20
362.3728500533
 11
506.3208245222
 21
368.9047021256
  0
LINE
  5
306
100
AcDbEntity
  8
0
100
AcDbLine
 62
4
  6
CONTINUOUS
 10
508.0178737315
 20
369.8844880949
 11
519.3316293339
 21
363.3526360226
  0
LINE
  5
307
100
AcDbEntity
  8
0
100
AcDbLine
 62
7
  6
CONTINUOUS
 10
508.0178148522
 20
378.0493371788
 11
533.4737649575
 21
363.3526700161
  0
LINE
  5
308
100
AcDbEntity
  8
0
100
AcDbLine
 62
7
  6
CONTINUOUS
 10
537.0093135832
 20
346.2061715266
 11
537.0093135832
 21
357.2289541578
  0
LINE
  5
309
100
AcDbEntity
  8
0
100
AcDbLine
 62
7
  6
CONTINUOUS
 10
542.5247694393
 20
333.8362414486
 11
542.5247694393
 21
363.2303284653
  0
LINE
  5
30A
100
AcDbEntity
  8
0
100
AcDbLine
 62
7
  6
CONTINUOUS
 10
539.4842118736
 20
368.496715875
 11
502.0073821884
 21
390.133484093
  0
LINE
  5
30B
100
AcDbEntity
  8
0
100
AcDbLine
 62
7
  6
CONTINUOUS
 10
539.9791703073
 20
369.3540467031
 11
502.5023548745
 21
390.9908066927
  0
LINE
  5
30C
100
AcDbEntity
  8
0
100
AcDbLine
 62
7
  6
CONTINUOUS
 10
505.0479286884
 20
392.4604856466
 11
542.5247441212
 21
370.823725657
  0
LINE
  5
30D
100
AcDbEntity
  8
0
100
AcDbLine
 62
7
  6
CONTINUOUS
 10
505.39792275
 20
392.4951551658
 11
542.8747381828
 21
370.8583951762
  0
LINE
  5
30E
100
AcDbEntity
  8
0
100
AcDbLine
 62
7
  6
CONTINUOUS
 10
543.514718933
 20
333.8362438282
 11
543.514718933
 21
363.2303308448
  0
LINE
  5
30F
100
AcDbEntity
  8
0
100
AcDbLine
 62
7
  6
CONTINUOUS
 10
546.060292747
 20
364.7000097988
 11
546.060292747
 21
335.3059227821
  0
LINE
  5
310
100
AcDbEntity
  8
0
100
AcDbLine
 62
7
  6
CONTINUOUS
 10
546.2653159394
 20
364.9857783269
 11
546.2653159394
 21
335.5916913103
  0
LINE
  5
311
100
AcDbEntity
  8
0
100
AcDbLine
 62
7
  6
CONTINUOUS
 10
566.0004884777
 20
379.8864230598
 11
566.0004973095
 21
378.6617058957
  0
LINE
  5
312
100
AcDbEntity
  8
0
100
AcDbLine
 62
7
  6
CONTINUOUS
 10
558.5758451958
 20
391.5214378082
 11
558.5760353241
 21
391.5213280372
  0
LINE
  5
313
100
AcDbEntity
  8
0
100
AcDbLine
 62
7
  6
CONTINUOUS
 10
559.6366639168
 20
390.908956325
 11
558.5758451929
 21
391.5214378098
  0
ARC
  5
314
100
AcDbEntity
  8
0
100
AcDbCircle
 62
7
  6
CONTINUOUS
 10
178.7784939402
 20
94.0298588761
 40
2.0
100
AcDbArc
 50
90.0
 51
180.0
  0
ARC
  5
315
100
AcDbEntity
  8
0
100
AcDbCircle
 62
7
  6
CONTINUOUS
 10
178.7784939402
 20
74.5298588761
 40
2.0
100
AcDbArc
 50
180.0
 51
270.0
  0
ARC
  5
316
100
AcDbEntity
  8
0
100
AcDbCircle
 62
7
  6
CONTINUOUS
 10
246.9784441882
 20
114.9298588761
 40
1.7
100
AcDbArc
 50
180.0
 51
270.0
  0
ARC
  5
317
100
AcDbEntity
  8
0
100
AcDbCircle
 62
7
  6
CONTINUOUS
 10
266.5784441882
 20
114.9298588761
 40
1.7
100
AcDbArc
 50
270.0
 51
360.0
  0
ARC
  5
318
100
AcDbEntity
  8
0
100
AcDbCircle
 62
7
  6
CONTINUOUS
 10
352.4784939402
 20
106.5798588761
 40
0.7
100
AcDbArc
 50
90.0
 51
180.0
  0
ARC
  5
319
100
AcDbEntity
  8
0
100
AcDbCircle
 62
7
  6
CONTINUOUS
 10
352.4784939402
 20
61.9798588761
 40
0.7
100
AcDbArc
 50
180.0
 51
270.0
  0
ARC
  5
31A
100
AcDbEntity
  8
0
100
AcDbCircle
 62
7
  6
CONTINUOUS
 10
356.0784939402
 20
106.5798588761
 40
0.7
100
AcDbArc
 50
0.0
 51
90.0
  0
ARC
  5
31B
100
AcDbEntity
  8
0
100
AcDbCircle
 62
7
  6
CONTINUOUS
 10
356.0784939402
 20
61.9798588761
 40
0.7
100
AcDbArc
 50
270.0
 51
360.0
  0
ARC
  5
31C
100
AcDbEntity
  8
0
100
AcDbCircle
 62
7
  6
CONTINUOUS
 10
250.9784441882
 20
99.9298588761
 40
0.7
100
AcDbArc
 50
180.0
 51
270.0
  0
ARC
  5
31D
100
AcDbEntity
  8
0
100
AcDbCircle
 62
7
  6
CONTINUOUS
 10
262.5784441882
 20
99.9298588761
 40
0.7
100
AcDbArc
 50
270.0
 51
360.0
  0
ARC
  5
31E
100
AcDbEntity
  8
0
100
AcDbCircle
 62
7
  6
CONTINUOUS
 10
245.9784441882
 20
117.5298588761
 40
0.7
100
AcDbArc
 50
90.0
 51
180.0
  0
ARC
  5
31F
100
AcDbEntity
  8
0
100
AcDbCircle
 62
7
  6
CONTINUOUS
 10
267.5784441882
 20
117.5298588761
 40
0.7
100
AcDbArc
 50
0.0
 51
90.0
  0
ARC
  5
320
100
AcDbEntity
  8
0
100
AcDbCircle
 62
7
  6
CONTINUOUS
 10
260.5284441882
 20
96.2798588761
 40
0.25
100
AcDbArc
 50
270.0
 51
360.0
  0
ARC
  5
321
100
AcDbEntity
  8
0
100
AcDbCircle
 62
7
  6
CONTINUOUS
 10
253.0284441882
 20
96.2798588761
 40
0.25
100
AcDbArc
 50
180.0
 51
270.0
  0
ARC
  5
322
100
AcDbEntity
  8
0
100
AcDbCircle
 62
7
  6
CONTINUOUS
 10
263.5284441882
 20
112.9798588761
 40
0.25
100
AcDbArc
 50
90.0
 51
180.0
  0
ARC
  5
323
100
AcDbEntity
  8
0
100
AcDbCircle
 62
7
  6
CONTINUOUS
 10
250.0284441882
 20
112.9798588761
 40
0.25
100
AcDbArc
 50
0.0
 51
90.0
  0
ARC
  5
324
100
AcDbEntity
  8
0
100
AcDbCircle
 62
7
  6
CONTINUOUS
 10
247.7784441882
 20
205.2263399228
 40
2.5
100
AcDbArc
 50
90.0
 51
180.0
  0
ARC
  5
325
100
AcDbEntity
  8
0
100
AcDbCircle
 62
7
  6
CONTINUOUS
 10
247.7784441882
 20
187.2263399228
 40
2.5
100
AcDbArc
 50
180.0
 51
270.0
  0
ARC
  5
326
100
AcDbEntity
  8
0
100
AcDbCircle
 62
7
  6
CONTINUOUS
 10
265.7784441882
 20
187.2263399228
 40
2.5
100
AcDbArc
 50
270.0
 51
360.0
  0
ARC
  5
327
100
AcDbEntity
  8
0
100
AcDbCircle
 62
7
  6
CONTINUOUS
 10
265.7784441882
 20
205.2263399228
 40
2.5
100
AcDbArc
 50
0.0
 51
90.0
  0
ARC
  5
328
100
AcDbEntity
  8
0
100
AcDbCircle
 62
7
  6
CONTINUOUS
 10
178.7784939402
 20
175.2263399228
 40
2.0
100
AcDbArc
 50
180.0
 51
270.0
  0
ARC
  5
329
100
AcDbEntity
  8
0
100
AcDbCircle
 62
7
  6
CONTINUOUS
 10
178.7784939402
 20
217.2263399228
 40
2.0
100
AcDbArc
 50
90.0
 51
180.0
  0
ARC
  5
32A
100
AcDbEntity
  8
0
100
AcDbCircle
 62
7
  6
CONTINUOUS
 10
247.7784441882
 20
187.2263399228
 40
1.8
100
AcDbArc
 50
180.0
 51
270.0
  0
ARC
  5
32B
100
AcDbEntity
  8
0
100
AcDbCircle
 62
7
  6
CONTINUOUS
 10
247.7784441882
 20
205.2263399228
 40
1.8
100
AcDbArc
 50
90.0
 51
180.0
  0
ARC
  5
32C
100
AcDbEntity
  8
0
100
AcDbCircle
 62
7
  6
CONTINUOUS
 10
265.7784441882
 20
205.2263399228
 40
1.8
100
AcDbArc
 50
0.0
 51
90.0
  0
ARC
  5
32D
100
AcDbEntity
  8
0
100
AcDbCircle
 62
7
  6
CONTINUOUS
 10
265.7784441882
 20
187.2263399228
 40
1.8
100
AcDbArc
 50
270.0
 51
360.0
  0
ARC
  5
32E
100
AcDbEntity
  8
0
100
AcDbCircle
 62
7
  6
CONTINUOUS
 10
352.4784939402
 20
165.4263399228
 40
0.7
100
AcDbArc
 50
180.0
 51
270.0
  0
ARC
  5
32F
100
AcDbEntity
  8
0
100
AcDbCircle
 62
7
  6
CONTINUOUS
 10
352.4784939402
 20
227.0263399228
 40
0.7
100
AcDbArc
 50
90.0
 51
180.0
  0
ARC
  5
330
100
AcDbEntity
  8
0
100
AcDbCircle
 62
7
  6
CONTINUOUS
 10
356.0784939402
 20
165.4263399228
 40
0.7
100
AcDbArc
 50
270.0
 51
360.0
  0
ARC
  5
331
100
AcDbEntity
  8
0
100
AcDbCircle
 62
7
  6
CONTINUOUS
 10
356.0784939402
 20
227.0263399228
 40
0.7
100
AcDbArc
 50
0.0
 51
90.0
  0
ARC
  5
332
100
AcDbEntity
  8
0
100
AcDbCircle
 62
7
  6
CONTINUOUS
 10
67.4137319318
 20
75.9053730494
 40
16.2002905705
100
AcDbArc
 50
207.4187414492
 51
207.6320667609
  0
ARC
  5
333
100
AcDbEntity
  8
0
100
AcDbCircle
 62
7
  6
CONTINUOUS
 10
66.0696571801
 20
75.2000021795
 40
14.682370165
100
AcDbArc
 50
207.62602533
 51
208.2394079433
  0
ARC
  5
334
100
AcDbEntity
  8
0
100
AcDbCircle
 62
7
  6
CONTINUOUS
 10
64.0266796278
 20
74.0985541101
 40
12.3613843808
100
AcDbArc
 50
208.3756248727
 51
209.2444212797
  0
ARC
  5
335
100
AcDbEntity
  8
0
100
AcDbCircle
 62
7
  6
CONTINUOUS
 10
63.0585898415
 20
73.5587692978
 40
11.2529795573
100
AcDbArc
 50
209.2544070349
 51
209.5228316395
  0
ARC
  5
336
100
AcDbEntity
  8
0
100
AcDbCircle
 62
7
  6
CONTINUOUS
 10
62.3794510639
 20
73.1730399609
 40
10.471944632
100
AcDbArc
 50
209.5174338233
 51
210.2601610562
  0
ARC
  5
337
100
AcDbEntity
  8
0
100
AcDbCircle
 62
7
  6
CONTINUOUS
 10
61.5434680299
 20
72.6853973193
 40
9.5041311309
100
AcDbArc
 50
210.2606138331
 51
211.0236957116
  0
ARC
  5
338
100
AcDbEntity
  8
0
100
AcDbCircle
 62
7
  6
CONTINUOUS
 10
49.5232166282
 20
77.5298588761
 40
5.0
100
AcDbArc
 50
180.0
 51
270.0
  0
ARC
  5
339
100
AcDbEntity
  8
0
100
AcDbCircle
 62
7
  6
CONTINUOUS
 10
49.5232166282
 20
91.0298588761
 40
5.0
100
AcDbArc
 50
90.0
 51
180.0
  0
ARC
  5
33A
100
AcDbEntity
  8
0
100
AcDbCircle
 62
7
  6
CONTINUOUS
 10
41.0232166282
 20
66.2798588761
 40
5.0
100
AcDbArc
 50
180.0
 51
270.0
  0
ARC
  5
33B
100
AcDbEntity
  8
0
100
AcDbCircle
 62
7
  6
CONTINUOUS
 10
41.0232166282
 20
66.2798588761
 40
4.3
100
AcDbArc
 50
180.0
 51
270.0
  0
ARC
  5
33C
100
AcDbEntity
  8
0
100
AcDbCircle
 62
7
  6
CONTINUOUS
 10
49.5232166282
 20
77.5298588761
 40
3.0
100
AcDbArc
 50
180.0
 51
270.0
  0
ARC
  5
33D
100
AcDbEntity
  8
0
100
AcDbCircle
 62
7
  6
CONTINUOUS
 10
49.5232166282
 20
91.0298588761
 40
3.0
100
AcDbArc
 50
90.000544426
 51
180.0
  0
ARC
  5
33E
100
AcDbEntity
  8
0
100
AcDbCircle
 62
7
  6
CONTINUOUS
 10
41.0232166282
 20
102.2798588761
 40
5.0
100
AcDbArc
 50
90.0
 51
180.0
  0
ARC
  5
33F
100
AcDbEntity
  8
0
100
AcDbCircle
 62
7
  6
CONTINUOUS
 10
41.0232166282
 20
102.2798588761
 40
4.3
100
AcDbArc
 50
90.0
 51
179.9997314395
  0
ARC
  5
340
100
AcDbEntity
  8
0
100
AcDbCircle
 62
7
  6
CONTINUOUS
 10
57.7232166282
 20
114.9298588761
 40
1.7
100
AcDbArc
 50
180.0
 51
270.0000000097
  0
ARC
  5
341
100
AcDbEntity
  8
0
100
AcDbCircle
 62
7
  6
CONTINUOUS
 10
61.7232166282
 20
99.9298588761
 40
0.7
100
AcDbArc
 50
180.0
 51
270.0
  0
ARC
  5
342
100
AcDbEntity
  8
0
100
AcDbCircle
 62
7
  6
CONTINUOUS
 10
56.7232166282
 20
117.5298588761
 40
0.7
100
AcDbArc
 50
90.0
 51
180.0
  0
ARC
  5
343
100
AcDbEntity
  8
0
100
AcDbCircle
 62
7
  6
CONTINUOUS
 10
63.7732166282
 20
96.2798588761
 40
0.25
100
AcDbArc
 50
180.0
 51
270.0
  0
ARC
  5
344
100
AcDbEntity
  8
0
100
AcDbCircle
 62
7
  6
CONTINUOUS
 10
60.7732166282
 20
112.9798588761
 40
0.25
100
AcDbArc
 50
0.0
 51
87.9999999838
  0
ARC
  5
345
100
AcDbEntity
  8
0
100
AcDbCircle
 62
7
  6
CONTINUOUS
 10
82.2979519469
 20
83.3653253044
 40
32.8496540724
100
AcDbArc
 50
205.9790624985
 51
206.3448838473
  0
ARC
  5
346
100
AcDbEntity
  8
0
100
AcDbCircle
 62
7
  6
CONTINUOUS
 10
73.9835466068
 20
79.2487934808
 40
23.5719835847
100
AcDbArc
 50
206.3466495164
 51
206.8116772333
  0
ARC
  5
347
100
AcDbEntity
  8
0
100
AcDbCircle
 62
7
  6
CONTINUOUS
 10
70.7961899726
 20
77.6417190074
 40
20.0024013699
100
AcDbArc
 50
206.8213680501
 51
206.9808725282
  0
ARC
  5
348
100
AcDbEntity
  8
0
100
AcDbCircle
 62
7
  6
CONTINUOUS
 10
68.8939084434
 20
76.6716791594
 40
17.8670676473
100
AcDbArc
 50
206.9763607618
 51
207.4143040312
  0
ARC
  5
349
100
AcDbEntity
  8
0
100
AcDbCircle
 62
7
  6
CONTINUOUS
 10
85.5232166282
 20
91.0298588761
 40
5.0
100
AcDbArc
 50
0.0
 51
90.0
  0
ARC
  5
34A
100
AcDbEntity
  8
0
100
AcDbCircle
 62
7
  6
CONTINUOUS
 10
85.5232166282
 20
77.5298588761
 40
5.0
100
AcDbArc
 50
270.0
 51
360.0
  0
ARC
  5
34B
100
AcDbEntity
  8
0
100
AcDbCircle
 62
7
  6
CONTINUOUS
 10
94.0232166282
 20
66.2798588761
 40
5.0
100
AcDbArc
 50
270.0
 51
360.0
  0
ARC
  5
34C
100
AcDbEntity
  8
0
100
AcDbCircle
 62
7
  6
CONTINUOUS
 10
94.0232166282
 20
66.2798588761
 40
4.3
100
AcDbArc
 50
270.0
 51
360.0
  0
ARC
  5
34D
100
AcDbEntity
  8
0
100
AcDbCircle
 62
7
  6
CONTINUOUS
 10
85.5232166282
 20
91.0298588761
 40
3.0
100
AcDbArc
 50
0.0
 51
90.0
  0
ARC
  5
34E
100
AcDbEntity
  8
0
100
AcDbCircle
 62
7
  6
CONTINUOUS
 10
85.5232166282
 20
77.5298588761
 40
3.0
100
AcDbArc
 50
270.0
 51
360.0
  0
ARC
  5
34F
100
AcDbEntity
  8
0
100
AcDbCircle
 62
7
  6
CONTINUOUS
 10
94.0232166282
 20
102.2798588761
 40
5.0
100
AcDbArc
 50
0.0
 51
90.0
  0
ARC
  5
350
100
AcDbEntity
  8
0
100
AcDbCircle
 62
7
  6
CONTINUOUS
 10
94.0232166282
 20
102.2798588761
 40
4.3
100
AcDbArc
 50
0.0
 51
89.9997314322
  0
ARC
  5
351
100
AcDbEntity
  8
0
100
AcDbCircle
 62
7
  6
CONTINUOUS
 10
77.3232166282
 20
114.9298588761
 40
1.7
100
AcDbArc
 50
269.9999999899
 51
360.0
  0
ARC
  5
352
100
AcDbEntity
  8
0
100
AcDbCircle
 62
7
  6
CONTINUOUS
 10
73.3232166282
 20
99.9298588761
 40
0.7
100
AcDbArc
 50
270.0
 51
360.0
  0
ARC
  5
353
100
AcDbEntity
  8
0
100
AcDbCircle
 62
7
  6
CONTINUOUS
 10
78.3232166282
 20
117.5298588761
 40
0.7
100
AcDbArc
 50
0.0
 51
90.0
  0
ARC
  5
354
100
AcDbEntity
  8
0
100
AcDbCircle
 62
7
  6
CONTINUOUS
 10
71.2732166282
 20
96.2798588761
 40
0.25
100
AcDbArc
 50
270.0
 51
360.0
  0
ARC
  5
355
100
AcDbEntity
  8
0
100
AcDbCircle
 62
7
  6
CONTINUOUS
 10
74.2732166282
 20
112.9798588761
 40
0.25
100
AcDbArc
 50
90.0
 51
180.0
  0
ARC
  5
356
100
AcDbEntity
  8
0
100
AcDbCircle
 62
7
  6
CONTINUOUS
 10
456.0322379957
 20
310.033761269
 40
12.0740493917
100
AcDbArc
 50
297.7388901205
 51
297.9943423901
  0
ARC
  5
357
100
AcDbEntity
  8
0
100
AcDbCircle
 62
7
  6
CONTINUOUS
 10
554.0867015335
 20
378.5496431211
 40
11.9178909718
100
AcDbArc
 50
6.1061505234
 51
6.3958658048
  0
ARC
  5
358
100
AcDbEntity
  8
0
100
AcDbCircle
 62
7
  6
CONTINUOUS
 10
552.5246822081
 20
381.2629832068
 40
11.9137115988
100
AcDbArc
 50
53.6048299365
 51
53.895613915
  0
ARC
  5
359
100
AcDbEntity
  8
0
100
AcDbCircle
 62
7
  6
CONTINUOUS
 10
456.20269162
 20
309.7153272169
 40
11.7128658299
100
AcDbArc
 50
297.9892474451
 51
299.9835212219
  0
ARC
  5
35A
100
AcDbEntity
  8
0
100
AcDbCircle
 62
7
  6
CONTINUOUS
 10
552.6448252558
 20
381.4283510776
 40
11.7093082201
100
AcDbArc
 50
53.8937768807
 51
54.8430670262
  0
ARC
  5
35B
100
AcDbEntity
  8
0
100
AcDbCircle
 62
7
  6
CONTINUOUS
 10
554.2944311617
 20
378.5714767981
 40
11.7090174317
100
AcDbArc
 50
5.1583733646
 51
6.1080421007
  0
ARC
  5
35C
100
AcDbEntity
  8
0
100
AcDbCircle
 62
7
  6
CONTINUOUS
 10
455.3500975485
 20
302.3289201925
 40
11.4009491894
100
AcDbArc
 50
295.1566983771
 51
295.530983269
  0
ARC
  5
35D
100
AcDbEntity
  8
0
100
AcDbCircle
 62
7
  6
CONTINUOUS
 10
451.5583520007
 20
301.8501403267
 40
10.8683661507
100
AcDbArc
 50
242.1053010001
 51
244.4300304257
  0
ARC
  5
35E
100
AcDbEntity
  8
0
100
AcDbCircle
 62
7
  6
CONTINUOUS
 10
455.6480923263
 20
301.7166666768
 40
10.7200414348
100
AcDbArc
 50
295.5647313756
 51
299.9224490979
  0
ARC
  5
35F
100
AcDbEntity
  8
0
100
AcDbCircle
 62
7
  6
CONTINUOUS
 10
467.9652920664
 20
347.3497154441
 40
0.8335201099
100
AcDbArc
 50
358.9623704659
 51
359.9999658017
  0
SPLINE
  5
360
100
AcDbEntity
  8
0
100
AcDbSpline
 62
7
  6
CONTINUOUS
 70
0
 71
3
 72
9
 73
5
 74
0
 42
0.0000001
 43
0.0000001
 44
0.0000000001
 40
0.0
 40
0.0
 40
0.0
 40
0.0
 40
0.4994954371
 40
1.0
 40
1.0
 40
1.0
 40
1.0
 10
211.9244813995
 20
72.5297912127
 30
0.0
 10
212.0542650652
 20
72.5294116477
 30
0.0
 10
212.3141349915
 20
72.5226606218
 30
0.0
 10
212.5732418956
 20
72.500906222
 30
0.0
 10
212.7024263843
 20
72.4859583161
 30
0.0
  0
LINE
  5
361
100
AcDbEntity
  8
0
100
AcDbLine
 62
7
  6
CONTINUOUS
 10
212.7024263843
 20
72.4859583161
 11
212.7038850244
 21
72.4857906844
  0
LINE
  5
362
100
AcDbEntity
  8
0
100
AcDbLine
 62
7
  6
CONTINUOUS
 10
53.1348087882
 20
68.2529387179
 11
53.1505052429
 21
68.2238069191
  0
SPLINE
  5
363
100
AcDbEntity
  8
0
100
AcDbSpline
 62
7
  6
CONTINUOUS
 70
0
 71
3
 72
9
 73
5
 74
0
 42
0.0000001
 43
0.0000001
 44
0.0000000001
 40
0.0
 40
0.0
 40
0.0
 40
0.0
 40
0.2556418309
 40
1.0
 40
1.0
 40
1.0
 40
1.0
 10
49.6514618037
 20
72.5262720768
 30
0.0
 10
49.6935690477
 20
72.5238916659
 30
0.0
 10
49.8579623611
 20
72.5099118424
 30
0.0
 10
50.020825046
 20
72.4759679875
 30
0.0
 10
50.1378545298
 20
72.438765376
 30
0.0
  0
SPLINE
  5
364
100
AcDbEntity
  8
0
100
AcDbSpline
 62
7
  6
CONTINUOUS
 70
0
 71
3
 72
13
 73
9
 74
0
 42
0.0000001
 43
0.0000001
 44
0.0000000001
 40
0.0
 40
0.0
 40
0.0
 40
0.0
 40
0.1086790034
 40
0.2184013581
 40
0.3335399797
 40
0.4561572504
 40
0.7209527926
 40
1.0
 40
1.0
 40
1.0
 40
1.0
 10
50.1378545298
 20
72.438765376
 30
0.0
 10
50.2918829109
 20
72.3898011506
 30
0.0
 10
50.5894186627
 20
72.2505074587
 30
0.0
 10
50.9851129116
 20
71.9467025731
 30
0.0
 10
51.3360744398
 20
71.5647760648
 30
0.0
 10
51.7707366272
 20
70.955261084
 30
0.0
 10
52.2419411425
 20
70.0804532259
 30
0.0
 10
52.5857442231
 20
69.3488138276
 30
0.0
 10
52.7676077313
 20
68.9757963502
 30
0.0
  0
SPLINE
  5
365
100
AcDbEntity
  8
0
100
AcDbSpline
 62
7
  6
CONTINUOUS
 70
0
 71
3
 72
11
 73
7
 74
0
 42
0.0000001
 43
0.0000001
 44
0.0000000001
 40
0.0
 40
0.0
 40
0.0
 40
0.0
 40
0.2660188004
 40
0.5186973755
 40
0.7608431687
 40
1.0
 40
1.0
 40
1.0
 40
1.0
 10
53.3988627115
 20
67.7870391495
 30
0.0
 10
53.5186829448
 20
67.587857687
 30
0.0
 10
53.7670673492
 20
67.2078418069
 30
0.0
 10
54.1967237268
 20
66.6973765045
 30
0.0
 10
54.6929835445
 20
66.2844530596
 30
0.0
 10
55.0750646358
 20
66.0959743713
 30
0.0
 10
55.2732166282
 20
66.0296029225
 30
0.0
  0
SPLINE
  5
366
100
AcDbEntity
  8
0
100
AcDbSpline
 62
7
  6
CONTINUOUS
 70
0
 71
3
 72
11
 73
7
 74
0
 42
0.0000001
 43
0.0000001
 44
0.0000000001
 40
0.0
 40
0.0
 40
0.0
 40
0.0
 40
0.2660121379
 40
0.5186971402
 40
0.7608521963
 40
1.0
 40
1.0
 40
1.0
 40
1.0
 10
81.6464484847
 20
67.7871004708
 30
0.0
 10
81.5266614073
 20
67.5880381866
 30
0.0
 10
81.2783552692
 20
67.2082376208
 30
0.0
 10
80.8489142506
 20
66.6980134148
 30
0.0
 10
80.3529993775
 20
66.2851767269
 30
0.0
 10
79.9712192567
 20
66.0965865445
 30
0.0
 10
79.7732166282
 20
66.0301151191
 30
0.0
  0
SPLINE
  5
367
100
AcDbEntity
  8
0
100
AcDbSpline
 62
7
  6
CONTINUOUS
 70
0
 71
3
 72
15
 73
11
 74
0
 42
0.0000001
 43
0.0000001
 44
0.0000000001
 40
0.0
 40
0.0
 40
0.0
 40
0.0
 40
0.057090656
 40
0.1119349503
 40
0.2193400753
 40
0.3322184568
 40
0.4554435667
 40
0.5876827063
 40
0.7252454188
 40
1.0
 40
1.0
 40
1.0
 40
1.0
 10
85.5232166282
 20
72.5298588761
 30
0.0
 10
85.4008741317
 20
72.5298588761
 30
0.0
 10
85.1602621942
 20
72.5113116808
 30
0.0
 10
84.7040161703
 20
72.3879031865
 30
0.0
 10
84.1881686416
 20
72.0797202199
 30
0.0
 10
83.6777951806
 20
71.5418459255
 30
0.0
 10
83.2385037328
 20
70.8834802677
 30
0.0
 10
82.8397355662
 20
70.1409120752
 30
0.0
 10
82.3334553414
 20
69.0899538737
 30
0.0
 10
81.950027641
 20
68.2915886147
 30
0.0
 10
81.6464484847
 20
67.7871004708
 30
0.0
  0
SPLINE
  5
368
100
AcDbEntity
  8
0
100
AcDbSpline
 62
7
  6
CONTINUOUS
 70
0
 71
3
 72
9
 73
5
 74
0
 42
0.0000001
 43
0.0000001
 44
0.0000000001
 40
0.0
 40
0.0
 40
0.0
 40
0.0
 40
0.5624834754
 40
1.0
 40
1.0
 40
1.0
 40
1.0
 10
72.4478333262
 20
72.5297912127
 30
0.0
 10
71.5244578654
 20
72.5289024258
 30
0.0
 10
69.8830328077
 20
72.4990963492
 30
0.0
 10
68.2414514157
 20
72.485818739
 30
0.0
 10
67.5232219441
 20
72.4857907564
 30
0.0
  0
SPLINE
  5
369
100
AcDbEntity
  8
0
100
AcDbSpline
 62
7
  6
CONTINUOUS
 70
0
 71
3
 72
9
 73
5
 74
0
 42
0.0000001
 43
0.0000001
 44
0.0000000001
 40
0.0
 40
0.0
 40
0.0
 40
0.0
 40
0.4376661801
 40
1.0
 40
1.0
 40
1.0
 40
1.0
 10
67.5232220391
 20
72.4857900262
 30
0.0
 10
66.8046945125
 20
72.4857921171
 30
0.0
 10
65.1629935137
 20
72.4991186651
 30
0.0
 10
63.5214487006
 20
72.5289158941
 30
0.0
 10
62.5982516039
 20
72.5297921819
 30
0.0
  0
SPLINE
  5
36A
100
AcDbEntity
  8
0
100
AcDbSpline
 62
2
  6
CONTINUOUS
 70
0
 71
3
 72
168
 73
164
 74
0
 42
0.0000001
 43
0.0000001
 44
0.0000000001
 40
0.0
 40
0.0
 40
0.0
 40
0.0
 40
0.03125
 40
0.0625
 40
0.078125
 40
0.09375
 40
0.109375
 40
0.125
 40
0.1328125
 40
0.140625
 40
0.1484375
 40
0.15234375
 40
0.15625
 40
0.16015625
 40
0.162109375
 40
0.1640625
 40
0.1650390625
 40
0.166015625
 40
0.1665039062
 40
0.1667480469
 40
0.1669921875
 40
0.1674804688
 40
0.16796875
 40
0.169921875
 40
0.171875
 40
0.173828125
 40
0.17578125
 40
0.1796875
 40
0.1875
 40
0.1953125
 40
0.203125
 40
0.2109375
 40
0.21875
 40
0.234375
 40
0.25
 40
0.265625
 40
0.28125
 40
0.2890625
 40
0.296875
 40
0.3046875
 40
0.3125
 40
0.3203125
 40
0.32421875
 40
0.326171875
 40
0.328125
 40
0.330078125
 40
0.33203125
 40
0.3325195312
 40
0.3330078125
 40
0.3332519531
 40
0.3334960938
 40
0.333984375
 40
0.3349609375
 40
0.3359375
 40
0.337890625
 40
0.33984375
 40
0.34375
 40
0.34765625
 40
0.3515625
 40
0.359375
 40
0.3671875
 40
0.375
 40
0.390625
 40
0.40625
 40
0.421875
 40
0.4375
 40
0.453125
 40
0.4609375
 40
0.46875
 40
0.4765625
 40
0.48046875
 40
0.484375
 40
0.48828125
 40
0.4921875
 40
0.494140625
 40
0.49609375
 40
0.4970703125
 40
0.498046875
 40
0.4990234375
 40
0.4995117188
 40
0.4997558594
 40
0.5
 40
0.5002441406
 40
0.5004882812
 40
0.5009765625
 40
0.501953125
 40
0.5029296875
 40
0.50390625
 40
0.505859375
 40
0.5078125
 40
0.51171875
 40
0.515625
 40
0.51953125
 40
0.5234375
 40
0.53125
 40
0.5390625
 40
0.546875
 40
0.5625
 40
0.578125
 40
0.59375
 40
0.609375
 40
0.625
 40
0.6328125
 40
0.640625
 40
0.6484375
 40
0.65234375
 40
0.65625
 40
0.66015625
 40
0.662109375
 40
0.6640625
 40
0.6650390625
 40
0.666015625
 40
0.6665039062
 40
0.6667480469
 40
0.6669921875
 40
0.6674804688
 40
0.66796875
 40
0.669921875
 40
0.671875
 40
0.673828125
 40
0.67578125
 40
0.6796875
 40
0.6875
 40
0.6953125
 40
0.703125
 40
0.7109375
 40
0.71875
 40
0.734375
 40
0.75
 40
0.765625
 40
0.78125
 40
0.7890625
 40
0.796875
 40
0.8046875
 40
0.8125
 40
0.8203125
 40
0.82421875
 40
0.826171875
 40
0.828125
 40
0.830078125
 40
0.8310546875
 40
0.83203125
 40
0.8325195312
 40
0.8330078125
 40
0.8332519531
 40
0.8334960938
 40
0.833984375
 40
0.8349609375
 40
0.8359375
 40
0.837890625
 40
0.83984375
 40
0.84375
 40
0.84765625
 40
0.8515625
 40
0.859375
 40
0.8671875
 40
0.875
 40
0.890625
 40
0.90625
 40
0.921875
 40
0.9375
 40
0.96875
 40
1.0
 40
1.0
 40
1.0
 40
1.0
 10
460.1579708343
 20
292.0926508398
 30
0.0
 10
460.2075656588
 20
292.1252435737
 30
0.0
 10
460.3067553078
 20
292.1904290415
 30
0.0
 10
460.430742369
 20
292.2719108762
 30
0.0
 10
460.5299320181
 20
292.337096344
 30
0.0
 10
460.6043242547
 20
292.3859854449
 30
0.0
 10
460.6787164919
 20
292.4348745455
 30
0.0
 10
460.740710021
 20
292.4756154635
 30
0.0
 10
460.7903048487
 20
292.508208196
 30
0.0
 10
460.8275009572
 20
292.5326527508
 30
0.0
 10
460.8584977534
 20
292.5530231957
 30
0.0
 10
460.8832951026
 20
292.5693195907
 30
0.0
 10
460.9018933543
 20
292.5815417803
 30
0.0
 10
460.9173911346
 20
292.5917272775
 30
0.0
 10
460.9297910697
 20
292.5998749145
 30
0.0
 10
460.9375371332
 20
292.6049689198
 30
0.0
 10
460.9437429066
 20
292.609040157
 30
0.0
 10
460.9476011565
 20
292.6115937319
 30
0.0
 10
460.9503427325
 20
292.6133630937
 30
0.0
 10
460.9518455101
 20
292.6144025403
 30
0.0
 10
460.9531078451
 20
292.6155488898
 30
0.0
 10
460.9547679482
 20
292.6169452869
 30
0.0
 10
460.958684554
 20
292.6203267139
 30
0.0
 10
460.964587873
 20
292.6253862229
 30
0.0
 10
460.972442727
 20
292.6321394545
 30
0.0
 10
460.9803019246
 20
292.638890755
 30
0.0
 10
460.9907793396
 20
292.6478931625
 30
0.0
 10
461.0091155218
 20
292.6636470618
 30
0.0
 10
461.0353096987
 20
292.6861527963
 30
0.0
 10
461.0667428691
 20
292.7131596074
 30
0.0
 10
461.0981759972
 20
292.7401664373
 30
0.0
 10
461.1296091366
 20
292.7671732622
 30
0.0
 10
461.1715199852
 20
292.8031823639
 30
0.0
 10
461.2239085474
 20
292.8481937403
 30
0.0
 10
461.2867748213
 20
292.9022073923
 30
0.0
 10
461.3496410955
 20
292.9562210441
 30
0.0
 10
461.4020296569
 20
293.0012324209
 30
0.0
 10
461.443940507
 20
293.0372415218
 30
0.0
 10
461.4753736417
 20
293.0642483489
 30
0.0
 10
461.5068067876
 20
293.0912551703
 30
0.0
 10
461.5382398916
 20
293.1182620133
 30
0.0
 10
461.5644342753
 20
293.1407676488
 30
0.0
 10
461.5827700884
 20
293.1565217248
 30
0.0
 10
461.5932480947
 20
293.1655238492
 30
0.0
 10
461.6011054759
 20
293.1722760191
 30
0.0
 10
461.608967152
 20
293.179025985
 30
0.0
 10
461.6148513671
 20
293.1840946391
 30
0.0
 10
461.6187929049
 20
293.1874641312
 30
0.0
 10
461.6204073444
 20
293.1888823873
 30
0.0
 10
461.6217639063
 20
293.1899836307
 30
0.0
 10
461.6228827211
 20
293.1912068793
 30
0.0
 10
461.6247301843
 20
293.1934042509
 30
0.0
 10
461.6274270512
 20
293.196513777
 30
0.0
 10
461.6317098298
 20
293.2015055473
 30
0.0
 10
461.6370743314
 20
293.2077396008
 30
0.0
 10
461.6456513701
 20
293.2177172494
 30
0.0
 10
461.6563747832
 20
293.230188225
 30
0.0
 10
461.6692419738
 20
293.2451538602
 30
0.0
 10
461.6863985441
 20
293.2651078782
 30
0.0
 10
461.7078441486
 20
293.2900504564
 30
0.0
 10
461.7335789203
 20
293.3199815264
 30
0.0
 10
461.7678919331
 20
293.359889628
 30
0.0
 10
461.8107832046
 20
293.4097747522
 30
0.0
 10
461.862252728
 20
293.4696369025
 30
0.0
 10
461.9137222521
 20
293.5294990524
 30
0.0
 10
461.965191776
 20
293.5893612025
 30
0.0
 10
462.0080830459
 20
293.6392463275
 30
0.0
 10
462.042396062
 20
293.6791544274
 30
0.0
 10
462.0681308235
 20
293.7090855025
 30
0.0
 10
462.0895764598
 20
293.7340280648
 30
0.0
 10
462.1067329651
 20
293.7539821152
 30
0.0
 10
462.1196003542
 20
293.7689476517
 30
0.0
 10
462.1324677047
 20
293.7839131927
 30
0.0
 10
462.143190617
 20
293.7963844631
 30
0.0
 10
462.1517686777
 20
293.8063615102
 30
0.0
 10
462.1571305784
 20
293.8125970947
 30
0.0
 10
462.1614186955
 20
293.8175857223
 30
0.0
 10
462.1646386262
 20
293.8213267551
 30
0.0
 10
462.1673096768
 20
293.8244456756
 30
0.0
 10
462.1692034034
 20
293.8266261857
 30
0.0
 10
462.1702480728
 20
293.8278764609
 30
0.0
 10
462.1711371006
 20
293.8288021402
 30
0.0
 10
462.1716227552
 20
293.829773793
 30
0.0
 10
462.1724109958
 20
293.831053294
 30
0.0
 10
462.1737248617
 20
293.8332998923
 30
0.0
 10
462.1756360859
 20
293.8365054122
 30
0.0
 10
462.1779148851
 20
293.840353708
 30
0.0
 10
462.1809584078
 20
293.8454841852
 30
0.0
 10
462.1847610568
 20
293.8518974815
 30
0.0
 10
462.1908462758
 20
293.862158644
 30
0.0
 10
462.198452463
 20
293.8749851354
 30
0.0
 10
462.207580032
 20
293.8903769087
 30
0.0
 10
462.2167075623
 20
293.9057686863
 30
0.0
 10
462.2288776162
 20
293.926291055
 30
0.0
 10
462.244090179
 20
293.9519440164
 30
0.0
 10
462.2623452564
 20
293.9827275698
 30
0.0
 10
462.2866853588
 20
294.0237723078
 30
0.0
 10
462.3171104871
 20
294.0750782303
 30
0.0
 10
462.3536206409
 20
294.1366453372
 30
0.0
 10
462.3901307946
 20
294.1982124442
 30
0.0
 10
462.426640949
 20
294.259779551
 30
0.0
 10
462.4570660754
 20
294.311085474
 30
0.0
 10
462.4814061818
 20
294.3521302109
 30
0.0
 10
462.499661247
 20
294.3829137677
 30
0.0
 10
462.5148738476
 20
294.4085667184
 30
0.0
 10
462.5270438244
 20
294.4290891089
 30
0.0
 10
462.5361715905
 20
294.4444808198
 30
0.0
 10
462.5437771602
 20
294.4573075066
 30
0.0
 10
462.5498636392
 20
294.4675682703
 30
0.0
 10
462.5536630814
 20
294.4739825815
 30
0.0
 10
462.5567131867
 20
294.4791109756
 30
0.0
 10
462.5585954271
 20
294.4823231922
 30
0.0
 10
462.5599612456
 20
294.4845577744
 30
0.0
 10
462.5606662213
 20
294.485856535
 30
0.0
 10
462.5610868566
 20
294.4872376178
 30
0.0
 10
462.5617098395
 20
294.4889358331
 30
0.0
 10
462.5631250077
 20
294.4930347089
 30
0.0
 10
462.5652813571
 20
294.4991732956
 30
0.0
 10
462.5681372869
 20
294.5073636375
 30
0.0
 10
462.5709983534
 20
294.5155524921
 30
0.0
 10
462.5748113169
 20
294.5264714837
 30
0.0
 10
462.581484838
 20
294.5455794774
 30
0.0
 10
462.5910180029
 20
294.5728767375
 30
0.0
 10
462.602457988
 20
294.6056333955
 30
0.0
 10
462.613897923
 20
294.638390068
 30
0.0
 10
462.6253378713
 20
294.6711467366
 30
0.0
 10
462.6405911311
 20
294.7148222961
 30
0.0
 10
462.6596577075
 20
294.7694167451
 30
0.0
 10
462.6825375984
 20
294.834930084
 30
0.0
 10
462.7054174895
 20
294.9004434228
 30
0.0
 10
462.7244840656
 20
294.9550378719
 30
0.0
 10
462.739737326
 20
294.9987134312
 30
0.0
 10
462.7511772725
 20
295.0314701005
 30
0.0
 10
462.7626172145
 20
295.0642267702
 30
0.0
 10
462.7740571732
 20
295.0969834387
 30
0.0
 10
462.7835904203
 20
295.1242806663
 30
0.0
 10
462.7902637947
 20
295.1433887179
 30
0.0
 10
462.7940769931
 20
295.1543076167
 30
0.0
 10
462.7969373383
 20
295.1624967564
 30
0.0
 10
462.7993195375
 20
295.1693211491
 30
0.0
 10
462.8012284858
 20
295.1747804175
 30
0.0
 10
462.8024143169
 20
295.1781930196
 30
0.0
 10
462.8033796125
 20
295.1809218203
 30
0.0
 10
462.8039449762
 20
295.1826302436
 30
0.0
 10
462.80448418
 20
295.1839902877
 30
0.0
 10
462.8047060892
 20
295.1853747717
 30
0.0
 10
462.8049470333
 20
295.1878089722
 30
0.0
 10
462.8053681435
 20
295.1912804779
 30
0.0
 10
462.805998942
 20
295.1968381974
 30
0.0
 10
462.8068021559
 20
295.2037842133
 30
0.0
 10
462.8080790734
 20
295.2148984723
 30
0.0
 10
462.8096780422
 20
295.2287910786
 30
0.0
 10
462.8115955968
 20
295.2454622992
 30
0.0
 10
462.8141527583
 20
295.2676905609
 30
0.0
 10
462.8173490654
 20
295.2954758991
 30
0.0
 10
462.8211846959
 20
295.3288183002
 30
0.0
 10
462.8262988482
 20
295.3732748367
 30
0.0
 10
462.832691546
 20
295.4288455067
 30
0.0
 10
462.8403627802
 20
295.4955303109
 30
0.0
 10
462.8480340153
 20
295.5622151151
 30
0.0
 10
462.8582623284
 20
295.6511281874
 30
0.0
 10
462.8710477199
 20
295.7622695277
 30
0.0
 10
462.881276033
 20
295.8511826
 30
0.0
 10
462.8863901896
 20
295.8956391361
 30
0.0
  0
SPLINE
  5
36B
100
AcDbEntity
  8
0
100
AcDbSpline
 62
2
  6
CONTINUOUS
 70
0
 71
3
 72
169
 73
165
 74
0
 42
0.0000001
 43
0.0000001
 44
0.0000000001
 40
0.0
 40
0.0
 40
0.0
 40
0.0
 40
0.03125
 40
0.0625
 40
0.078125
 40
0.09375
 40
0.109375
 40
0.125
 40
0.1328125
 40
0.140625
 40
0.1484375
 40
0.15234375
 40
0.15625
 40
0.16015625
 40
0.162109375
 40
0.1640625
 40
0.1650390625
 40
0.166015625
 40
0.1665039062
 40
0.1667480469
 40
0.1669921875
 40
0.1674804688
 40
0.16796875
 40
0.1689453125
 40
0.169921875
 40
0.171875
 40
0.173828125
 40
0.17578125
 40
0.1796875
 40
0.1875
 40
0.1953125
 40
0.203125
 40
0.2109375
 40
0.21875
 40
0.234375
 40
0.25
 40
0.265625
 40
0.28125
 40
0.2890625
 40
0.296875
 40
0.3046875
 40
0.3125
 40
0.3203125
 40
0.32421875
 40
0.326171875
 40
0.328125
 40
0.330078125
 40
0.3310546875
 40
0.33203125
 40
0.3325195312
 40
0.3330078125
 40
0.3332519531
 40
0.3334960938
 40
0.333984375
 40
0.3349609375
 40
0.3359375
 40
0.337890625
 40
0.33984375
 40
0.34375
 40
0.34765625
 40
0.3515625
 40
0.359375
 40
0.3671875
 40
0.375
 40
0.390625
 40
0.40625
 40
0.421875
 40
0.4375
 40
0.453125
 40
0.4609375
 40
0.46875
 40
0.4765625
 40
0.48046875
 40
0.484375
 40
0.48828125
 40
0.4921875
 40
0.494140625
 40
0.49609375
 40
0.4970703125
 40
0.498046875
 40
0.4990234375
 40
0.4995117188
 40
0.4997558594
 40
0.5
 40
0.5002441406
 40
0.5004882812
 40
0.5009765625
 40
0.501953125
 40
0.5029296875
 40
0.50390625
 40
0.505859375
 40
0.5078125
 40
0.51171875
 40
0.515625
 40
0.51953125
 40
0.5234375
 40
0.53125
 40
0.5390625
 40
0.546875
 40
0.5625
 40
0.578125
 40
0.59375
 40
0.609375
 40
0.625
 40
0.6328125
 40
0.640625
 40
0.6484375
 40
0.65234375
 40
0.65625
 40
0.66015625
 40
0.662109375
 40
0.6640625
 40
0.6650390625
 40
0.666015625
 40
0.6665039062
 40
0.6667480469
 40
0.6669921875
 40
0.6674804688
 40
0.66796875
 40
0.669921875
 40
0.671875
 40
0.673828125
 40
0.67578125
 40
0.6796875
 40
0.6875
 40
0.6953125
 40
0.703125
 40
0.7109375
 40
0.71875
 40
0.734375
 40
0.75
 40
0.765625
 40
0.78125
 40
0.7890625
 40
0.796875
 40
0.8046875
 40
0.8125
 40
0.8203125
 40
0.82421875
 40
0.826171875
 40
0.828125
 40
0.830078125
 40
0.83203125
 40
0.8325195312
 40
0.8330078125
 40
0.8332519531
 40
0.8334960938
 40
0.833984375
 40
0.8349609375
 40
0.8359375
 40
0.837890625
 40
0.83984375
 40
0.84375
 40
0.84765625
 40
0.8515625
 40
0.859375
 40
0.8671875
 40
0.875
 40
0.890625
 40
0.90625
 40
0.921875
 40
0.9375
 40
0.96875
 40
1.0
 40
1.0
 40
1.0
 40
1.0
 10
563.9928060388
 20
375.321108287
 30
0.0
 10
564.0294291207
 20
375.346672153
 30
0.0
 10
564.1026752844
 20
375.3977998849
 30
0.0
 10
564.194232989
 20
375.4617095498
 30
0.0
 10
564.2674791527
 20
375.5128372816
 30
0.0
 10
564.3224137754
 20
375.5511830807
 30
0.0
 10
564.3773483986
 20
375.589528879
 30
0.0
 10
564.4231272497
 20
375.6214837132
 30
0.0
 10
564.4597503339
 20
375.6470475756
 30
0.0
 10
564.487217638
 20
375.6662204859
 30
0.0
 10
564.510107087
 20
375.6821978682
 30
0.0
 10
564.5284185814
 20
375.6949798705
 30
0.0
 10
564.5421523792
 20
375.7045661083
 30
0.0
 10
564.5535966477
 20
375.7125554794
 30
0.0
 10
564.5627533252
 20
375.7189450933
 30
0.0
 10
564.5684733733
 20
375.7229428896
 30
0.0
 10
564.5730559969
 20
375.7261313072
 30
0.0
 10
564.5759051115
 20
375.728146473
 30
0.0
 10
564.5779296041
 20
375.729512187
 30
0.0
 10
564.5790393433
 20
375.7303628485
 30
0.0
 10
564.5799715984
 20
375.7314781653
 30
0.0
 10
564.5811976875
 20
375.7327816938
 30
0.0
 10
564.5831254687
 20
375.7349179807
 30
0.0
 10
564.5855468237
 20
375.7375709998
 30
0.0
 10
564.5894144925
 20
375.7418255214
 30
0.0
 10
564.5942513083
 20
375.7471403484
 30
0.0
 10
564.600054533
 20
375.7535195639
 30
0.0
 10
564.6077924988
 20
375.7620246881
 30
0.0
 10
564.6213337837
 20
375.7769088869
 30
0.0
 10
564.6406785577
 20
375.798171907
 30
0.0
 10
564.6638922516
 20
375.823687583
 30
0.0
 10
564.6871059549
 20
375.8492032451
 30
0.0
 10
564.7103196557
 20
375.8747189109
 30
0.0
 10
564.7412712576
 20
375.9087397974
 30
0.0
 10
564.7799607597
 20
375.9512659059
 30
0.0
 10
564.8263881623
 20
376.002297236
 30
0.0
 10
564.8728155648
 20
376.0533285661
 30
0.0
 10
564.9115050671
 20
376.0958546744
 30
0.0
 10
564.9424566686
 20
376.1298755614
 30
0.0
 10
564.9656703705
 20
376.1553912257
 30
0.0
 10
564.9888840697
 20
376.1809068934
 30
0.0
 10
565.012097779
 20
376.2064225483
 30
0.0
 10
565.0314425051
 20
376.2276856342
 30
0.0
 10
565.0449838755
 20
376.2425697156
 30
0.0
 10
565.0527217043
 20
376.2510750278
 30
0.0
 10
565.0585253496
 20
376.257453666
 30
0.0
 10
565.0633608491
 20
376.2627702999
 30
0.0
 10
565.0672312035
 20
376.267021135
 30
0.0
 10
565.0696457237
 20
376.2696835359
 30
0.0
 10
565.0715875344
 20
376.2718005652
 30
0.0
 10
565.0727779052
 20
376.2731531224
 30
0.0
 10
565.0737834794
 20
376.2741677978
 30
0.0
 10
565.0745945521
 20
376.2754284236
 30
0.0
 10
565.0759235751
 20
376.2777487733
 30
0.0
 10
565.0778693217
 20
376.2810039464
 30
0.0
 10
565.0809561709
 20
376.2862455373
 30
0.0
 10
565.0848237531
 20
376.2927861192
 30
0.0
 10
565.0910068429
 20
376.3032574255
 30
0.0
 10
565.0987374349
 20
376.316344371
 30
0.0
 10
565.108013405
 20
376.3320496419
 30
0.0
 10
565.1203816237
 20
376.3529896761
 30
0.0
 10
565.1358418083
 20
376.379164831
 30
0.0
 10
565.1543940679
 20
376.4105749689
 30
0.0
 10
565.1791304007
 20
376.4524551694
 30
0.0
 10
565.2100508212
 20
376.5048054144
 30
0.0
 10
565.2471553239
 20
376.5676257109
 30
0.0
 10
565.2842598272
 20
376.6304460067
 30
0.0
 10
565.3213643303
 20
376.6932663026
 30
0.0
 10
565.3522847495
 20
376.7456165492
 30
0.0
 10
565.377021085
 20
376.7874967464
 30
0.0
 10
565.3955733363
 20
376.8189068947
 30
0.0
 10
565.4110335468
 20
376.8450820169
 30
0.0
 10
565.4234017128
 20
376.8660221178
 30
0.0
 10
565.4326778437
 20
376.8817271849
 30
0.0
 10
565.4419539503
 20
376.8974322848
 30
0.0
 10
565.4496841147
 20
376.9105197657
 30
0.0
 10
565.4558680771
 20
376.9209899798
 30
0.0
 10
565.4597334387
 20
376.9275333412
 30
0.0
 10
565.4628248459
 20
376.9327692268
 30
0.0
 10
565.4651458163
 20
376.936692865
 30
0.0
 10
565.4670722762
 20
376.939972985
 30
0.0
 10
565.4684358739
 20
376.9422486171
 30
0.0
 10
565.469191533
 20
376.9435809123
 30
0.0
 10
565.4698245886
 20
376.9444901751
 30
0.0
 10
565.4702041691
 20
376.945743305
 30
0.0
 10
565.4707986914
 20
376.9472942001
 30
0.0
 10
565.4717979113
 20
376.9500641511
 30
0.0
 10
565.4732469051
 20
376.9539920068
 30
0.0
 10
565.4749764791
 20
376.9587179395
 30
0.0
 10
565.4772857977
 20
376.9650148151
 30
0.0
 10
565.4801713434
 20
376.9728874052
 30
0.0
 10
565.4847888328
 20
376.9854827135
 30
0.0
 10
565.4905604831
 20
377.0012271356
 30
0.0
 10
565.497486554
 20
377.0201203192
 30
0.0
 10
565.5044126007
 20
377.0390135358
 30
0.0
 10
565.5136473381
 20
377.0642044796
 30
0.0
 10
565.525190757
 20
377.0956931634
 30
0.0
 10
565.5390428608
 20
377.1334795823
 30
0.0
 10
565.5575123322
 20
377.1838614747
 30
0.0
 10
565.5805991716
 20
377.24683884
 30
0.0
 10
565.6083033788
 20
377.3224116784
 30
0.0
 10
565.6360075859
 20
377.3979845169
 30
0.0
 10
565.6637117936
 20
377.473557355
 30
0.0
 10
565.6867986314
 20
377.5365347214
 30
0.0
 10
565.705268106
 20
377.5869166116
 30
0.0
 10
565.7191202
 20
377.6247030373
 30
0.0
 10
565.7306636499
 20
377.6561916997
 30
0.0
 10
565.7398983238
 20
377.6813826872
 30
0.0
 10
565.7468245645
 20
377.7002757706
 30
0.0
 10
565.7525956834
 20
377.7160205068
 30
0.0
 10
565.7572142569
 20
377.7286151743
 30
0.0
 10
565.7600970437
 20
377.7364893951
 30
0.0
 10
565.7624120253
 20
377.7427829234
 30
0.0
 10
565.7638389192
 20
377.7467297228
 30
0.0
 10
565.7648777666
 20
377.7494657388
 30
0.0
 10
565.7654087761
 20
377.7510710193
 30
0.0
 10
565.7657039373
 20
377.7528339005
 30
0.0
 10
565.7661535028
 20
377.7549836334
 30
0.0
 10
565.767166111
 20
377.7601873287
 30
0.0
 10
565.7687128907
 20
377.7679742499
 30
0.0
 10
565.7707593358
 20
377.7783674548
 30
0.0
 10
565.7728100415
 20
377.7887578127
 30
0.0
 10
565.7755428296
 20
377.8026126163
 30
0.0
 10
565.7803259013
 20
377.82685806
 30
0.0
 10
565.7871584987
 20
377.86149465
 30
0.0
 10
565.7953577709
 20
377.9030584542
 30
0.0
 10
565.8035570014
 20
377.9446222863
 30
0.0
 10
565.8117562431
 20
377.9861861109
 30
0.0
 10
565.8226885615
 20
378.0416045463
 30
0.0
 10
565.8363539608
 20
378.1108775896
 30
0.0
 10
565.8527524393
 20
378.1940052421
 30
0.0
 10
565.8691509182
 20
378.2771328943
 30
0.0
 10
565.8828163167
 20
378.3464059383
 30
0.0
 10
565.8937486366
 20
378.4018243725
 30
0.0
 10
565.9019478737
 20
378.4433882007
 30
0.0
 10
565.9101471214
 20
378.4849520192
 30
0.0
 10
565.9183463296
 20
378.526515874
 30
0.0
 10
565.925179126
 20
378.5611523069
 30
0.0
 10
565.9299618426
 20
378.5853980308
 30
0.0
 10
565.9326951996
 20
378.5992523853
 30
0.0
 10
565.9347441578
 20
378.6096441228
 30
0.0
 10
565.9367971662
 20
378.6200321463
 30
0.0
 10
565.9383255667
 20
378.627833577
 30
0.0
 10
565.939362161
 20
378.6330183363
 30
0.0
 10
565.9397677953
 20
378.6352027511
 30
0.0
 10
565.9401536085
 20
378.6368940663
 30
0.0
 10
565.9403152229
 20
378.638790969
 30
0.0
 10
565.9404938802
 20
378.6422060697
 30
0.0
 10
565.9408034545
 20
378.647034947
 30
0.0
 10
565.9412684002
 20
378.6547890024
 30
0.0
 10
565.9418599822
 20
378.6644720351
 30
0.0
 10
565.9428007009
 20
378.6799702175
 30
0.0
 10
565.9439785934
 20
378.6993411168
 30
0.0
 10
565.9453912109
 20
378.7225869787
 30
0.0
 10
565.9472749991
 20
378.7535811878
 30
0.0
 10
565.949629632
 20
378.792324043
 30
0.0
 10
565.9524552353
 20
378.8388154291
 30
0.0
 10
565.956222691
 20
378.9008039579
 30
0.0
 10
565.960932016
 20
378.9782896141
 30
0.0
 10
565.9665832036
 20
379.0712724036
 30
0.0
 10
565.9722343919
 20
379.1642551925
 30
0.0
 10
565.9797693094
 20
379.2882322446
 30
0.0
 10
565.9891879563
 20
379.4432035597
 30
0.0
 10
565.9967228738
 20
379.5671806117
 30
0.0
 10
566.0004903326
 20
379.6291691378
 30
0.0
  0
SPLINE
  5
36C
100
AcDbEntity
  8
0
100
AcDbSpline
 62
2
  6
CONTINUOUS
 70
0
 71
3
 72
169
 73
165
 74
0
 42
0.0000001
 43
0.0000001
 44
0.0000000001
 40
0.0
 40
0.0
 40
0.0
 40
0.0
 40
0.03125
 40
0.0625
 40
0.078125
 40
0.09375
 40
0.109375
 40
0.125
 40
0.1328125
 40
0.140625
 40
0.1484375
 40
0.15234375
 40
0.15625
 40
0.16015625
 40
0.162109375
 40
0.1640625
 40
0.1650390625
 40
0.166015625
 40
0.1665039062
 40
0.1667480469
 40
0.1669921875
 40
0.1674804688
 40
0.16796875
 40
0.169921875
 40
0.171875
 40
0.173828125
 40
0.17578125
 40
0.1796875
 40
0.1875
 40
0.1953125
 40
0.203125
 40
0.2109375
 40
0.21875
 40
0.234375
 40
0.25
 40
0.265625
 40
0.28125
 40
0.2890625
 40
0.296875
 40
0.3046875
 40
0.3125
 40
0.3203125
 40
0.32421875
 40
0.326171875
 40
0.328125
 40
0.330078125
 40
0.33203125
 40
0.3325195312
 40
0.3330078125
 40
0.3332519531
 40
0.3334960938
 40
0.333984375
 40
0.3349609375
 40
0.3359375
 40
0.337890625
 40
0.33984375
 40
0.34375
 40
0.34765625
 40
0.3515625
 40
0.359375
 40
0.3671875
 40
0.375
 40
0.390625
 40
0.40625
 40
0.421875
 40
0.4375
 40
0.453125
 40
0.4609375
 40
0.46875
 40
0.4765625
 40
0.48046875
 40
0.484375
 40
0.48828125
 40
0.4921875
 40
0.494140625
 40
0.49609375
 40
0.4970703125
 40
0.498046875
 40
0.4990234375
 40
0.4995117188
 40
0.4997558594
 40
0.5
 40
0.5002441406
 40
0.5004882812
 40
0.5009765625
 40
0.501953125
 40
0.5029296875
 40
0.50390625
 40
0.505859375
 40
0.5078125
 40
0.51171875
 40
0.515625
 40
0.51953125
 40
0.5234375
 40
0.53125
 40
0.5390625
 40
0.546875
 40
0.5625
 40
0.578125
 40
0.59375
 40
0.609375
 40
0.625
 40
0.6328125
 40
0.640625
 40
0.6484375
 40
0.65234375
 40
0.65625
 40
0.66015625
 40
0.662109375
 40
0.6640625
 40
0.6650390625
 40
0.666015625
 40
0.6665039062
 40
0.6667480469
 40
0.6669921875
 40
0.6674804688
 40
0.66796875
 40
0.6689453125
 40
0.669921875
 40
0.671875
 40
0.673828125
 40
0.67578125
 40
0.6796875
 40
0.6875
 40
0.6953125
 40
0.703125
 40
0.7109375
 40
0.71875
 40
0.734375
 40
0.75
 40
0.765625
 40
0.78125
 40
0.7890625
 40
0.796875
 40
0.8046875
 40
0.8125
 40
0.8203125
 40
0.82421875
 40
0.826171875
 40
0.828125
 40
0.830078125
 40
0.8310546875
 40
0.83203125
 40
0.8325195312
 40
0.8330078125
 40
0.8332519531
 40
0.8334960938
 40
0.833984375
 40
0.8349609375
 40
0.8359375
 40
0.837890625
 40
0.83984375
 40
0.84375
 40
0.84765625
 40
0.8515625
 40
0.859375
 40
0.8671875
 40
0.875
 40
0.890625
 40
0.90625
 40
0.921875
 40
0.9375
 40
0.96875
 40
1.0
 40
1.0
 40
1.0
 40
1.0
 10
559.4137632428
 20
391.0376517663
 30
0.0
 10
559.359317196
 20
391.0649097361
 30
0.0
 10
559.2504251024
 20
391.1194256757
 30
0.0
 10
559.1143099855
 20
391.1875706002
 30
0.0
 10
559.0054178919
 20
391.2420865398
 30
0.0
 10
558.9237488217
 20
391.2829734944
 30
0.0
 10
558.8420797515
 20
391.3238604497
 30
0.0
 10
558.7740221932
 20
391.3579329101
 30
0.0
 10
558.719576146
 20
391.3851908836
 30
0.0
 10
558.6787416122
 20
391.4056343496
 30
0.0
 10
558.6447128291
 20
391.4226706163
 30
0.0
 10
558.6174898136
 20
391.4362995287
 30
0.0
 10
558.597072522
 20
391.4465214887
 30
0.0
 10
558.5800582074
 20
391.4550389119
 30
0.0
 10
558.5664465427
 20
391.4618548168
 30
0.0
 10
558.5579397373
 20
391.4661102801
 30
0.0
 10
558.5511331822
 20
391.4695249046
 30
0.0
 10
558.5468816196
 20
391.4716356488
 30
0.0
 10
558.5439004466
 20
391.4731600585
 30
0.0
 10
558.5422048661
 20
391.473957788
 30
0.0
 10
558.5405392177
 20
391.4744792013
 30
0.0
 10
558.5384469263
 20
391.475225414
 30
0.0
 10
558.5334338473
 20
391.476938591
 30
0.0
 10
558.5259106922
 20
391.4795410055
 30
0.0
 10
558.5158818401
 20
391.4829922307
 30
0.0
 10
558.5058524473
 20
391.4864484476
 30
0.0
 10
558.4924801122
 20
391.4910549957
 30
0.0
 10
558.4690784378
 20
391.4991172661
 30
0.0
 10
558.4356475204
 20
391.5106343709
 30
0.0
 10
558.3955303998
 20
391.5244550787
 30
0.0
 10
558.3554132845
 20
391.5382757377
 30
0.0
 10
558.3152961678
 20
391.5520964097
 30
0.0
 10
558.2618066793
 20
391.5705239679
 30
0.0
 10
558.1949448185
 20
391.5935584172
 30
0.0
 10
558.1147105857
 20
391.6211997556
 30
0.0
 10
558.0344763528
 20
391.6488410943
 30
0.0
 10
557.9676144922
 20
391.6718755427
 30
0.0
 10
557.9141250035
 20
391.6903031027
 30
0.0
 10
557.8740078876
 20
391.7041237691
 30
0.0
 10
557.833890769
 20
391.7179444491
 30
0.0
 10
557.7937736608
 20
391.7317650786
 30
0.0
 10
557.7603427048
 20
391.7432824269
 30
0.0
 10
557.7369410993
 20
391.7513442629
 30
0.0
 10
557.7235686538
 20
391.7559515069
 30
0.0
 10
557.7135396001
 20
391.7594055861
 30
0.0
 10
557.7035094745
 20
391.76286484
 30
0.0
 10
557.6959898857
 20
391.7654447719
 30
0.0
 10
557.6909721524
 20
391.7671872903
 30
0.0
 10
557.6888883856
 20
391.7678797633
 30
0.0
 10
557.6872051465
 20
391.7685120687
 30
0.0
 10
557.6855812457
 20
391.7688579272
 30
0.0
 10
557.6827669893
 20
391.7693300896
 30
0.0
 10
557.6787322383
 20
391.770074047
 30
0.0
 10
557.6722846755
 20
391.7712255727
 30
0.0
 10
557.6642224696
 20
391.7726782672
 30
0.0
 10
557.6513244784
 20
391.774995152
 30
0.0
 10
557.6352014617
 20
391.7778938059
 30
0.0
 10
557.6158540675
 20
391.7813711
 30
0.0
 10
557.590057463
 20
391.7860078731
 30
0.0
 10
557.5578117345
 20
391.7918037088
 30
0.0
 10
557.5191168487
 20
391.7987587676
 30
0.0
 10
557.4675236717
 20
391.8080321598
 30
0.0
 10
557.403032199
 20
391.8196239067
 30
0.0
 10
557.3256424323
 20
391.8335340001
 30
0.0
 10
557.2482526655
 20
391.8474440943
 30
0.0
 10
557.1708628988
 20
391.8613541883
 30
0.0
 10
557.1063714265
 20
391.8729459332
 30
0.0
 10
557.0547782487
 20
391.8822193294
 30
0.0
 10
557.0160833653
 20
391.889174376
 30
0.0
 10
556.983837629
 20
391.8949702497
 30
0.0
 10
556.9580410405
 20
391.8996069452
 30
0.0
 10
556.9386935975
 20
391.9030844764
 30
0.0
 10
556.9193461606
 20
391.9065619711
 30
0.0
 10
556.9032232777
 20
391.9094599971
 30
0.0
 10
556.8903250135
 20
391.911778163
 30
0.0
 10
556.8822635023
 20
391.9132275971
 30
0.0
 10
556.8758145135
 20
391.9143858152
 30
0.0
 10
556.870977169
 20
391.915258118
 30
0.0
 10
556.8669479665
 20
391.91597346
 30
0.0
 10
556.864123761
 20
391.916496919
 30
0.0
 10
556.8625158061
 20
391.9167605635
 30
0.0
 10
556.8612932847
 20
391.9170582305
 30
0.0
 10
556.8601340459
 20
391.9169739005
 30
0.0
 10
556.8585663204
 20
391.9169947054
 30
0.0
 10
556.8558330855
 20
391.9169690326
 30
0.0
 10
556.8519230872
 20
391.916964814
 30
0.0
 10
556.8472333908
 20
391.9169458592
 30
0.0
 10
556.8409796583
 20
391.9169254384
 30
0.0
 10
556.833162768
 20
391.916898251
 30
0.0
 10
556.8206555897
 20
391.9168556797
 30
0.0
 10
556.8050216696
 20
391.916802147
 30
0.0
 10
556.7862609428
 20
391.9167380443
 30
0.0
 10
556.7675002221
 20
391.9166739051
 30
0.0
 10
556.7424859256
 20
391.9165883989
 30
0.0
 10
556.7112180558
 20
391.9164815118
 30
0.0
 10
556.6736966118
 20
391.9163532491
 30
0.0
 10
556.6236680198
 20
391.9161822316
 30
0.0
 10
556.5611322798
 20
391.9159684599
 30
0.0
 10
556.4860893918
 20
391.9157119338
 30
0.0
 10
556.4110465039
 20
391.9154554075
 30
0.0
 10
556.3360036156
 20
391.915198882
 30
0.0
 10
556.2734678766
 20
391.9149851083
 30
0.0
 10
556.2234392825
 20
391.9148140949
 30
0.0
 10
556.1859178449
 20
391.9146858197
 30
0.0
 10
556.1546499548
 20
391.9145789717
 30
0.0
 10
556.1296356999
 20
391.9144933856
 30
0.0
 10
556.1108748525
 20
391.9144294904
 30
0.0
 10
556.0952413098
 20
391.9143753081
 30
0.0
 10
556.0827333613
 20
391.9143340623
 30
0.0
 10
556.0749184311
 20
391.9143035015
 30
0.0
 10
556.0686606752
 20
391.9142900051
 30
0.0
 10
556.0647628384
 20
391.9142565804
 30
0.0
 10
556.0620077766
 20
391.9142832652
 30
0.0
 10
556.0604750363
 20
391.9142201554
 30
0.0
 10
556.0590989371
 20
391.9138618589
 30
0.0
 10
556.0573251794
 20
391.9135150596
 30
0.0
 10
556.0545171401
 20
391.9129036973
 30
0.0
 10
556.0509968281
 20
391.9121588344
 30
0.0
 10
556.0453700649
 20
391.9109562446
 30
0.0
 10
556.038334643
 20
391.909456716
 30
0.0
 10
556.0298929789
 20
391.9076556943
 30
0.0
 10
556.018637133
 20
391.9052548858
 30
0.0
 10
555.9989395396
 20
391.901053213
 30
0.0
 10
555.9708000488
 20
391.8950509581
 30
0.0
 10
555.9370326906
 20
391.8878481944
 30
0.0
 10
555.9032653241
 20
391.8806454462
 30
0.0
 10
555.8694979599
 20
391.8734426938
 30
0.0
 10
555.8244748068
 20
391.8638390254
 30
0.0
 10
555.7681958656
 20
391.8518344395
 30
0.0
 10
555.7006611362
 20
391.8374289366
 30
0.0
 10
555.6331264068
 20
391.8230234335
 30
0.0
 10
555.5768474655
 20
391.8110188479
 30
0.0
 10
555.5318243127
 20
391.8014151789
 30
0.0
 10
555.4980569476
 20
391.7942124283
 30
0.0
 10
555.4642895842
 20
391.7870096735
 30
0.0
 10
555.4305222147
 20
391.7798069345
 30
0.0
 10
555.4023827589
 20
391.7738046028
 30
0.0
 10
555.382685103
 20
391.769603067
 30
0.0
 10
555.3714293572
 20
391.7672020389
 30
0.0
 10
555.3629873857
 20
391.7654016917
 30
0.0
 10
555.3559529261
 20
391.7639000522
 30
0.0
 10
555.3503241994
 20
391.762701769
 30
0.0
 10
555.3468088845
 20
391.7619459461
 30
0.0
 10
555.343990588
 20
391.7613570809
 30
0.0
 10
555.3422429445
 20
391.7609530054
 30
0.0
 10
555.3408132405
 20
391.7607122801
 30
0.0
 10
555.33949886
 20
391.7601702422
 30
0.0
 10
555.3372522668
 20
391.7590817035
 30
0.0
 10
555.3340148964
 20
391.7575996788
 30
0.0
 10
555.3288507244
 20
391.7551876264
 30
0.0
 10
555.3223901609
 20
391.7521865352
 30
0.0
 10
555.3120562485
 20
391.7473769791
 30
0.0
 10
555.2991378325
 20
391.7413677135
 30
0.0
 10
555.2836361722
 20
391.7341554479
 30
0.0
 10
555.2629671385
 20
391.7245394945
 30
0.0
 10
555.2371308991
 20
391.7125194151
 30
0.0
 10
555.2061273891
 20
391.6980953788
 30
0.0
 10
555.1647893838
 20
391.6788633098
 30
0.0
 10
555.1131168744
 20
391.6548232306
 30
0.0
 10
555.0511098643
 20
391.6259751325
 30
0.0
 10
554.9891028539
 20
391.5971270353
 30
0.0
 10
554.9064268401
 20
391.5586629053
 30
0.0
 10
554.8030818228
 20
391.510582743
 30
0.0
 10
554.720405809
 20
391.4721186131
 30
0.0
 10
554.6790678021
 20
391.4528865481
 30
0.0
  0
SPLINE
  5
36D
100
AcDbEntity
  8
0
100
AcDbSpline
 62
2
  6
CONTINUOUS
 70
0
 71
3
 72
292
 73
288
 74
0
 42
0.0000001
 43
0.0000001
 44
0.0000000001
 40
0.0
 40
0.0
 40
0.0
 40
0.0
 40
0.015625
 40
0.03125
 40
0.046875
 40
0.0625
 40
0.0703125
 40
0.078125
 40
0.0859375
 40
0.09375
 40
0.1015625
 40
0.10546875
 40
0.109375
 40
0.11328125
 40
0.115234375
 40
0.1171875
 40
0.119140625
 40
0.12109375
 40
0.1220703125
 40
0.123046875
 40
0.1235351562
 40
0.1240234375
 40
0.1245117188
 40
0.1247558594
 40
0.1248779297
 40
0.125
 40
0.1251220703
 40
0.1252441406
 40
0.1254882812
 40
0.1259765625
 40
0.1264648438
 40
0.126953125
 40
0.1279296875
 40
0.12890625
 40
0.130859375
 40
0.1328125
 40
0.134765625
 40
0.13671875
 40
0.140625
 40
0.14453125
 40
0.1484375
 40
0.15625
 40
0.1640625
 40
0.171875
 40
0.1796875
 40
0.1875
 40
0.1953125
 40
0.203125
 40
0.2109375
 40
0.21875
 40
0.2265625
 40
0.23046875
 40
0.234375
 40
0.23828125
 40
0.240234375
 40
0.2421875
 40
0.244140625
 40
0.24609375
 40
0.2470703125
 40
0.248046875
 40
0.2485351562
 40
0.2490234375
 40
0.2495117188
 40
0.2497558594
 40
0.2498779297
 40
0.25
 40
0.2501220703
 40
0.2502441406
 40
0.2504882812
 40
0.2509765625
 40
0.2514648438
 40
0.251953125
 40
0.2529296875
 40
0.25390625
 40
0.255859375
 40
0.2578125
 40
0.259765625
 40
0.26171875
 40
0.265625
 40
0.26953125
 40
0.2734375
 40
0.28125
 40
0.2890625
 40
0.296875
 40
0.3046875
 40
0.3125
 40
0.3203125
 40
0.328125
 40
0.3359375
 40
0.34375
 40
0.3515625
 40
0.35546875
 40
0.359375
 40
0.36328125
 40
0.365234375
 40
0.3671875
 40
0.369140625
 40
0.37109375
 40
0.3720703125
 40
0.373046875
 40
0.3735351562
 40
0.3740234375
 40
0.3745117188
 40
0.3747558594
 40
0.3748779297
 40
0.375
 40
0.3751220703
 40
0.3752441406
 40
0.3754882812
 40
0.3759765625
 40
0.3764648438
 40
0.376953125
 40
0.3779296875
 40
0.37890625
 40
0.380859375
 40
0.3828125
 40
0.384765625
 40
0.38671875
 40
0.390625
 40
0.39453125
 40
0.3984375
 40
0.40625
 40
0.4140625
 40
0.421875
 40
0.4296875
 40
0.4375
 40
0.4453125
 40
0.453125
 40
0.4609375
 40
0.46875
 40
0.4765625
 40
0.48046875
 40
0.484375
 40
0.48828125
 40
0.490234375
 40
0.4921875
 40
0.494140625
 40
0.49609375
 40
0.4970703125
 40
0.498046875
 40
0.4985351562
 40
0.4990234375
 40
0.4995117188
 40
0.4997558594
 40
0.4998779297
 40
0.5
 40
0.5001220703
 40
0.5002441406
 40
0.5004882812
 40
0.5009765625
 40
0.5014648438
 40
0.501953125
 40
0.5029296875
 40
0.50390625
 40
0.505859375
 40
0.5078125
 40
0.509765625
 40
0.51171875
 40
0.515625
 40
0.51953125
 40
0.5234375
 40
0.53125
 40
0.5390625
 40
0.546875
 40
0.5625
 40
0.578125
 40
0.5859375
 40
0.59375
 40
0.6015625
 40
0.60546875
 40
0.609375
 40
0.61328125
 40
0.615234375
 40
0.6171875
 40
0.619140625
 40
0.62109375
 40
0.6220703125
 40
0.623046875
 40
0.6235351562
 40
0.6240234375
 40
0.6245117188
 40
0.6247558594
 40
0.6248779297
 40
0.625
 40
0.6251220703
 40
0.6252441406
 40
0.6254882812
 40
0.6259765625
 40
0.6264648438
 40
0.626953125
 40
0.6279296875
 40
0.62890625
 40
0.630859375
 40
0.6328125
 40
0.634765625
 40
0.63671875
 40
0.640625
 40
0.64453125
 40
0.6484375
 40
0.65625
 40
0.6640625
 40
0.671875
 40
0.6875
 40
0.6953125
 40
0.703125
 40
0.7109375
 40
0.71875
 40
0.7265625
 40
0.73046875
 40
0.734375
 40
0.73828125
 40
0.740234375
 40
0.7421875
 40
0.744140625
 40
0.74609375
 40
0.7470703125
 40
0.748046875
 40
0.7485351562
 40
0.7490234375
 40
0.7495117188
 40
0.7497558594
 40
0.7498779297
 40
0.75
 40
0.7501220703
 40
0.7502441406
 40
0.7504882812
 40
0.7509765625
 40
0.7514648438
 40
0.751953125
 40
0.7529296875
 40
0.75390625
 40
0.755859375
 40
0.7578125
 40
0.759765625
 40
0.76171875
 40
0.765625
 40
0.76953125
 40
0.7734375
 40
0.78125
 40
0.7890625
 40
0.796875
 40
0.8046875
 40
0.8125
 40
0.8203125
 40
0.828125
 40
0.8359375
 40
0.84375
 40
0.8515625
 40
0.85546875
 40
0.859375
 40
0.86328125
 40
0.865234375
 40
0.8671875
 40
0.869140625
 40
0.87109375
 40
0.8720703125
 40
0.873046875
 40
0.8735351562
 40
0.8740234375
 40
0.8745117188
 40
0.8747558594
 40
0.8748779297
 40
0.875
 40
0.8751220703
 40
0.8752441406
 40
0.8754882812
 40
0.8759765625
 40
0.8764648438
 40
0.876953125
 40
0.8779296875
 40
0.87890625
 40
0.880859375
 40
0.8828125
 40
0.884765625
 40
0.88671875
 40
0.890625
 40
0.89453125
 40
0.8984375
 40
0.90625
 40
0.9140625
 40
0.921875
 40
0.9296875
 40
0.9375
 40
0.953125
 40
0.96875
 40
0.984375
 40
1.0
 40
1.0
 40
1.0
 40
1.0
 10
566.0004903326
 20
379.6291691223
 30
0.0
 10
565.9952635328
 20
379.6937405855
 30
0.0
 10
565.9848099333
 20
379.8228835118
 30
0.0
 10
565.9691295341
 20
380.0165979014
 30
0.0
 10
565.9534491348
 20
380.2103122909
 30
0.0
 10
565.9403821354
 20
380.3717409488
 30
0.0
 10
565.9299285359
 20
380.5008838752
 30
0.0
 10
565.9220883362
 20
380.59774107
 30
0.0
 10
565.9142481366
 20
380.6945982647
 30
0.0
 10
565.906407937
 20
380.7914554595
 30
0.0
 10
565.8998744372
 20
380.8721697885
 30
0.0
 10
565.8946476376
 20
380.9367412516
 30
0.0
 10
565.8907275373
 20
380.9851698491
 30
0.0
 10
565.8874607888
 20
381.0255270132
 30
0.0
 10
565.8848473862
 20
381.0578127457
 30
0.0
 10
565.8828873447
 20
381.0820270415
 30
0.0
 10
565.8809272634
 20
381.1062413511
 30
0.0
 10
565.879293986
 20
381.1264198994
 30
0.0
 10
565.8779870872
 20
381.1425628345
 30
0.0
 10
565.8771709057
 20
381.1526519492
 30
0.0
 10
565.8765165173
 20
381.1607237442
 30
0.0
 10
565.8760296774
 20
381.1667762126
 30
0.0
 10
565.8756114074
 20
381.1718243194
 30
0.0
 10
565.8753432869
 20
381.1753493923
 30
0.0
 10
565.8751515573
 20
381.1773771509
 30
0.0
 10
565.8751162656
 20
381.1788601339
 30
0.0
 10
565.8746662109
 20
381.1804877447
 30
0.0
 10
565.874210812
 20
381.1826074447
 30
0.0
 10
565.8733464576
 20
381.1863404241
 30
0.0
 10
565.8721469064
 20
381.1916609635
 30
0.0
 10
565.8706923608
 20
381.1980508705
 30
0.0
 10
565.8687582353
 20
381.2065689094
 30
0.0
 10
565.8663387743
 20
381.2172170871
 30
0.0
 10
565.8624686451
 20
381.2342538198
 30
0.0
 10
565.8576306376
 20
381.2555498564
 30
0.0
 10
565.8518251769
 20
381.2811050485
 30
0.0
 10
565.8460196765
 20
381.3066602545
 30
0.0
 10
565.8382790232
 20
381.3407338576
 30
0.0
 10
565.8286032018
 20
381.3833258632
 30
0.0
 10
565.8169922182
 20
381.4344362692
 30
0.0
 10
565.8015109059
 20
381.5025834774
 30
0.0
 10
565.7821592659
 20
381.5877674876
 30
0.0
 10
565.7589372977
 20
381.6899882998
 30
0.0
 10
565.7357153296
 20
381.7922091121
 30
0.0
 10
565.7124933614
 20
381.8944299243
 30
0.0
 10
565.6892713933
 20
381.9966507366
 30
0.0
 10
565.6660494251
 20
382.0988715488
 30
0.0
 10
565.642827457
 20
382.2010923611
 30
0.0
 10
565.6196054889
 20
382.3033131733
 30
0.0
 10
565.5963835207
 20
382.4055339856
 30
0.0
 10
565.5770318806
 20
382.4907179958
 30
0.0
 10
565.5615505686
 20
382.5588652039
 30
0.0
 10
565.5499395841
 20
382.6099756101
 30
0.0
 10
565.5402637653
 20
382.6525676151
 30
0.0
 10
565.5325231067
 20
382.6866412194
 30
0.0
 10
565.5267176225
 20
382.7121964217
 30
0.0
 10
565.520912101
 20
382.7377516277
 30
0.0
 10
565.5160742828
 20
382.759047621
 30
0.0
 10
565.5122037674
 20
382.776084442
 30
0.0
 10
565.5097852892
 20
382.7867323949
 30
0.0
 10
565.5078491465
 20
382.7952508952
 30
0.0
 10
565.5064007636
 20
382.8016393928
 30
0.0
 10
565.5051819306
 20
382.8069643421
 30
0.0
 10
565.5043519975
 20
382.810689449
 30
0.0
 10
565.5038414471
 20
382.8128217627
 30
0.0
 10
565.5035608002
 20
382.814410628
 30
0.0
 10
565.502889241
 20
382.8160391328
 30
0.0
 10
565.5021301834
 20
382.8181966458
 30
0.0
 10
565.5007383024
 20
382.8219787356
 30
0.0
 10
565.4987831152
 20
382.8273783531
 30
0.0
 10
565.4964226739
 20
382.8338593358
 30
0.0
 10
565.4932803844
 20
382.8425001424
 30
0.0
 10
565.4893508222
 20
382.8533013231
 30
0.0
 10
565.4830644731
 20
382.8705831159
 30
0.0
 10
565.4752062105
 20
382.89218539
 30
0.0
 10
565.4657764353
 20
382.9181081047
 30
0.0
 10
565.4563466227
 20
382.9440308232
 30
0.0
 10
565.4437735522
 20
382.9785944465
 30
0.0
 10
565.4280572097
 20
383.0217989761
 30
0.0
 10
565.4091976005
 20
383.0736444114
 30
0.0
 10
565.3840514543
 20
383.1427716586
 30
0.0
 10
565.3526187718
 20
383.2291807176
 30
0.0
 10
565.3148995527
 20
383.3328715883
 30
0.0
 10
565.2771803336
 20
383.4365624591
 30
0.0
 10
565.2394611145
 20
383.5402533298
 30
0.0
 10
565.2017418954
 20
383.6439442006
 30
0.0
 10
565.1640226763
 20
383.7476350713
 30
0.0
 10
565.1263034572
 20
383.8513259421
 30
0.0
 10
565.0885842381
 20
383.9550168129
 30
0.0
 10
565.0508650191
 20
384.0587076836
 30
0.0
 10
565.0194323364
 20
384.1451167426
 30
0.0
 10
564.9942861905
 20
384.2142439897
 30
0.0
 10
564.9754265805
 20
384.2660894251
 30
0.0
 10
564.9597102405
 20
384.3092939546
 30
0.0
 10
564.9471371649
 20
384.3438575781
 30
0.0
 10
564.9377073678
 20
384.3697802962
 30
0.0
 10
564.9282775344
 20
384.3957030124
 30
0.0
 10
564.9204194529
 20
384.4173052817
 30
0.0
 10
564.9141327345
 20
384.4345870842
 30
0.0
 10
564.9102041121
 20
384.4453882402
 30
0.0
 10
564.9070598936
 20
384.4540290976
 30
0.0
 10
564.9047053455
 20
384.4605099252
 30
0.0
 10
564.9027317199
 20
384.4659100277
 30
0.0
 10
564.9013727546
 20
384.4696912518
 30
0.0
 10
564.9005609577
 20
384.471850152
 30
0.0
 10
564.9000513965
 20
384.4734743957
 30
0.0
 10
564.8991623122
 20
384.4750792648
 30
0.0
 10
564.8981092484
 20
384.4772258483
 30
0.0
 10
564.8962047075
 20
384.4809792206
 30
0.0
 10
564.8935161813
 20
384.4863428273
 30
0.0
 10
564.8902761474
 20
384.4927784508
 30
0.0
 10
564.8859609231
 20
384.5013595282
 30
0.0
 10
564.880565242
 20
384.5120857906
 30
0.0
 10
564.8719330748
 20
384.5292478576
 30
0.0
 10
564.8611425493
 20
384.5507004252
 30
0.0
 10
564.8481940544
 20
384.5764435132
 30
0.0
 10
564.8352455232
 20
384.6021865994
 30
0.0
 10
564.8179808276
 20
384.636510715
 30
0.0
 10
564.7963999537
 20
384.6794158592
 30
0.0
 10
564.770502907
 20
384.7309020324
 30
0.0
 10
564.7359735107
 20
384.7995502633
 30
0.0
 10
564.6928117655
 20
384.8853605519
 30
0.0
 10
564.6410176711
 20
384.9883328982
 30
0.0
 10
564.5892235769
 20
385.0913052445
 30
0.0
 10
564.5374294826
 20
385.1942775908
 30
0.0
 10
564.4856353882
 20
385.2972499372
 30
0.0
 10
564.4338412939
 20
385.4002222835
 30
0.0
 10
564.3820471996
 20
385.5031946298
 30
0.0
 10
564.3302531053
 20
385.6061669761
 30
0.0
 10
564.2784590111
 20
385.7091393224
 30
0.0
 10
564.2352972658
 20
385.794949611
 30
0.0
 10
564.2007678696
 20
385.8635978419
 30
0.0
 10
564.1748708222
 20
385.9150840149
 30
0.0
 10
564.1532899505
 20
385.9579891599
 30
0.0
 10
564.1360252506
 20
385.9923132739
 30
0.0
 10
564.1230767326
 20
386.0180563649
 30
0.0
 10
564.110128188
 20
386.0437994347
 30
0.0
 10
564.0993378169
 20
386.0652520591
 30
0.0
 10
564.0907053349
 20
386.0824140103
 30
0.0
 10
564.0853104552
 20
386.0931405675
 30
0.0
 10
564.0809935859
 20
386.1017210399
 30
0.0
 10
564.0777585775
 20
386.1081585116
 30
0.0
 10
564.0750543277
 20
386.1135163355
 30
0.0
 10
564.0731778561
 20
386.1172800311
 30
0.0
 10
564.0720798182
 20
386.1194100742
 30
0.0
 10
564.0713288799
 20
386.1210657501
 30
0.0
 10
564.0703004652
 20
386.1224991715
 30
0.0
 10
564.0690260324
 20
386.1244879248
 30
0.0
 10
564.0667506803
 20
386.1279321228
 30
0.0
 10
564.0635237533
 20
386.1328712898
 30
0.0
 10
564.0596413496
 20
386.1387902073
 30
0.0
 10
564.0544683361
 20
386.1466849204
 30
0.0
 10
564.0480008622
 20
386.1565523451
 30
0.0
 10
564.0376535787
 20
386.1723407649
 30
0.0
 10
564.0247192427
 20
386.1920761043
 30
0.0
 10
564.0091981389
 20
386.215758591
 30
0.0
 10
563.9936770084
 20
386.2394410565
 30
0.0
 10
563.9729821771
 20
386.2710176846
 30
0.0
 10
563.9471136348
 20
386.3104884671
 30
0.0
 10
563.9160713854
 20
386.3578534072
 30
0.0
 10
563.874681719
 20
386.4210066603
 30
0.0
 10
563.8229446362
 20
386.4999482268
 30
0.0
 10
563.7608601368
 20
386.5946781066
 30
0.0
 10
563.6780808043
 20
386.720984613
 30
0.0
 10
563.5746066386
 20
386.878867746
 30
0.0
 10
563.4711324729
 20
387.036750879
 30
0.0
 10
563.3883531404
 20
387.1630573853
 30
0.0
 10
563.326268641
 20
387.2577872651
 30
0.0
 10
563.2745315581
 20
387.3367288316
 30
0.0
 10
563.2331418919
 20
387.3998820849
 30
0.0
 10
563.202099642
 20
387.4472470245
 30
0.0
 10
563.1762311013
 20
387.4867178086
 30
0.0
 10
563.1555362666
 20
387.5182944334
 30
0.0
 10
563.1400151465
 20
387.5419769088
 30
0.0
 10
563.1244940039
 20
387.5656593583
 30
0.0
 10
563.1115597885
 20
387.5853948134
 30
0.0
 10
563.1012122592
 20
387.6011829973
 30
0.0
 10
563.0947454107
 20
387.6110510224
 30
0.0
 10
563.0895711135
 20
387.6189445032
 30
0.0
 10
563.0856926315
 20
387.6248671853
 30
0.0
 10
563.0824534347
 20
387.6297945736
 30
0.0
 10
563.0801999863
 20
387.6332597987
 30
0.0
 10
563.0788904582
 20
387.6352148613
 30
0.0
 10
563.0779698451
 20
387.6367517698
 30
0.0
 10
563.0768140217
 20
387.6380187652
 30
0.0
 10
563.0753549678
 20
387.6398022411
 30
0.0
 10
563.0727633976
 20
387.6428794584
 30
0.0
 10
563.0690811395
 20
387.6472984164
 30
0.0
 10
563.0646538755
 20
387.6525913499
 30
0.0
 10
563.0587538447
 20
387.6596520231
 30
0.0
 10
563.0513777831
 20
387.6684766906
 30
0.0
 10
563.0395766564
 20
387.6825968148
 30
0.0
 10
563.0248250518
 20
387.7002467448
 30
0.0
 10
563.0071232104
 20
387.7214267575
 30
0.0
 10
562.9894213464
 20
387.7426067442
 30
0.0
 10
562.9658188691
 20
387.7708467356
 30
0.0
 10
562.9363157696
 20
387.8061467218
 30
0.0
 10
562.9009120515
 20
387.8485067065
 30
0.0
 10
562.8537070936
 20
387.9049866857
 30
0.0
 10
562.7947008963
 20
387.9755866598
 30
0.0
 10
562.7238934595
 20
388.0603066286
 30
0.0
 10
562.6294835438
 20
388.1732665871
 30
0.0
 10
562.5350736281
 20
388.2862265456
 30
0.0
 10
562.4406637125
 20
388.3991865041
 30
0.0
 10
562.3698562757
 20
388.483906473
 30
0.0
 10
562.2990488389
 20
388.5686264419
 30
0.0
 10
562.2282414022
 20
388.6533464108
 30
0.0
 10
562.1692352048
 20
388.7239463848
 30
0.0
 10
562.122030247
 20
388.7804263641
 30
0.0
 10
562.0866265285
 20
388.8227863482
 30
0.0
 10
562.0571234304
 20
388.8580863364
 30
0.0
 10
562.0335209504
 20
388.8863263237
 30
0.0
 10
562.0158190944
 20
388.9075063231
 30
0.0
 10
561.998117223
 20
388.9286862883
 30
0.0
 10
561.9833657118
 20
388.9463363657
 30
0.0
 10
561.9715643945
 20
388.9604561895
 30
0.0
 10
561.964188818
 20
388.9692816216
 30
0.0
 10
561.9582877915
 20
388.9763407253
 30
0.0
 10
561.9538635696
 20
388.9816384536
 30
0.0
 10
561.9501717935
 20
388.9860424098
 30
0.0
 10
561.9475972144
 20
388.9891464079
 30
0.0
 10
561.9461109367
 20
388.9908869742
 30
0.0
 10
561.9450387361
 20
388.992285774
 30
0.0
 10
561.9438040495
 20
388.9933276472
 30
0.0
 10
561.9422144777
 20
388.9948413114
 30
0.0
 10
561.9394063202
 20
388.997432217
 30
0.0
 10
561.9354084724
 20
389.0011638373
 30
0.0
 10
561.9306051457
 20
389.0056288009
 30
0.0
 10
561.9242027741
 20
389.0115866196
 30
0.0
 10
561.9161991029
 20
389.0190323405
 30
0.0
 10
561.9033936239
 20
389.0309463617
 30
0.0
 10
561.8873866397
 20
389.0458385905
 30
0.0
 10
561.8681783168
 20
389.0637093926
 30
0.0
 10
561.8489699783
 20
389.0815801606
 30
0.0
 10
561.8233588658
 20
389.1054078632
 30
0.0
 10
561.7913449732
 20
389.1351924873
 30
0.0
 10
561.7529283029
 20
389.170934038
 30
0.0
 10
561.7017060756
 20
389.2185894383
 30
0.0
 10
561.6376782916
 20
389.2781586889
 30
0.0
 10
561.5608449507
 20
389.3496417896
 30
0.0
 10
561.4840116099
 20
389.4211248902
 30
0.0
 10
561.407178269
 20
389.4926079909
 30
0.0
 10
561.3303449281
 20
389.5640910916
 30
0.0
 10
561.2535115873
 20
389.6355741922
 30
0.0
 10
561.1766782464
 20
389.7070572929
 30
0.0
 10
561.0998449055
 20
389.7785403936
 30
0.0
 10
561.0230115647
 20
389.8500234943
 30
0.0
 10
560.9589837806
 20
389.9095927448
 30
0.0
 10
560.9077615534
 20
389.9572481453
 30
0.0
 10
560.8693448828
 20
389.9929896953
 30
0.0
 10
560.8373309912
 20
390.0227743218
 30
0.0
 10
560.8117198768
 20
390.0466020194
 30
0.0
 10
560.792511544
 20
390.0644728028
 30
0.0
 10
560.7733031996
 20
390.0823435471
 30
0.0
 10
560.7572962823
 20
390.0972359556
 30
0.0
 10
560.7444906669
 20
390.1091496102
 30
0.0
 10
560.7364873431
 20
390.1165962641
 30
0.0
 10
560.7300842584
 20
390.1225521679
 30
0.0
 10
560.7252831103
 20
390.1270229817
 30
0.0
 10
560.7212784463
 20
390.1307362979
 30
0.0
 10
560.7184824567
 20
390.1333598794
 30
0.0
 10
560.7168733888
 20
390.1348211886
 30
0.0
 10
560.7156985881
 20
390.1360238796
 30
0.0
 10
560.7144014662
 20
390.1368186746
 30
0.0
 10
560.7127146374
 20
390.13802068
 30
0.0
 10
560.7097428077
 20
390.1400578992
 30
0.0
 10
560.7055077298
 20
390.1430028696
 30
0.0
 10
560.7004211877
 20
390.1465219997
 30
0.0
 10
560.6936406854
 20
390.1512193544
 30
0.0
 10
560.6851645255
 20
390.1570892738
 30
0.0
 10
560.6716029669
 20
390.1664821363
 30
0.0
 10
560.6546509168
 20
390.1782228743
 30
0.0
 10
560.6343085003
 20
390.1923119056
 30
0.0
 10
560.6139660721
 20
390.206400898
 30
0.0
 10
560.5868428386
 20
390.2251862348
 30
0.0
 10
560.5529387953
 20
390.248667901
 30
0.0
 10
560.512253944
 20
390.2768459026
 30
0.0
 10
560.4580074754
 20
390.3144165706
 30
0.0
 10
560.3901993897
 20
390.3613799058
 30
0.0
 10
560.3088296868
 20
390.417735908
 30
0.0
 10
560.2274599839
 20
390.4740919102
 30
0.0
 10
560.146090281
 20
390.5304479125
 30
0.0
 10
560.0375973438
 20
390.6055892487
 30
0.0
 10
559.9019811723
 20
390.6995159191
 30
0.0
 10
559.7392417665
 20
390.8122279235
 30
0.0
 10
559.5765023607
 20
390.924939928
 30
0.0
 10
559.4680094235
 20
391.0000812643
 30
0.0
 10
559.4137629549
 20
391.0376519324
 30
0.0
  0
SPLINE
  5
36E
100
AcDbEntity
  8
0
100
AcDbSpline
 62
7
  6
CONTINUOUS
 70
0
 71
3
 72
25
 73
21
 74
0
 42
0.0000001
 43
0.0000001
 44
0.0000000001
 40
0.0
 40
0.0
 40
0.0
 40
0.0
 40
0.0614114614
 40
0.1261305643
 40
0.1936586869
 40
0.2633212049
 40
0.3343209441
 40
0.4057883884
 40
0.4768294226
 40
0.5465723273
 40
0.6142155001
 40
0.6790774417
 40
0.7406502838
 40
0.7986561462
 40
0.8531014504
 40
0.9043144826
 40
0.9289294947
 40
0.9530027671
 40
0.9766513583
 40
1.0
 40
1.0
 40
1.0
 40
1.0
 10
456.3475510994
 20
330.3745047695
 30
0.0
 10
456.2099064649
 20
330.2950360771
 30
0.0
 10
455.9167787859
 20
330.149446945
 30
0.0
 10
455.4458981671
 20
329.9754601227
 30
0.0
 10
454.9398419657
 20
329.8421519294
 30
0.0
 10
454.4080028116
 20
329.7516719137
 30
0.0
 10
453.8603021129
 20
329.7055093831
 30
0.0
 10
453.307107451
 20
329.7044596274
 30
0.0
 10
452.7589216916
 20
329.7485396007
 30
0.0
 10
452.2261182619
 20
329.8369938363
 30
0.0
 10
451.718670079
 20
329.9683477355
 30
0.0
 10
451.2459092322
 20
330.1405319922
 30
0.0
 10
450.8163656077
 20
330.351049087
 30
0.0
 10
450.4377089839
 20
330.5972650787
 30
0.0
 10
450.1170760274
 20
330.8763914797
 30
0.0
 10
449.901095982
 20
331.1378789467
 30
0.0
 10
449.7668780117
 20
331.3593134755
 30
0.0
 10
449.686586663
 20
331.528837173
 30
0.0
 10
449.626281888
 20
331.7029894647
 30
0.0
 10
449.5997904109
 20
331.8220366532
 30
0.0
 10
449.5901815087
 20
331.8816960649
 30
0.0
  0
SPLINE
  5
36F
100
AcDbEntity
  8
0
100
AcDbSpline
 62
7
  6
CONTINUOUS
 70
0
 71
3
 72
14
 73
10
 74
0
 42
0.0000001
 43
0.0000001
 44
0.0000000001
 40
0.0
 40
0.0
 40
0.0
 40
0.0
 40
0.1128181861
 40
0.2276123881
 40
0.3452866824
 40
0.466660284
 40
0.7227727277
 40
0.8586896942
 40
1.0
 40
1.0
 40
1.0
 40
1.0
 10
457.5516121062
 20
331.881776681
 30
0.0
 10
457.5397035784
 20
331.8078125019
 30
0.0
 10
457.5046321727
 20
331.6601564334
 30
0.0
 10
457.4206998957
 20
331.4460679338
 30
0.0
 10
457.3067005789
 20
331.2398636696
 30
0.0
 10
457.1136431564
 20
330.9728975106
 30
0.0
 10
456.8684829384
 20
330.7320206338
 30
0.0
 10
456.5849410915
 20
330.5194629132
 30
0.0
 10
456.4288163121
 20
330.4214229819
 30
0.0
 10
456.3475510994
 20
330.3745047695
 30
0.0
  0
SPLINE
  5
370
100
AcDbEntity
  8
0
100
AcDbSpline
 62
7
  6
CONTINUOUS
 70
0
 71
3
 72
15
 73
11
 74
0
 42
0.0000001
 43
0.0000001
 44
0.0000000001
 40
0.0
 40
0.0
 40
0.0
 40
0.0
 40
0.1460604593
 40
0.2855847297
 40
0.4185605622
 40
0.5451721562
 40
0.6658329244
 40
0.7812044928
 40
0.8922056892
 40
1.0
 40
1.0
 40
1.0
 40
1.0
 10
456.3993290903
 20
330.4889512549
 30
0.0
 10
456.4777999889
 20
330.5342561789
 30
0.0
 10
456.6281209023
 20
330.6284024018
 30
0.0
 10
456.8366570825
 20
330.7836059832
 30
0.0
 10
457.0217514001
 20
330.9485878233
 30
0.0
 10
457.182040156
 20
331.122213601
 30
0.0
 10
457.3163292891
 20
331.3032969018
 30
0.0
 10
457.4235728974
 20
331.4906106707
 30
0.0
 10
457.5028667122
 20
331.6827812081
 30
0.0
 10
457.5369961223
 20
331.8147096451
 30
0.0
 10
457.5489739563
 20
331.8804995978
 30
0.0
  0
SPLINE
  5
371
100
AcDbEntity
  8
0
100
AcDbSpline
 62
7
  6
CONTINUOUS
 70
0
 71
3
 72
26
 73
22
 74
0
 42
0.0000001
 43
0.0000001
 44
0.0000000001
 40
0.0
 40
0.0
 40
0.0
 40
0.0
 40
0.0213962041
 40
0.0432834951
 40
0.0658281617
 40
0.08917009
 40
0.113420475
 40
0.1386615918
 40
0.1922711421
 40
0.2501864159
 40
0.3122146192
 40
0.3779042324
 40
0.4466084285
 40
0.5175382805
 40
0.589808634
 40
0.662479414
 40
0.7345945469
 40
0.8052202138
 40
0.8734840311
 40
0.9386169579
 40
1.0
 40
1.0
 40
1.0
 40
1.0
 10
449.5928067301
 20
331.8804979115
 30
0.0
 10
449.6026928317
 20
331.8261974799
 30
0.0
 10
449.6293418231
 20
331.7174572407
 30
0.0
 10
449.6885785837
 20
331.557955605
 30
0.0
 10
449.7670859525
 20
331.401375631
 30
0.0
 10
449.8644170986
 20
331.2485195863
 30
0.0
 10
449.9800559822
 20
331.1001073205
 30
0.0
 10
450.1614645409
 20
330.9052317089
 30
0.0
 10
450.4329037975
 20
330.6775750349
 30
0.0
 10
450.8129433042
 20
330.4388004681
 30
0.0
 10
451.2465001217
 20
330.2331761103
 30
0.0
 10
451.7251749443
 20
330.064570056
 30
0.0
 10
452.2397608925
 20
329.9361490026
 30
0.0
 10
452.780276943
 20
329.8503868073
 30
0.0
 10
453.3362095449
 20
329.8089442138
 30
0.0
 10
453.8967195552
 20
329.8126283539
 30
0.0
 10
454.4508754229
 20
329.8613683633
 30
0.0
 10
454.9878687727
 20
329.95421148
 30
0.0
 10
455.4972844718
 20
330.0893750072
 30
0.0
 10
455.9691620419
 20
330.264214663
 30
0.0
 10
456.2622007292
 20
330.4097806313
 30
0.0
 10
456.3993290903
 20
330.4889512549
 30
0.0
  0
SPLINE
  5
372
100
AcDbEntity
  8
0
100
AcDbSpline
 62
7
  6
CONTINUOUS
 70
0
 71
3
 72
11
 73
7
 74
0
 42
0.0000001
 43
0.0000001
 44
0.0000000001
 40
0.0
 40
0.0
 40
0.0
 40
0.0
 40
0.266388135
 40
0.5240312647
 40
0.76948548
 40
1.0
 40
1.0
 40
1.0
 40
1.0
 10
455.6279738572
 20
297.5282966839
 30
0.0
 10
456.192170863
 20
297.5875101526
 30
0.0
 10
457.297628031
 20
297.752918077
 30
0.0
 10
458.8910475128
 20
298.1460723557
 30
0.0
 10
460.3648673698
 20
298.672562711
 30
0.0
 10
461.2775195964
 20
299.1204242227
 30
0.0
 10
461.7026520289
 20
299.3658730829
 30
0.0
  0
SPLINE
  5
373
100
AcDbEntity
  8
0
100
AcDbSpline
 62
7
  6
CONTINUOUS
 70
0
 71
3
 72
11
 73
7
 74
0
 42
0.0000001
 43
0.0000001
 44
0.0000000001
 40
0.0
 40
0.0
 40
0.0
 40
0.0
 40
0.2816241356
 40
0.5409054048
 40
0.7791309369
 40
1.0
 40
1.0
 40
1.0
 40
1.0
 10
462.0563515955
 20
299.57008746
 30
0.0
 10
462.4590226578
 20
299.8025762757
 30
0.0
 10
463.2064131871
 20
300.2972764609
 30
0.0
 10
464.1659343713
 20
301.1623853826
 30
0.0
 10
464.8977703633
 20
302.1044491759
 30
0.0
 10
465.2308460292
 20
302.7938784205
 30
0.0
 10
465.3478187764
 20
303.1392682534
 30
0.0
  0
SPLINE
  5
374
100
AcDbEntity
  8
0
100
AcDbSpline
 62
7
  6
CONTINUOUS
 70
0
 71
3
 72
15
 73
11
 74
0
 42
0.0000001
 43
0.0000001
 44
0.0000000001
 40
0.0
 40
0.0
 40
0.0
 40
0.0
 40
0.1141538031
 40
0.2373250055
 40
0.3669750456
 40
0.5000000659
 40
0.6330253043
 40
0.7626761555
 40
0.8858439776
 40
1.0
 40
1.0
 40
1.0
 40
1.0
 10
446.8532326743
 20
292.0173968902
 30
0.0
 10
447.3130985646
 20
291.7518856519
 30
0.0
 10
448.3186865442
 20
291.2836143853
 30
0.0
 10
449.9562306569
 20
290.7858746549
 30
0.0
 10
451.7291434743
 20
290.4794907774
 30
0.0
 10
453.5708256284
 20
290.3761294304
 30
0.0
 10
455.4125126803
 20
290.4794757566
 30
0.0
 10
457.1854162196
 20
290.7858471788
 30
0.0
 10
458.822965884
 20
291.283561985
 30
0.0
 10
459.8285537959
 20
291.7518208659
 30
0.0
 10
460.2884325786
 20
292.0173304206
 30
0.0
  0
SPLINE
  5
375
100
AcDbEntity
  8
0
100
AcDbSpline
 62
7
  6
CONTINUOUS
 70
0
 71
3
 72
14
 73
10
 74
0
 42
0.0000001
 43
0.0000001
 44
0.0000000001
 40
0.0
 40
0.0
 40
0.0
 40
0.0
 40
0.2892766728
 40
0.4225331206
 40
0.5484938099
 40
0.6678921915
 40
0.7818668745
 40
0.8919520835
 40
1.0
 40
1.0
 40
1.0
 40
1.0
 10
460.9956698861
 20
292.4256657437
 30
0.0
 10
461.4565467776
 20
292.6917607303
 30
0.0
 10
462.10196631
 20
293.1361574302
 30
0.0
 10
462.8321904661
 20
293.8350478129
 30
0.0
 10
463.2766318753
 20
294.3737680979
 30
0.0
 10
463.627968197
 20
294.9362028311
 30
0.0
 10
463.882300344
 20
295.5173309566
 30
0.0
 10
464.0363678007
 20
296.1112524658
 30
0.0
 10
464.0708792501
 20
296.513356549
 30
0.0
 10
464.0708789097
 20
296.712130917
 30
0.0
  0
SPLINE
  5
376
100
AcDbEntity
  8
0
100
AcDbSpline
 62
7
  6
CONTINUOUS
 70
0
 71
3
 72
10
 73
6
 74
0
 42
0.0000001
 43
0.0000001
 44
0.0000000001
 40
0.0
 40
0.0
 40
0.0
 40
0.0
 40
0.5207235084
 40
0.7668066467
 40
1.0
 40
1.0
 40
1.0
 40
1.0
 10
455.8739964795
 20
297.6695870589
 30
0.0
 10
456.9167232766
 20
297.7873018801
 30
0.0
 10
458.4441158549
 20
298.0807029737
 30
0.0
 10
460.3546783164
 20
298.7281711531
 30
0.0
 10
461.2360982171
 20
299.1285619736
 30
0.0
 10
461.6520186674
 20
299.3472869245
 30
0.0
  0
LINE
  5
377
100
AcDbEntity
  8
0
100
AcDbLine
 62
7
  6
CONTINUOUS
 10
446.867423749
 20
292.0462342213
 11
446.8867454037
 21
292.037003499
  0
SPLINE
  5
378
100
AcDbEntity
  8
0
100
AcDbSpline
 62
7
  6
CONTINUOUS
 70
0
 71
3
 72
15
 73
11
 74
0
 42
0.0000001
 43
0.0000001
 44
0.0000000001
 40
0.0
 40
0.0
 40
0.0
 40
0.0
 40
0.1164596456
 40
0.2399773372
 40
0.3684866073
 40
0.4995975477
 40
0.6307626242
 40
0.7594307679
 40
0.8832021007
 40
1.0
 40
1.0
 40
1.0
 40
1.0
 10
446.8867454037
 20
292.037003499
 30
0.0
 10
447.3665058246
 20
291.8083592883
 30
0.0
 10
448.3887509075
 20
291.4059187169
 30
0.0
 10
450.0178367833
 20
290.9763833488
 30
0.0
 10
451.7493670013
 20
290.7120510567
 30
0.0
 10
453.5332503156
 20
290.6206371938
 30
0.0
 10
455.3182181315
 20
290.7047007276
 30
0.0
 10
457.0529628681
 20
290.9618962786
 30
0.0
 10
458.6873304618
 20
291.3846990587
 30
0.0
 10
459.7141430878
 20
291.7827876436
 30
0.0
 10
460.1965879394
 20
292.0093672317
 30
0.0
  0
LINE
  5
379
100
AcDbEntity
  8
0
100
AcDbLine
 62
7
  6
CONTINUOUS
 10
460.2638965696
 20
292.0412469085
 11
460.274117603
 21
292.0461352279
  0
SPLINE
  5
37A
100
AcDbEntity
  8
0
100
AcDbSpline
 62
7
  6
CONTINUOUS
 70
0
 71
3
 72
27
 73
23
 74
0
 42
0.0000001
 43
0.0000001
 44
0.0000000001
 40
0.0
 40
0.0
 40
0.0
 40
0.0
 40
0.0619807348
 40
0.1270904832
 40
0.1948621704
 40
0.2646162239
 40
0.3355277254
 40
0.4066915192
 40
0.4771853819
 40
0.5461327352
 40
0.6127665608
 40
0.6764955716
 40
0.7369714603
 40
0.7659806445
 40
0.7941887547
 40
0.8483652744
 40
0.874538649
 40
0.9002126157
 40
0.9254923864
 40
0.9504835656
 40
0.9752876483
 40
1.0
 40
1.0
 40
1.0
 40
1.0
 10
458.0221250286
 20
332.128133032
 30
0.0
 10
457.7888488374
 20
331.9934517642
 30
0.0
 10
457.2921512545
 20
331.7483168118
 30
0.0
 10
456.4944451652
 20
331.4597411385
 30
0.0
 10
455.6391996099
 20
331.2440633916
 30
0.0
 10
454.7429360503
 20
331.104495723
 30
0.0
 10
453.823222427
 20
331.0432295133
 30
0.0
 10
452.8984489198
 20
331.0612941817
 30
0.0
 10
451.9871527254
 20
331.1583845686
 30
0.0
 10
451.1074439942
 20
331.3329037023
 30
0.0
 10
450.2763865238
 20
331.5821937387
 30
0.0
 10
449.5097469815
 20
331.9028242222
 30
0.0
 10
448.9281776971
 20
332.2311048777
 30
0.0
 10
448.5106813491
 20
332.5273471396
 30
0.0
 10
448.1372533351
 20
332.8358664307
 30
0.0
 10
447.8093607484
 20
333.1789687996
 30
0.0
 10
447.5406376038
 20
333.5540284142
 30
0.0
 10
447.3733199632
 20
333.8451843629
 30
0.0
 10
447.2401377634
 20
334.1478952936
 30
0.0
 10
447.1431375576
 20
334.4601920106
 30
0.0
 10
447.0841131126
 20
334.7793257902
 30
0.0
 10
447.0708901897
 20
334.994750022
 30
0.0
 10
447.0708901897
 20
335.1021480955
 30
0.0
  0
SPLINE
  5
37B
100
AcDbEntity
  8
0
100
AcDbSpline
 62
7
  6
CONTINUOUS
 70
0
 71
3
 72
18
 73
14
 74
0
 42
0.0000001
 43
0.0000001
 44
0.0000000001
 40
0.0
 40
0.0
 40
0.0
 40
0.0
 40
0.0580714162
 40
0.1162432077
 40
0.1746145338
 40
0.2332919911
 40
0.3519240551
 40
0.4731516581
 40
0.5350563096
 40
0.5979392821
 40
0.7269555621
 40
0.860858441
 40
1.0
 40
1.0
 40
1.0
 40
1.0
 10
460.0708901897
 20
335.1021480955
 30
0.0
 10
460.0708901897
 20
335.0289176427
 30
0.0
 10
460.0647622293
 20
334.8822565852
 30
0.0
 10
460.0372948456
 20
334.6635414846
 30
0.0
 10
459.991814722
 20
334.4470517132
 30
0.0
 10
459.9074802791
 20
334.1617829781
 30
0.0
 10
459.7584147123
 20
333.814380805
 30
0.0
 10
459.558569842
 20
333.4890589404
 30
0.0
 10
459.3708984291
 20
333.2418092813
 30
0.0
 10
459.1616707072
 20
332.9993635022
 30
0.0
 10
458.8656773104
 20
332.7130331901
 30
0.0
 10
458.4651538336
 20
332.400856251
 30
0.0
 10
458.1740808865
 20
332.2158642638
 30
0.0
 10
458.0221250286
 20
332.128133032
 30
0.0
  0
SPLINE
  5
37C
100
AcDbEntity
  8
0
100
AcDbSpline
 62
7
  6
CONTINUOUS
 70
0
 71
3
 72
15
 73
11
 74
0
 42
0.0000001
 43
0.0000001
 44
0.0000000001
 40
0.0
 40
0.0
 40
0.0
 40
0.0
 40
0.1230971971
 40
0.2461581989
 40
0.369258485
 40
0.4926594979
 40
0.6168225192
 40
0.7423516366
 40
0.8698886362
 40
1.0
 40
1.0
 40
1.0
 40
1.0
 10
438.3429681284
 20
349.4725600428
 30
0.0
 10
438.3429681284
 20
349.5414511263
 30
0.0
 10
438.3539870149
 20
349.6794611427
 30
0.0
 10
438.4027653899
 20
349.8810917783
 30
0.0
 10
438.4815815274
 20
350.0731427582
 30
0.0
 10
438.5873739954
 20
350.2523524703
 30
0.0
 10
438.7168670666
 20
350.4168745105
 30
0.0
 10
438.8670635551
 20
350.5659211545
 30
0.0
 10
439.0354247607
 20
350.6993635732
 30
0.0
 10
439.1571111166
 20
350.7772039778
 30
0.0
 10
439.2201721901
 20
350.8136120883
 30
0.0
  0
SPLINE
  5
37D
100
AcDbEntity
  8
0
100
AcDbSpline
 62
7
  6
CONTINUOUS
 70
0
 71
3
 72
15
 73
11
 74
0
 42
0.0000001
 43
0.0000001
 44
0.0000000001
 40
0.0
 40
0.0
 40
0.0
 40
0.0
 40
0.118832393
 40
0.2425197205
 40
0.3701599608
 40
0.5000002311
 40
0.6298404703
 40
0.7574806003
 40
0.8811676929
 40
1.0
 40
1.0
 40
1.0
 40
1.0
 10
451.9480412599
 20
358.162006858
 30
0.0
 10
452.0638719361
 20
358.2288813308
 30
0.0
 10
452.3119371088
 20
358.3457693602
 30
0.0
 10
452.7110719739
 20
358.4690566592
 30
0.0
 10
453.1346440501
 20
358.5435864385
 30
0.0
 10
453.5708292921
 20
358.5685328351
 30
0.0
 10
454.007014511
 20
358.5435882498
 30
0.0
 10
454.4305864914
 20
358.4690604298
 30
0.0
 10
454.8297215206
 20
358.3457753696
 30
0.0
 10
455.0777870922
 20
358.2288890899
 30
0.0
 10
455.1936181668
 20
358.1620155007
 30
0.0
  0
SPLINE
  5
37E
100
AcDbEntity
  8
0
100
AcDbSpline
 62
7
  6
CONTINUOUS
 70
0
 71
3
 72
15
 73
11
 74
0
 42
0.0000001
 43
0.0000001
 44
0.0000000001
 40
0.0
 40
0.0
 40
0.0
 40
0.0
 40
0.1301115096
 40
0.257648665
 40
0.3831777021
 40
0.5073405285
 40
0.630741326
 40
0.7538414654
 40
0.876902528
 40
1.0
 40
1.0
 40
1.0
 40
1.0
 10
467.9215932195
 20
350.8136819193
 30
0.0
 10
467.9846552743
 20
350.7772738486
 30
0.0
 10
468.1063435537
 20
350.6994333807
 30
0.0
 10
468.2747075147
 20
350.5659906812
 30
0.0
 10
468.4249064398
 20
350.4169434926
 30
0.0
 10
468.554401626
 20
350.2524207236
 30
0.0
 10
468.6601959483
 20
350.0732099772
 30
0.0
 10
468.7390136416
 20
349.8811574991
 30
0.0
 10
468.787793096
 20
349.6795248051
 30
0.0
 10
468.7988122509
 20
349.5415131765
 30
0.0
 10
468.7988122509
 20
349.4726212312
 30
0.0
  0
SPLINE
  5
37F
100
AcDbEntity
  8
0
100
AcDbSpline
 62
7
  6
CONTINUOUS
 70
0
 71
3
 72
15
 73
11
 74
0
 42
0.0000001
 43
0.0000001
 44
0.0000000001
 40
0.0
 40
0.0
 40
0.0
 40
0.0
 40
0.1247140791
 40
0.2493315952
 40
0.3740316764
 40
0.498906425
 40
0.6239761753
 40
0.749215862
 40
0.874576716
 40
1.0
 40
1.0
 40
1.0
 40
1.0
 10
439.4272994806
 20
345.5508069223
 30
0.0
 10
439.3481084446
 20
345.596526854
 30
0.0
 10
439.194745357
 20
345.696894279
 30
0.0
 10
438.9841240485
 20
345.8735381605
 30
0.0
 10
438.796871877
 20
346.0750822092
 30
0.0
 10
438.6369741253
 20
346.299414677
 30
0.0
 10
438.5081575606
 20
346.5434256885
 30
0.0
 10
438.4136490772
 20
346.803091403
 30
0.0
 10
438.3559136848
 20
347.0735549313
 30
0.0
 10
438.3429681284
 20
347.2576923485
 30
0.0
 10
438.3429681284
 20
347.3496537583
 30
0.0
  0
SPLINE
  5
380
100
AcDbEntity
  8
0
100
AcDbSpline
 62
7
  6
CONTINUOUS
 70
0
 71
3
 72
15
 73
11
 74
0
 42
0.0000001
 43
0.0000001
 44
0.0000000001
 40
0.0
 40
0.0
 40
0.0
 40
0.0
 40
0.1237026275
 40
0.2482657796
 40
0.3738069744
 40
0.5000019197
 40
0.626196568
 40
0.7517368746
 40
0.8762985623
 40
1.0
 40
1.0
 40
1.0
 40
1.0
 10
454.9866271559
 20
338.2024821899
 30
0.0
 10
454.8811367889
 20
338.1415776617
 30
0.0
 10
454.6600167579
 20
338.0350006936
 30
0.0
 10
454.308654094
 20
337.921947221
 30
0.0
 10
453.9433221511
 20
337.8544053816
 30
0.0
 10
453.5709466471
 20
337.8319479407
 30
0.0
 10
453.1985719778
 20
337.8544045132
 30
0.0
 10
452.8332424163
 20
337.9219447947
 30
0.0
 10
452.4818826746
 20
338.0349958139
 30
0.0
 10
452.2607643248
 20
338.1415701593
 30
0.0
 10
452.1552745333
 20
338.202473341
 30
0.0
  0
SPLINE
  5
381
100
AcDbEntity
  8
0
100
AcDbSpline
 62
7
  6
CONTINUOUS
 70
0
 71
3
 72
15
 73
11
 74
0
 42
0.0000001
 43
0.0000001
 44
0.0000000001
 40
0.0
 40
0.0
 40
0.0
 40
0.0
 40
0.1254222222
 40
0.2507825986
 40
0.3760223314
 40
0.5010924657
 40
0.6259677723
 40
0.7506685076
 40
0.8752863192
 40
1.0
 40
1.0
 40
1.0
 40
1.0
 10
468.7988122509
 20
347.3497149466
 30
0.0
 10
468.7988122509
 20
347.2577550537
 30
0.0
 10
468.7858671166
 20
347.0736202522
 30
0.0
 10
468.7281332041
 20
346.8031598151
 30
0.0
 10
468.6336265793
 20
346.5434958468
 30
0.0
 10
468.5048121707
 20
346.2994853918
 30
0.0
 10
468.3449162943
 20
346.0751528546
 30
0.0
 10
468.1576659945
 20
345.8736085708
 30
0.0
 10
467.9470471269
 20
345.6969645955
 30
0.0
 10
467.7936860433
 20
345.5965969492
 30
0.0
 10
467.7144962257
 20
345.5508769596
 30
0.0
  0
SPLINE
  5
382
100
AcDbEntity
  8
0
100
AcDbSpline
 62
7
  6
CONTINUOUS
 70
0
 71
3
 72
15
 73
11
 74
0
 42
0.0000001
 43
0.0000001
 44
0.0000000001
 40
0.0
 40
0.0
 40
0.0
 40
0.0
 40
0.1141543329
 40
0.2373258924
 40
0.3669759259
 40
0.5000005214
 40
0.6330250443
 40
0.762674866
 40
0.8858460918
 40
1.0
 40
1.0
 40
1.0
 40
1.0
 10
454.8436241053
 20
358.1273459815
 30
0.0
 10
454.7564913144
 20
358.1776509837
 30
0.0
 10
454.5659600281
 20
358.2663733057
 30
0.0
 10
454.2556903904
 20
358.3606756961
 30
0.0
 10
453.9197742631
 20
358.4187222904
 30
0.0
 10
453.5708297527
 20
358.4383059148
 30
0.0
 10
453.2218855211
 20
358.4187206343
 30
0.0
 10
452.885970218
 20
358.3606724449
 30
0.0
 10
452.575701916
 20
358.2663685797
 30
0.0
 10
452.385171797
 20
358.177645306
 30
0.0
 10
452.298039693
 20
358.1273398626
 30
0.0
  0
SPLINE
  5
383
100
AcDbEntity
  8
0
100
AcDbSpline
 62
7
  6
CONTINUOUS
 70
0
 71
3
 72
23
 73
19
 74
0
 42
0.0000001
 43
0.0000001
 44
0.0000000001
 40
0.0
 40
0.0
 40
0.0
 40
0.0
 40
0.0743032163
 40
0.1447501686
 40
0.2113615708
 40
0.2743213948
 40
0.3340002423
 40
0.3909688423
 40
0.4459930352
 40
0.4999990514
 40
0.5540051114
 40
0.6090294318
 40
0.6659982319
 40
0.7256773363
 40
0.7886374571
 40
0.8552491793
 40
0.9256964599
 40
1.0
 40
1.0
 40
1.0
 40
1.0
 10
467.5716097562
 20
349.309339565
 30
0.0
 10
467.6122119591
 20
349.3327811179
 30
0.0
 10
467.6894762983
 20
349.3817488647
 30
0.0
 10
467.795101037
 20
349.4635122536
 30
0.0
 10
467.8864613882
 20
349.5509591616
 30
0.0
 10
467.9626501266
 20
349.6433048238
 30
0.0
 10
468.0228832827
 20
349.7397278705
 30
0.0
 10
468.0664820527
 20
349.8393450656
 30
0.0
 10
468.0928947296
 20
349.9411861856
 30
0.0
 10
468.1017436421
 20
350.044177299
 30
0.0
 10
468.0928932303
 20
350.147168363
 30
0.0
 10
468.0664790769
 20
350.2490093386
 30
0.0
 10
468.0228788706
 20
350.3486263024
 30
0.0
 10
467.9626443309
 20
350.4450490398
 30
0.0
 10
467.8864542709
 20
350.5373943205
 30
0.0
 10
467.7950926695
 20
350.6248407793
 30
0.0
 10
467.6894667615
 20
350.7066036549
 30
0.0
 10
467.6122017068
 20
350.7555710379
 30
0.0
 10
467.5715991579
 20
350.7790124001
 30
0.0
  0
SPLINE
  5
384
100
AcDbEntity
  8
0
100
AcDbSpline
 62
7
  6
CONTINUOUS
 70
0
 71
3
 72
17
 73
13
 74
0
 42
0.0000001
 43
0.0000001
 44
0.0000000001
 40
0.0
 40
0.0
 40
0.0
 40
0.0
 40
0.1485780627
 40
0.2894462926
 40
0.422644352
 40
0.5485405846
 40
0.667876109
 40
0.781792166
 40
0.8372273647
 40
0.8919114631
 40
0.9460849218
 40
1.0
 40
1.0
 40
1.0
 40
1.0
 10
458.1671034031
 20
332.4485831911
 30
0.0
 10
458.313721104
 20
332.5332324549
 30
0.0
 10
458.5927298028
 20
332.7100591574
 30
0.0
 10
458.9741510935
 20
333.0053152543
 30
0.0
 10
459.3040624521
 20
333.3210901918
 30
0.0
 10
459.5791901759
 20
333.6545723082
 30
0.0
 10
459.796691269
 20
334.0027174692
 30
0.0
 10
459.9291165554
 20
334.3053736282
 30
0.0
 10
460.0028033451
 20
334.5500374469
 30
0.0
 10
460.0420506887
 20
334.7333106473
 30
0.0
 10
460.0656388027
 20
334.9174868348
 30
0.0
 10
460.0708901896
 20
335.0407138296
 30
0.0
 10
460.0708901897
 20
335.1021480955
 30
0.0
  0
SPLINE
  5
385
100
AcDbEntity
  8
0
100
AcDbSpline
 62
7
  6
CONTINUOUS
 70
0
 71
3
 72
15
 73
11
 74
0
 42
0.0000001
 43
0.0000001
 44
0.0000000001
 40
0.0
 40
0.0
 40
0.0
 40
0.0
 40
0.1080119531
 40
0.2180603491
 40
0.3319977005
 40
0.4513556068
 40
0.5772755493
 40
0.7104987694
 40
0.8513933373
 40
1.0
 40
1.0
 40
1.0
 40
1.0
 10
438.3429682031
 20
349.4725600428
 30
0.0
 10
438.3429682031
 20
349.4252315322
 30
0.0
 10
438.3511881272
 20
349.3294901195
 30
0.0
 10
438.3878735831
 20
349.1880766896
 30
0.0
 10
438.4484292982
 20
349.0497096676
 30
0.0
 10
438.5320881825
 20
348.9157910093
 30
0.0
 10
438.637907814
 20
348.7875320328
 30
0.0
 10
438.7647995437
 20
348.6660781709
 30
0.0
 10
438.9115027724
 20
348.5525177992
 30
0.0
 10
439.0188159004
 20
348.4845072246
 30
0.0
 10
439.0752085354
 20
348.4519496582
 30
0.0
  0
SPLINE
  5
386
100
AcDbEntity
  8
0
100
AcDbSpline
 62
7
  6
CONTINUOUS
 70
0
 71
3
 72
15
 73
11
 74
0
 42
0.0000001
 43
0.0000001
 44
0.0000000001
 40
0.0
 40
0.0
 40
0.0
 40
0.0
 40
0.1141543329
 40
0.2373258924
 40
0.3669759259
 40
0.5000005214
 40
0.6330250443
 40
0.762674866
 40
0.8858460918
 40
1.0
 40
1.0
 40
1.0
 40
1.0
 10
452.2981562741
 20
341.9609386765
 30
0.0
 10
452.385289065
 20
341.9106336743
 30
0.0
 10
452.5758203513
 20
341.8219113522
 30
0.0
 10
452.8860899889
 20
341.7276089619
 30
0.0
 10
453.2220061163
 20
341.6695623675
 30
0.0
 10
453.5709506267
 20
341.6499787431
 30
0.0
 10
453.9198948583
 20
341.6695640237
 30
0.0
 10
454.2558101614
 20
341.727612213
 30
0.0
 10
454.5660784634
 20
341.8219160783
 30
0.0
 10
454.7566085824
 20
341.9106393519
 30
0.0
 10
454.8437406864
 20
341.9609447953
 30
0.0
  0
SPLINE
  5
387
100
AcDbEntity
  8
0
100
AcDbSpline
 62
7
  6
CONTINUOUS
 70
0
 71
3
 72
15
 73
11
 74
0
 42
0.0000001
 43
0.0000001
 44
0.0000000001
 40
0.0
 40
0.0
 40
0.0
 40
0.0
 40
0.1079229287
 40
0.2180318188
 40
0.3321044475
 40
0.451602936
 40
0.5776129707
 40
0.710837122
 40
0.8516215587
 40
1.0
 40
1.0
 40
1.0
 40
1.0
 10
468.7986754936
 20
347.3346211769
 30
0.0
 10
468.7978289525
 20
347.2878814377
 30
0.0
 10
468.7880967319
 20
347.1934181814
 30
0.0
 10
468.7498569205
 20
347.0541286549
 30
0.0
 10
468.688435735
 20
346.9179054025
 30
0.0
 10
468.6045802011
 20
346.7860851578
 30
0.0
 10
468.4992007674
 20
346.6598271209
 30
0.0
 10
468.3733478168
 20
346.5402309187
 30
0.0
 10
468.2282365546
 20
346.4283423729
 30
0.0
 10
468.1222469054
 20
346.3612483817
 30
0.0
 10
468.0665865638
 20
346.3291130603
 30
0.0
  0
SPLINE
  5
388
100
AcDbEntity
  8
0
100
AcDbSpline
 62
7
  6
CONTINUOUS
 70
0
 71
3
 72
23
 73
19
 74
0
 42
0.0000001
 43
0.0000001
 44
0.0000000001
 40
0.0
 40
0.0
 40
0.0
 40
0.0
 40
0.0743032163
 40
0.1447501686
 40
0.2113615708
 40
0.2743213948
 40
0.3340002423
 40
0.3909688423
 40
0.4459930352
 40
0.4999990514
 40
0.5540051114
 40
0.6090294318
 40
0.6659982319
 40
0.7256773363
 40
0.7886374571
 40
0.8552491793
 40
0.9256964599
 40
1.0
 40
1.0
 40
1.0
 40
1.0
 10
439.5701706232
 20
350.778945093
 30
0.0
 10
439.5295684203
 20
350.7555035401
 30
0.0
 10
439.4523040811
 20
350.7065357933
 30
0.0
 10
439.3466793424
 20
350.6247724044
 30
0.0
 10
439.2553189912
 20
350.5373254963
 30
0.0
 10
439.1791302527
 20
350.4449798342
 30
0.0
 10
439.1188970966
 20
350.3485567875
 30
0.0
 10
439.0752983267
 20
350.2489395924
 30
0.0
 10
439.0488856498
 20
350.1470984723
 30
0.0
 10
439.0400367373
 20
350.0441073589
 30
0.0
 10
439.048887149
 20
349.9411162949
 30
0.0
 10
439.0753013025
 20
349.8392753194
 30
0.0
 10
439.1189015088
 20
349.7396583555
 30
0.0
 10
439.1791360485
 20
349.6432356182
 30
0.0
 10
439.2553261085
 20
349.5508903374
 30
0.0
 10
439.3466877099
 20
349.4634438786
 30
0.0
 10
439.4523136179
 20
349.3816810031
 30
0.0
 10
439.5295786726
 20
349.3327136201
 30
0.0
 10
439.5701812215
 20
349.3092722579
 30
0.0
  0
SPLINE
  5
389
100
AcDbEntity
  8
0
100
AcDbSpline
 62
7
  6
CONTINUOUS
 70
0
 71
3
 72
15
 73
11
 74
0
 42
0.0000001
 43
0.0000001
 44
0.0000000001
 40
0.0
 40
0.0
 40
0.0
 40
0.0
 40
0.1486057557
 40
0.2894992937
 40
0.4227220499
 40
0.5486419401
 40
0.6680001244
 40
0.7819380011
 40
0.891987171
 40
1.0
 40
1.0
 40
1.0
 40
1.0
 10
468.0665865638
 20
346.3291130603
 30
0.0
 10
468.0665865638
 20
346.2848332697
 30
0.0
 10
468.063020801
 20
346.1985118933
 30
0.0
 10
468.0460228517
 20
346.0735062466
 30
0.0
 10
468.0176401242
 20
345.9574838871
 30
0.0
 10
467.9780853298
 20
345.8515570389
 30
0.0
 10
467.9276627253
 20
345.7567563629
 30
0.0
 10
467.8667650734
 20
345.6740489189
 30
0.0
 10
467.7959576539
 20
345.6043627541
 30
0.0
 10
467.7423687313
 20
345.5669691419
 30
0.0
 10
467.7144961912
 20
345.5508770194
 30
0.0
  0
SPLINE
  5
38A
100
AcDbEntity
  8
0
100
AcDbSpline
 62
7
  6
CONTINUOUS
 70
0
 71
3
 72
15
 73
11
 74
0
 42
0.0000001
 43
0.0000001
 44
0.0000000001
 40
0.0
 40
0.0
 40
0.0
 40
0.0
 40
0.1486057557
 40
0.2894992937
 40
0.4227220499
 40
0.5486419401
 40
0.6680001244
 40
0.7819380011
 40
0.891987171
 40
1.0
 40
1.0
 40
1.0
 40
1.0
 10
455.338717494
 20
338.9807182906
 30
0.0
 10
455.338717494
 20
338.9364385
 30
0.0
 10
455.3351517312
 20
338.8501171236
 30
0.0
 10
455.3181537818
 20
338.7251114769
 30
0.0
 10
455.2897710543
 20
338.6090891174
 30
0.0
 10
455.2502162599
 20
338.5031622692
 30
0.0
 10
455.1997936554
 20
338.4083615932
 30
0.0
 10
455.1388960035
 20
338.3256541492
 30
0.0
 10
455.068088584
 20
338.2559679844
 30
0.0
 10
455.0144996614
 20
338.2185743722
 30
0.0
 10
454.9866271213
 20
338.2024822497
 30
0.0
  0
SPLINE
  5
38B
100
AcDbEntity
  8
0
100
AcDbSpline
 62
7
  6
CONTINUOUS
 70
0
 71
3
 72
15
 73
11
 74
0
 42
0.0000001
 43
0.0000001
 44
0.0000000001
 40
0.0
 40
0.0
 40
0.0
 40
0.0
 40
0.1486063071
 40
0.2895002428
 40
0.4227232276
 40
0.5486431699
 40
0.6680012345
 40
0.7819388391
 40
0.8919876214
 40
1.0
 40
1.0
 40
1.0
 40
1.0
 10
451.8031835881
 20
338.9807097923
 30
0.0
 10
451.8031835881
 20
338.9364297831
 30
0.0
 10
451.8067493543
 20
338.8501080181
 30
0.0
 10
451.8237473344
 20
338.7251018652
 30
0.0
 10
451.8521301142
 20
338.6090791586
 30
0.0
 10
451.8916849809
 20
338.5031521356
 30
0.0
 10
451.9421076761
 20
338.4083514686
 30
0.0
 10
452.0030054364
 20
338.3256442278
 30
0.0
 10
452.073812978
 20
338.2559584723
 30
0.0
 10
452.1274019938
 20
338.218565275
 30
0.0
 10
452.1552745678
 20
338.2024734008
 30
0.0
  0
SPLINE
  5
38C
100
AcDbEntity
  8
0
100
AcDbSpline
 62
7
  6
CONTINUOUS
 70
0
 71
3
 72
15
 73
11
 74
0
 42
0.0000001
 43
0.0000001
 44
0.0000000001
 40
0.0
 40
0.0
 40
0.0
 40
0.0
 40
0.1486063071
 40
0.2895002428
 40
0.4227232276
 40
0.5486431699
 40
0.6680012345
 40
0.7819388391
 40
0.8919876214
 40
1.0
 40
1.0
 40
1.0
 40
1.0
 10
439.0752085354
 20
346.3290433736
 30
0.0
 10
439.0752085354
 20
346.2847633644
 30
0.0
 10
439.0787743017
 20
346.1984415995
 30
0.0
 10
439.0957722817
 20
346.0734354465
 30
0.0
 10
439.1241550615
 20
345.95741274
 30
0.0
 10
439.1637099282
 20
345.851485717
 30
0.0
 10
439.2141326235
 20
345.7566850499
 30
0.0
 10
439.2750303838
 20
345.6739778091
 30
0.0
 10
439.3458379254
 20
345.6042920537
 30
0.0
 10
439.3994269412
 20
345.5668988563
 30
0.0
 10
439.4272995152
 20
345.5508069821
 30
0.0
  0
SPLINE
  5
38D
100
AcDbEntity
  8
0
100
AcDbSpline
 62
7
  6
CONTINUOUS
 70
0
 71
3
 72
31
 73
27
 74
0
 42
0.0000001
 43
0.0000001
 44
0.0000000001
 40
0.0
 40
0.0
 40
0.0
 40
0.0
 40
0.0213270467
 40
0.0428824661
 40
0.0648827065
 40
0.0875222041
 40
0.1109663316
 40
0.1353476577
 40
0.1607650101
 40
0.1872846102
 40
0.214942367
 40
0.2437467764
 40
0.2736819672
 40
0.3047106276
 40
0.3367767819
 40
0.3698082725
 40
0.43839055
 40
0.5096614989
 40
0.5826698721
 40
0.6563852971
 40
0.7297463075
 40
0.8017069466
 40
0.8712840764
 40
0.904912028
 40
0.9376305823
 40
1.0
 40
1.0
 40
1.0
 40
1.0
 10
447.0708901897
 20
335.1021480955
 30
0.0
 10
447.0708901896
 20
335.0099383795
 30
0.0
 10
447.0827913522
 20
334.8243182468
 30
0.0
 10
447.1361208542
 20
334.5481993136
 30
0.0
 10
447.2245828624
 20
334.2752814491
 30
0.0
 10
447.3475830519
 20
334.0071560455
 30
0.0
 10
447.5043430935
 20
333.7452606928
 30
0.0
 10
447.6939251203
 20
333.4909842796
 30
0.0
 10
447.9152419283
 20
333.2456492137
 30
0.0
 10
448.1670622305
 20
333.0105276613
 30
0.0
 10
448.4480096499
 20
332.7868401063
 30
0.0
 10
448.7565637132
 20
332.575753872
 30
0.0
 10
449.0910633607
 20
332.3783771614
 30
0.0
 10
449.4497081051
 20
332.1957538046
 30
0.0
 10
449.8305785362
 20
332.0288470145
 30
0.0
 10
450.3720265822
 20
331.8259491119
 30
0.0
 10
451.0915631079
 20
331.6185949454
 30
0.0
 10
451.997021843
 20
331.4472269104
 30
0.0
 10
452.9360958932
 20
331.3538413316
 30
0.0
 10
453.8886901533
 20
331.3404389701
 30
0.0
 10
454.8345232727
 20
331.4073037085
 30
0.0
 10
455.7533583774
 20
331.5530041535
 30
0.0
 10
456.4886413773
 20
331.739646887
 30
0.0
 10
457.0460056799
 20
331.9267744063
 30
0.0
 10
457.563700148
 20
332.1313754853
 30
0.0
 10
457.9335700405
 20
332.3137534462
 30
0.0
 10
458.1671034031
 20
332.4485831911
 30
0.0
  0
SPLINE
  5
38E
100
AcDbEntity
  8
0
100
AcDbSpline
 62
7
  6
CONTINUOUS
 70
0
 71
3
 72
15
 73
11
 74
0
 42
0.0000001
 43
0.0000001
 44
0.0000000001
 40
0.0
 40
0.0
 40
0.0
 40
0.0
 40
0.1486064001
 40
0.289500761
 40
0.4227238498
 40
0.5486437503
 40
0.6680017084
 40
0.7819391988
 40
0.8919878021
 40
1.0
 40
1.0
 40
1.0
 40
1.0
 10
468.0665865638
 20
348.4520193449
 30
0.0
 10
468.1229781364
 20
348.4845768401
 30
0.0
 10
468.2302892195
 20
348.5525871902
 30
0.0
 10
468.3769895628
 20
348.6661469427
 30
0.0
 10
468.5038787383
 20
348.7875999479
 30
0.0
 10
468.6096961968
 20
348.9158578592
 30
0.0
 10
468.6933533326
 20
349.0497752752
 30
0.0
 10
468.7539077626
 20
349.1881409113
 30
0.0
 10
468.7905924304
 20
349.3295528532
 30
0.0
 10
468.7988121763
 20
349.4252932243
 30
0.0
 10
468.7988121763
 20
349.4726212312
 30
0.0
  0
SPLINE
  5
38F
100
AcDbEntity
  8
0
100
AcDbSpline
 62
7
  6
CONTINUOUS
 70
0
 71
3
 72
19
 73
15
 74
0
 42
0.0000001
 43
0.0000001
 44
0.0000000001
 40
0.0
 40
0.0
 40
0.0
 40
0.0
 40
0.0558510404
 40
0.1142049343
 40
0.1748223255
 40
0.2374067976
 40
0.3670168952
 40
0.5000005205
 40
0.6329840732
 40
0.762593959
 40
0.8251782783
 40
0.8857954894
 40
0.9441491802
 40
1.0
 40
1.0
 40
1.0
 40
1.0
 10
451.8031835881
 20
341.1036160768
 30
0.0
 10
451.8624108668
 20
341.069421965
 30
0.0
 10
451.9866000627
 20
341.0047340193
 30
0.0
 10
452.1836831313
 20
340.9207027153
 30
0.0
 10
452.3940337411
 20
340.8481929074
 30
0.0
 10
452.6929249467
 20
340.7668871077
 30
0.0
 10
453.0863311656
 20
340.6989284341
 30
0.0
 10
453.5709535224
 20
340.6717264085
 30
0.0
 10
454.0555754913
 20
340.6989307343
 30
0.0
 10
454.4489808475
 20
340.766891293
 30
0.0
 10
454.7478709676
 20
340.8481985477
 30
0.0
 10
454.958220537
 20
340.9207093645
 30
0.0
 10
455.1553024005
 20
341.0047416146
 30
0.0
 10
455.2794906957
 20
341.0694301714
 30
0.0
 10
455.338717494
 20
341.1036245752
 30
0.0
  0
SPLINE
  5
390
100
AcDbEntity
  8
0
100
AcDbSpline
 62
7
  6
CONTINUOUS
 70
0
 71
3
 72
19
 73
15
 74
0
 42
0.0000001
 43
0.0000001
 44
0.0000000001
 40
0.0
 40
0.0
 40
0.0
 40
0.0
 40
0.0558508198
 40
0.1142045106
 40
0.1748217217
 40
0.237406041
 40
0.3670159268
 40
0.4999994795
 40
0.6329831048
 40
0.7625932024
 40
0.8251776745
 40
0.8857950657
 40
0.9441489596
 40
1.0
 40
1.0
 40
1.0
 40
1.0
 10
455.338717494
 20
338.9807182906
 30
0.0
 10
455.2794906957
 20
338.9465238868
 30
0.0
 10
455.1553024005
 20
338.8818353301
 30
0.0
 10
454.958220537
 20
338.7978030799
 30
0.0
 10
454.7478709676
 20
338.7252922631
 30
0.0
 10
454.4489808475
 20
338.6439850085
 30
0.0
 10
454.0555754913
 20
338.5760244498
 30
0.0
 10
453.5709535224
 20
338.5488201239
 30
0.0
 10
453.0863311656
 20
338.5760221496
 30
0.0
 10
452.6929249467
 20
338.6439808231
 30
0.0
 10
452.3940337411
 20
338.7252866228
 30
0.0
 10
452.1836831313
 20
338.7977964307
 30
0.0
 10
451.9866000627
 20
338.8818277348
 30
0.0
 10
451.8624108668
 20
338.9465156805
 30
0.0
 10
451.8031835881
 20
338.9807097923
 30
0.0
  0
SPLINE
  5
391
100
AcDbEntity
  8
0
100
AcDbSpline
 62
7
  6
CONTINUOUS
 70
0
 71
3
 72
15
 73
11
 74
0
 42
0.0000001
 43
0.0000001
 44
0.0000000001
 40
0.0
 40
0.0
 40
0.0
 40
0.0
 40
0.1486066627
 40
0.2895012306
 40
0.4227244507
 40
0.5486443932
 40
0.6680022995
 40
0.7819396509
 40
0.8919880469
 40
1.0
 40
1.0
 40
1.0
 40
1.0
 10
439.0752085354
 20
346.3290433736
 30
0.0
 10
439.0188159004
 20
346.3616009401
 30
0.0
 10
438.9115027724
 20
346.4296115147
 30
0.0
 10
438.7647995437
 20
346.5431718863
 30
0.0
 10
438.637907814
 20
346.6646257483
 30
0.0
 10
438.5320881825
 20
346.7928847247
 30
0.0
 10
438.4484292982
 20
346.9268033831
 30
0.0
 10
438.3878735831
 20
347.065170405
 30
0.0
 10
438.3511881272
 20
347.206583835
 30
0.0
 10
438.3429682031
 20
347.3023252476
 30
0.0
 10
438.3429682031
 20
347.3496537583
 30
0.0
  0
SPLINE
  5
392
100
AcDbEntity
  8
0
100
AcDbSpline
 62
7
  6
CONTINUOUS
 70
0
 71
3
 72
15
 73
11
 74
0
 42
0.0000001
 43
0.0000001
 44
0.0000000001
 40
0.0
 40
0.0
 40
0.0
 40
0.0
 40
0.1141535763
 40
0.2373245966
 40
0.3669741129
 40
0.4999983967
 40
0.6330229034
 40
0.7626730712
 40
0.8858451176
 40
1.0
 40
1.0
 40
1.0
 40
1.0
 10
452.2981562741
 20
341.9609386765
 30
0.0
 10
452.2642716241
 20
341.9413754815
 30
0.0
 10
452.1973431557
 20
341.8944592284
 30
0.0
 10
452.1052527123
 20
341.8083018636
 30
0.0
 10
452.0203862571
 20
341.7064567177
 30
0.0
 10
451.9459402622
 20
341.5927446755
 30
0.0
 10
451.8846862374
 20
341.471416033
 30
0.0
 10
451.8389192741
 20
341.3469961574
 30
0.0
 10
451.8103501094
 20
341.2241637505
 30
0.0
 10
451.8031835881
 20
341.1427430897
 30
0.0
 10
451.8031835881
 20
341.1036160768
 30
0.0
  0
SPLINE
  5
393
100
AcDbEntity
  8
0
100
AcDbSpline
 62
7
  6
CONTINUOUS
 70
0
 71
3
 72
15
 73
11
 74
0
 42
0.0000001
 43
0.0000001
 44
0.0000000001
 40
0.0
 40
0.0
 40
0.0
 40
0.0
 40
0.1141538947
 40
0.2373250972
 40
0.366974674
 40
0.499998918
 40
0.6330233125
 40
0.7626733289
 40
0.885845224
 40
1.0
 40
1.0
 40
1.0
 40
1.0
 10
454.8437406864
 20
341.9609447953
 30
0.0
 10
454.8776255922
 20
341.9413817784
 30
0.0
 10
454.9445545829
 20
341.8944658828
 30
0.0
 10
455.0366458098
 20
341.8083089579
 30
0.0
 10
455.1215129859
 20
341.7064642136
 30
0.0
 10
455.1959596127
 20
341.5927525201
 30
0.0
 10
455.2572141575
 20
341.47142416
 30
0.0
 10
455.3029815095
 20
341.3470044884
 30
0.0
 10
455.3315509166
 20
341.2241721979
 30
0.0
 10
455.338717494
 20
341.142751575
 30
0.0
 10
455.338717494
 20
341.1036245752
 30
0.0
  0
SPLINE
  5
394
100
AcDbEntity
  8
0
100
AcDbSpline
 62
7
  6
CONTINUOUS
 70
0
 71
3
 72
15
 73
11
 74
0
 42
0.0000001
 43
0.0000001
 44
0.0000000001
 40
0.0
 40
0.0
 40
0.0
 40
0.0
 40
0.1141538947
 40
0.2373250972
 40
0.366974674
 40
0.499998918
 40
0.6330233125
 40
0.7626733289
 40
0.885845224
 40
1.0
 40
1.0
 40
1.0
 40
1.0
 10
467.5716097562
 20
349.309339565
 30
0.0
 10
467.6054946621
 20
349.2897765481
 30
0.0
 10
467.6724236528
 20
349.2428606525
 30
0.0
 10
467.7645148797
 20
349.1567037276
 30
0.0
 10
467.8493820558
 20
349.0548589833
 30
0.0
 10
467.9238286826
 20
348.9411472897
 30
0.0
 10
467.9850832274
 20
348.8198189297
 30
0.0
 10
468.0308505794
 20
348.6953992581
 30
0.0
 10
468.0594199865
 20
348.5725669676
 30
0.0
 10
468.0665865638
 20
348.4911463447
 30
0.0
 10
468.0665865638
 20
348.4520193449
 30
0.0
  0
SPLINE
  5
395
100
AcDbEntity
  8
0
100
AcDbSpline
 62
7
  6
CONTINUOUS
 70
0
 71
3
 72
14
 73
10
 74
0
 42
0.0000001
 43
0.0000001
 44
0.0000000001
 40
0.0
 40
0.0
 40
0.0
 40
0.0
 40
0.2892699176
 40
0.4225358181
 40
0.5484961023
 40
0.6678926603
 40
0.781867321
 40
0.8919521273
 40
1.0
 40
1.0
 40
1.0
 40
1.0
 10
467.5715991579
 20
350.7790124001
 30
0.0
 10
467.6023245372
 20
350.7967516002
 30
0.0
 10
467.6494967505
 20
350.8192032917
 30
0.0
 10
467.7141897885
 20
350.8380669062
 30
0.0
 10
467.7601092693
 20
350.8457707105
 30
0.0
 10
467.8042934447
 20
350.8473076736
 30
0.0
 10
467.8463232723
 20
350.8426200813
 30
0.0
 10
467.8857498286
 20
350.8317180624
 30
0.0
 10
467.910116652
 20
350.8203077685
 30
0.0
 10
467.9215932195
 20
350.8136819193
 30
0.0
  0
SPLINE
  5
396
100
AcDbEntity
  8
0
100
AcDbSpline
 62
7
  6
CONTINUOUS
 70
0
 71
3
 72
14
 73
10
 74
0
 42
0.0000001
 43
0.0000001
 44
0.0000000001
 40
0.0
 40
0.0
 40
0.0
 40
0.0
 40
0.2892699176
 40
0.4225358181
 40
0.5484961023
 40
0.6678926603
 40
0.781867321
 40
0.8919521273
 40
1.0
 40
1.0
 40
1.0
 40
1.0
 10
454.8436241053
 20
358.1273459815
 30
0.0
 10
454.8743494845
 20
358.1450851816
 30
0.0
 10
454.9215216978
 20
358.1675368731
 30
0.0
 10
454.9862147358
 20
358.1864004876
 30
0.0
 10
455.0321342167
 20
358.1941042919
 30
0.0
 10
455.076318392
 20
358.195641255
 30
0.0
 10
455.1183482196
 20
358.1909536626
 30
0.0
 10
455.157774776
 20
358.1800516438
 30
0.0
 10
455.1821415994
 20
358.1686413499
 30
0.0
 10
455.1936181668
 20
358.1620155007
 30
0.0
  0
SPLINE
  5
397
100
AcDbEntity
  8
0
100
AcDbSpline
 62
7
  6
CONTINUOUS
 70
0
 71
3
 72
14
 73
10
 74
0
 42
0.0000001
 43
0.0000001
 44
0.0000000001
 40
0.0
 40
0.0
 40
0.0
 40
0.0
 40
0.2892694364
 40
0.4225352399
 40
0.5484955143
 40
0.6678921404
 40
0.7818669344
 40
0.8919519214
 40
1.0
 40
1.0
 40
1.0
 40
1.0
 10
452.298039693
 20
358.1273398626
 30
0.0
 10
452.267313878
 20
358.1450790189
 30
0.0
 10
452.2201410021
 20
358.1675305799
 30
0.0
 10
452.1554471233
 20
358.1863938668
 30
0.0
 10
452.1095270459
 20
358.1940973765
 30
0.0
 10
452.0653423179
 20
358.1956339866
 30
0.0
 10
452.0233119918
 20
358.1909459862
 30
0.0
 10
451.9838850007
 20
358.1800435093
 30
0.0
 10
451.9595179355
 20
358.16863288
 30
0.0
 10
451.9480412599
 20
358.162006858
 30
0.0
  0
SPLINE
  5
398
100
AcDbEntity
  8
0
100
AcDbSpline
 62
7
  6
CONTINUOUS
 70
0
 71
3
 72
14
 73
10
 74
0
 42
0.0000001
 43
0.0000001
 44
0.0000000001
 40
0.0
 40
0.0
 40
0.0
 40
0.0
 40
0.2892694364
 40
0.4225352399
 40
0.5484955143
 40
0.6678921404
 40
0.7818669344
 40
0.8919519214
 40
1.0
 40
1.0
 40
1.0
 40
1.0
 10
439.5701706232
 20
350.778945093
 30
0.0
 10
439.5394448081
 20
350.7966842493
 30
0.0
 10
439.4922719323
 20
350.8191358102
 30
0.0
 10
439.4275780534
 20
350.8379990971
 30
0.0
 10
439.3816579761
 20
350.8457026068
 30
0.0
 10
439.337473248
 20
350.8472392169
 30
0.0
 10
439.2954429219
 20
350.8425512165
 30
0.0
 10
439.2560159308
 20
350.8316487396
 30
0.0
 10
439.2316488657
 20
350.8202381103
 30
0.0
 10
439.2201721901
 20
350.8136120883
 30
0.0
  0
SPLINE
  5
399
100
AcDbEntity
  8
0
100
AcDbSpline
 62
7
  6
CONTINUOUS
 70
0
 71
3
 72
15
 73
11
 74
0
 42
0.0000001
 43
0.0000001
 44
0.0000000001
 40
0.0
 40
0.0
 40
0.0
 40
0.0
 40
0.1141535763
 40
0.2373245966
 40
0.3669741129
 40
0.4999983967
 40
0.6330229034
 40
0.7626730712
 40
0.8858451176
 40
1.0
 40
1.0
 40
1.0
 40
1.0
 10
439.5701812215
 20
349.3092722579
 30
0.0
 10
439.5362965715
 20
349.2897090628
 30
0.0
 10
439.469368103
 20
349.2427928097
 30
0.0
 10
439.3772776597
 20
349.1566354449
 30
0.0
 10
439.2924112045
 20
349.054790299
 30
0.0
 10
439.2179652096
 20
348.9410782569
 30
0.0
 10
439.1567111847
 20
348.8197496144
 30
0.0
 10
439.1109442215
 20
348.6953297388
 30
0.0
 10
439.0823750567
 20
348.5724973319
 30
0.0
 10
439.0752085354
 20
348.491076671
 30
0.0
 10
439.0752085354
 20
348.4519496582
 30
0.0
  0
SPLINE
  5
39A
100
AcDbEntity
  8
0
100
AcDbSpline
 62
7
  6
CONTINUOUS
 70
0
 71
3
 72
16
 73
12
 74
0
 42
0.0000001
 43
0.0000001
 44
0.0000000001
 40
0.0
 40
0.0
 40
0.0
 40
0.0
 40
0.1179740065
 40
0.2365106541
 40
0.3562619587
 40
0.4779933523
 40
0.6025288647
 40
0.7306480689
 40
0.7962799815
 40
0.8630279857
 40
1.0
 40
1.0
 40
1.0
 40
1.0
 10
502.5479398806
 20
392.7081070417
 30
0.0
 10
502.6498901186
 20
392.7669676876
 30
0.0
 10
502.8645147294
 20
392.8681495384
 30
0.0
 10
503.2078764116
 20
392.965709321
 30
0.0
 10
503.565880983
 20
393.0091771014
 30
0.0
 10
503.9321805086
 20
393.0002502442
 30
0.0
 10
504.3021433129
 20
392.9417515898
 30
0.0
 10
504.6083908732
 20
392.8548830785
 30
0.0
 10
504.8520909248
 20
392.7641662741
 30
0.0
 10
505.0989572386
 20
392.6576454433
 30
0.0
 10
505.2795544076
 20
392.5634936141
 30
0.0
 10
505.39792275
 20
392.4951551658
 30
0.0
  0
SPLINE
  5
39B
100
AcDbEntity
  8
0
100
AcDbSpline
 62
7
  6
CONTINUOUS
 70
0
 71
3
 72
16
 73
12
 74
0
 42
0.0000001
 43
0.0000001
 44
0.0000000001
 40
0.0
 40
0.0
 40
0.0
 40
0.0
 40
0.1369724832
 40
0.2037206398
 40
0.269352677
 40
0.3974720057
 40
0.5220074905
 40
0.6437387336
 40
0.763489814
 40
0.8820262126
 40
1.0
 40
1.0
 40
1.0
 40
1.0
 10
498.7617830563
 20
388.6637298514
 30
0.0
 10
498.7617830563
 20
388.8004127783
 30
0.0
 10
498.7705420449
 20
389.0038959669
 30
0.0
 10
498.8017238526
 20
389.2709562429
 30
0.0
 10
498.8450096601
 20
389.5273719421
 30
0.0
 10
498.9229024778
 20
389.8360325542
 30
0.0
 10
499.0572232751
 20
390.1856882804
 30
0.0
 10
499.2326444172
 20
390.5073846507
 30
0.0
 10
499.4492948167
 20
390.7956988581
 30
0.0
 10
499.7054705057
 20
391.0442843876
 30
0.0
 10
499.9004135989
 20
391.1795661544
 30
0.0
 10
500.0023660667
 20
391.2384280877
 30
0.0
  0
SPLINE
  5
39C
100
AcDbEntity
  8
0
100
AcDbSpline
 62
7
  6
CONTINUOUS
 70
0
 71
3
 72
23
 73
19
 74
0
 42
0.0000001
 43
0.0000001
 44
0.0000000001
 40
0.0
 40
0.0
 40
0.0
 40
0.0
 40
0.057381647
 40
0.1165948918
 40
0.1775321747
 40
0.240014998
 40
0.3038052614
 40
0.3686173393
 40
0.4341301853
 40
0.4999992702
 40
0.5658683824
 40
0.6313813088
 40
0.6961935178
 40
0.7599839594
 40
0.8224669982
 40
0.8834045232
 40
0.9426180438
 40
1.0
 40
1.0
 40
1.0
 40
1.0
 10
542.8747381828
 20
370.8583951762
 30
0.0
 10
542.9915651632
 20
370.7909466135
 30
0.0
 10
543.223211278
 20
370.6437534632
 30
0.0
 10
543.5575826746
 20
370.3933896977
 30
0.0
 10
543.8824279701
 20
370.1121139356
 30
0.0
 10
544.1955184195
 20
369.8023668896
 30
0.0
 10
544.4945866378
 20
369.4667843675
 30
0.0
 10
544.777325236
 20
369.1082373633
 30
0.0
 10
545.0414585906
 20
368.7298084491
 30
0.0
 10
545.2847895543
 20
368.3347639982
 30
0.0
 10
545.5052446614
 20
367.9265118737
 30
0.0
 10
545.7009093364
 20
367.5085516791
 30
0.0
 10
545.8700533975
 20
367.0844194005
 30
0.0
 10
546.0111450705
 20
366.6576270928
 30
0.0
 10
546.1228516751
 20
366.2316085385
 30
0.0
 10
546.204024243
 20
365.8096452581
 30
0.0
 10
546.253663438
 20
365.3948877221
 30
0.0
 10
546.2653159394
 20
365.1206784682
 30
0.0
 10
546.2653159394
 20
364.9857783269
 30
0.0
  0
SPLINE
  5
39D
100
AcDbEntity
  8
0
100
AcDbSpline
 62
7
  6
CONTINUOUS
 70
0
 71
3
 72
16
 73
12
 74
0
 42
0.0000001
 43
0.0000001
 44
0.0000000001
 40
0.0
 40
0.0
 40
0.0
 40
0.0
 40
0.1369724832
 40
0.2037206398
 40
0.269352677
 40
0.3974720057
 40
0.5220074905
 40
0.6437387336
 40
0.763489814
 40
0.8820262126
 40
1.0
 40
1.0
 40
1.0
 40
1.0
 10
546.2653159394
 20
335.5916913103
 30
0.0
 10
546.2653159394
 20
335.4550083835
 30
0.0
 10
546.2565569508
 20
335.2515251948
 30
0.0
 10
546.2253751431
 20
334.9844649188
 30
0.0
 10
546.1820893356
 20
334.7280492196
 30
0.0
 10
546.1041965179
 20
334.4193886075
 30
0.0
 10
545.9698757206
 20
334.0697328813
 30
0.0
 10
545.7944545785
 20
333.748036511
 30
0.0
 10
545.577804179
 20
333.4597223037
 30
0.0
 10
545.32162849
 20
333.2111367741
 30
0.0
 10
545.1266853968
 20
333.0758550073
 30
0.0
 10
545.024732929
 20
333.016993074
 30
0.0
  0
SPLINE
  5
39E
100
AcDbEntity
  8
0
100
AcDbSpline
 62
7
  6
CONTINUOUS
 70
0
 71
3
 72
16
 73
12
 74
0
 42
0.0000001
 43
0.0000001
 44
0.0000000001
 40
0.0
 40
0.0
 40
0.0
 40
0.0
 40
0.1179740065
 40
0.2365106541
 40
0.3562619587
 40
0.4779933523
 40
0.6025288647
 40
0.7306480689
 40
0.7962799815
 40
0.8630279857
 40
1.0
 40
1.0
 40
1.0
 40
1.0
 10
542.4791591151
 20
331.54731412
 30
0.0
 10
542.3772088771
 20
331.4884534741
 30
0.0
 10
542.1625842663
 20
331.3872716233
 30
0.0
 10
541.8192225841
 20
331.2897118407
 30
0.0
 10
541.4612180127
 20
331.2462440603
 30
0.0
 10
541.0949184871
 20
331.2551709175
 30
0.0
 10
540.7249556828
 20
331.3136695719
 30
0.0
 10
540.4187081225
 20
331.4005380832
 30
0.0
 10
540.1750080709
 20
331.4912548876
 30
0.0
 10
539.9281417571
 20
331.5977757184
 30
0.0
 10
539.7475445881
 20
331.6919275476
 30
0.0
 10
539.6291762457
 20
331.7602659959
 30
0.0
  0
SPLINE
  5
39F
100
AcDbEntity
  8
0
100
AcDbSpline
 62
7
  6
CONTINUOUS
 70
0
 71
3
 72
15
 73
11
 74
0
 42
0.0000001
 43
0.0000001
 44
0.0000000001
 40
0.0
 40
0.0
 40
0.0
 40
0.0
 40
0.1141539011
 40
0.237325134
 40
0.3669749544
 40
0.4999994786
 40
0.6330240754
 40
0.7626741076
 40
0.8858456742
 40
1.0
 40
1.0
 40
1.0
 40
1.0
 10
543.514718933
 20
333.8362438282
 30
0.0
 10
543.4808342277
 20
333.8166806012
 30
0.0
 10
543.4067391814
 20
333.7821771052
 30
0.0
 10
543.286079289
 20
333.7455033688
 30
0.0
 10
543.1554455569
 20
333.7229290688
 30
0.0
 10
543.0197450209
 20
333.7153125684
 30
0.0
 10
542.8840443765
 20
333.7229284248
 30
0.0
 10
542.7534103239
 20
333.7455021045
 30
0.0
 10
542.632749912
 20
333.7821752673
 30
0.0
 10
542.5586544117
 20
333.8166783932
 30
0.0
 10
542.5247694393
 20
333.8362414486
 30
0.0
  0
SPLINE
  5
3A0
100
AcDbEntity
  8
0
100
AcDbSpline
 62
7
  6
CONTINUOUS
 70
0
 71
3
 72
15
 73
11
 74
0
 42
0.0000001
 43
0.0000001
 44
0.0000000001
 40
0.0
 40
0.0
 40
0.0
 40
0.0
 40
0.1141539011
 40
0.237325134
 40
0.3669749544
 40
0.4999994786
 40
0.6330240754
 40
0.7626741076
 40
0.8858456742
 40
1.0
 40
1.0
 40
1.0
 40
1.0
 10
543.514718933
 20
363.2303308448
 30
0.0
 10
543.4808342277
 20
363.2107676179
 30
0.0
 10
543.4067391814
 20
363.1762641219
 30
0.0
 10
543.286079289
 20
363.1395903855
 30
0.0
 10
543.1554455569
 20
363.1170160855
 30
0.0
 10
543.0197450209
 20
363.1093995851
 30
0.0
 10
542.8840443765
 20
363.1170154414
 30
0.0
 10
542.7534103239
 20
363.1395891212
 30
0.0
 10
542.632749912
 20
363.176262284
 30
0.0
 10
542.5586544117
 20
363.2107654099
 30
0.0
 10
542.5247694393
 20
363.2303284653
 30
0.0
  0
SPLINE
  5
3A1
100
AcDbEntity
  8
0
100
AcDbSpline
 62
7
  6
CONTINUOUS
 70
0
 71
3
 72
15
 73
11
 74
0
 42
0.0000001
 43
0.0000001
 44
0.0000000001
 40
0.0
 40
0.0
 40
0.0
 40
0.0
 40
0.1141536803
 40
0.2373245991
 40
0.3669741054
 40
0.4999983967
 40
0.6330229109
 40
0.7626730686
 40
0.8858450136
 40
1.0
 40
1.0
 40
1.0
 40
1.0
 10
539.9791703073
 20
369.3540467031
 30
0.0
 10
539.9452856255
 20
369.3344834897
 30
0.0
 10
539.878357082
 20
369.2875673299
 30
0.0
 10
539.7862667639
 20
369.2014098274
 30
0.0
 10
539.7014002239
 20
369.0995647985
 30
0.0
 10
539.6269543324
 20
368.9858526807
 30
0.0
 10
539.5657001903
 20
368.8645240899
 30
0.0
 10
539.5199333708
 20
368.7401041995
 30
0.0
 10
539.4913640242
 20
368.6172718321
 30
0.0
 10
539.4841976212
 20
368.535851153
 30
0.0
 10
539.4841976212
 20
368.4967241034
 30
0.0
  0
SPLINE
  5
3A2
100
AcDbEntity
  8
0
100
AcDbSpline
 62
7
  6
CONTINUOUS
 70
0
 71
3
 72
15
 73
11
 74
0
 42
0.0000001
 43
0.0000001
 44
0.0000000001
 40
0.0
 40
0.0
 40
0.0
 40
0.0
 40
0.1141536803
 40
0.2373245991
 40
0.3669741054
 40
0.4999983967
 40
0.6330229109
 40
0.7626730686
 40
0.8858450136
 40
1.0
 40
1.0
 40
1.0
 40
1.0
 10
502.5023548745
 20
390.9908066927
 30
0.0
 10
502.4684701927
 20
390.9712434793
 30
0.0
 10
502.4015416492
 20
390.9243273195
 30
0.0
 10
502.3094513311
 20
390.838169817
 30
0.0
 10
502.2245847911
 20
390.7363247881
 30
0.0
 10
502.1501388996
 20
390.6226126703
 30
0.0
 10
502.0888847576
 20
390.5012840795
 30
0.0
 10
502.043117938
 20
390.376864189
 30
0.0
 10
502.0145485914
 20
390.2540318217
 30
0.0
 10
502.0073821884
 20
390.1726111426
 30
0.0
 10
502.0073821884
 20
390.133484093
 30
0.0
  0
SPLINE
  5
3A3
100
AcDbEntity
  8
0
100
AcDbSpline
 62
7
  6
CONTINUOUS
 70
0
 71
3
 72
14
 73
10
 74
0
 42
0.0000001
 43
0.0000001
 44
0.0000000001
 40
0.0
 40
0.0
 40
0.0
 40
0.0
 40
0.2892723177
 40
0.4225382068
 40
0.5484986507
 40
0.6678949627
 40
0.7818690972
 40
0.891953067
 40
1.0
 40
1.0
 40
1.0
 40
1.0
 10
546.060292747
 20
335.3059227821
 30
0.0
 10
546.0910184613
 20
335.3236621756
 30
0.0
 10
546.134048937
 20
335.3532885291
 30
0.0
 10
546.182732298
 20
335.3998827504
 30
0.0
 10
546.2123640177
 20
335.4357981893
 30
0.0
 10
546.2357872755
 20
335.4732942968
 30
0.0
 10
546.2527427447
 20
335.5120368511
 30
0.0
 10
546.2630143202
 20
335.5516321629
 30
0.0
 10
546.2653159393
 20
335.5784394674
 30
0.0
 10
546.2653159394
 20
335.5916913103
 30
0.0
  0
SPLINE
  5
3A4
100
AcDbEntity
  8
0
100
AcDbSpline
 62
7
  6
CONTINUOUS
 70
0
 71
3
 72
14
 73
10
 74
0
 42
0.0000001
 43
0.0000001
 44
0.0000000001
 40
0.0
 40
0.0
 40
0.0
 40
0.0
 40
0.2892723177
 40
0.4225382068
 40
0.5484986507
 40
0.6678949627
 40
0.7818690972
 40
0.891953067
 40
1.0
 40
1.0
 40
1.0
 40
1.0
 10
546.060292747
 20
364.7000097988
 30
0.0
 10
546.0910184613
 20
364.7177491923
 30
0.0
 10
546.134048937
 20
364.7473755458
 30
0.0
 10
546.182732298
 20
364.793969767
 30
0.0
 10
546.2123640177
 20
364.8298852059
 30
0.0
 10
546.2357872755
 20
364.8673813135
 30
0.0
 10
546.2527427447
 20
364.9061238678
 30
0.0
 10
546.2630143202
 20
364.9457191795
 30
0.0
 10
546.2653159393
 20
364.9725264841
 30
0.0
 10
546.2653159394
 20
364.9857783269
 30
0.0
  0
SPLINE
  5
3A5
100
AcDbEntity
  8
0
100
AcDbSpline
 62
7
  6
CONTINUOUS
 70
0
 71
3
 72
14
 73
10
 74
0
 42
0.0000001
 43
0.0000001
 44
0.0000000001
 40
0.0
 40
0.0
 40
0.0
 40
0.0
 40
0.2892703476
 40
0.4225357623
 40
0.5484960979
 40
0.6678926583
 40
0.7818673576
 40
0.891952132
 40
1.0
 40
1.0
 40
1.0
 40
1.0
 10
542.5247441212
 20
370.823725657
 30
0.0
 10
542.5554695481
 20
370.8414648846
 30
0.0
 10
542.6026417026
 20
370.8639167274
 30
0.0
 10
542.6673348037
 20
370.8827801372
 30
0.0
 10
542.7132542257
 20
370.8904839814
 30
0.0
 10
542.757438412
 20
370.8920209065
 30
0.0
 10
542.7994682627
 20
370.8873334462
 30
0.0
 10
542.8388947907
 20
370.8764312972
 30
0.0
 10
542.8632616151
 20
370.8650210256
 30
0.0
 10
542.8747381828
 20
370.8583951762
 30
0.0
  0
SPLINE
  5
3A6
100
AcDbEntity
  8
0
100
AcDbSpline
 62
7
  6
CONTINUOUS
 70
0
 71
3
 72
14
 73
10
 74
0
 42
0.0000001
 43
0.0000001
 44
0.0000000001
 40
0.0
 40
0.0
 40
0.0
 40
0.0
 40
0.2892703476
 40
0.4225357623
 40
0.5484960979
 40
0.6678926583
 40
0.7818673576
 40
0.891952132
 40
1.0
 40
1.0
 40
1.0
 40
1.0
 10
505.0479286884
 20
392.4604856466
 30
0.0
 10
505.0786541154
 20
392.4782248742
 30
0.0
 10
505.1258262698
 20
392.500676717
 30
0.0
 10
505.190519371
 20
392.5195401268
 30
0.0
 10
505.2364387929
 20
392.527243971
 30
0.0
 10
505.2806229792
 20
392.5287808961
 30
0.0
 10
505.3226528299
 20
392.5240934358
 30
0.0
 10
505.3620793579
 20
392.5131912868
 30
0.0
 10
505.3864461823
 20
392.5017810152
 30
0.0
 10
505.39792275
 20
392.4951551658
 30
0.0
  0
SPLINE
  5
3A7
100
AcDbEntity
  8
0
100
AcDbSpline
 62
7
  6
CONTINUOUS
 70
0
 71
3
 72
25
 73
21
 74
0
 42
0.0000001
 43
0.0000001
 44
0.0000000001
 40
0.0
 40
0.0
 40
0.0
 40
0.0
 40
0.0742980865
 40
0.1447409749
 40
0.2113484739
 40
0.2432790723
 40
0.2743352808
 40
0.3340109539
 40
0.3909766658
 40
0.4459981193
 40
0.5000014342
 40
0.5540046827
 40
0.6090259435
 40
0.6659913529
 40
0.7256666374
 40
0.7567226278
 40
0.7886529962
 40
0.8552600113
 40
0.9257024039
 40
1.0
 40
1.0
 40
1.0
 40
1.0
 10
498.9668103703
 20
388.3779754005
 30
0.0
 10
498.9668103703
 20
388.4899749322
 30
0.0
 10
498.9758324133
 20
388.7083185963
 30
0.0
 10
499.0188209568
 20
389.0244837794
 30
0.0
 10
499.0794930447
 20
389.2724836918
 30
0.0
 10
499.1427065613
 20
389.4574493356
 30
0.0
 10
499.2133033866
 20
389.6284511736
 30
0.0
 10
499.3182110686
 20
389.8256918644
 30
0.0
 10
499.4722231109
 20
390.0348701395
 30
0.0
 10
499.6513719724
 20
390.2111657296
 30
0.0
 10
499.8538767552
 20
390.352495169
 30
0.0
 10
500.077522019
 20
390.4572083595
 30
0.0
 10
500.3197710406
 20
390.5242116585
 30
0.0
 10
500.5779290392
 20
390.5530044388
 30
0.0
 10
500.8011970735
 20
390.5452396764
 30
0.0
 10
500.9845864471
 20
390.5208796277
 30
0.0
 10
501.1763771697
 20
390.4831435795
 30
0.0
 10
501.4214863194
 20
390.4116898719
 30
0.0
 10
501.716786659
 20
390.2908397124
 30
0.0
 10
501.9103878404
 20
390.189482539
 30
0.0
 10
502.0073821884
 20
390.133484093
 30
0.0
  0
SPLINE
  5
3A8
100
AcDbEntity
  8
0
100
AcDbSpline
 62
7
  6
CONTINUOUS
 70
0
 71
3
 72
15
 73
11
 74
0
 42
0.0000001
 43
0.0000001
 44
0.0000000001
 40
0.0
 40
0.0
 40
0.0
 40
0.0
 40
0.1080133415
 40
0.2180629282
 40
0.3320011031
 40
0.4513593899
 40
0.5772791774
 40
0.7105017179
 40
0.8513954424
 40
1.0
 40
1.0
 40
1.0
 40
1.0
 10
502.5479398806
 20
392.7081070417
 30
0.0
 10
502.6299161344
 20
392.7554357711
 30
0.0
 10
502.8039663615
 20
392.8369405143
 30
0.0
 10
503.0855881673
 20
392.9148155619
 30
0.0
 10
503.3858030254
 20
392.948301351
 30
0.0
 10
503.7014157201
 20
392.9373238287
 30
0.0
 10
504.0293858151
 20
392.882304422
 30
0.0
 10
504.3666411784
 20
392.783983181
 30
0.0
 10
504.7100352798
 20
392.6434545995
 30
0.0
 10
504.9351454391
 20
392.5255996129
 30
0.0
 10
505.0479286884
 20
392.4604856466
 30
0.0
  0
SPLINE
  5
3A9
100
AcDbEntity
  8
0
100
AcDbSpline
 62
7
  6
CONTINUOUS
 70
0
 71
3
 72
23
 73
19
 74
0
 42
0.0000001
 43
0.0000001
 44
0.0000000001
 40
0.0
 40
0.0
 40
0.0
 40
0.0
 40
0.055838262
 40
0.1141790353
 40
0.1747826265
 40
0.2373527982
 40
0.3015480288
 40
0.366991765
 40
0.4332818227
 40
0.4999992134
 40
0.5667166316
 40
0.6330067712
 40
0.6984506423
 40
0.7626460578
 40
0.8252164607
 40
0.8858203243
 40
0.9441614038
 40
1.0
 40
1.0
 40
1.0
 40
1.0
 10
539.4842118736
 20
368.496715875
 30
0.0
 10
539.5860823643
 20
368.4379022503
 30
0.0
 10
539.7892425128
 20
368.3085490059
 30
0.0
 10
540.083908626
 20
368.0872520099
 30
0.0
 10
540.3728114894
 20
367.8362873067
 30
0.0
 10
540.6531782535
 20
367.5580675112
 30
0.0
 10
540.9223490689
 20
367.255242248
 30
0.0
 10
541.1777531611
 20
366.9307055059
 30
0.0
 10
541.4169505625
 20
366.5875592111
 30
0.0
 10
541.6376533511
 20
366.2290857467
 30
0.0
 10
541.8377499395
 20
365.8587150593
 30
0.0
 10
542.0153256915
 20
365.4799908083
 30
0.0
 10
542.1686819339
 20
365.0965355848
 30
0.0
 10
542.2963522814
 20
364.7120134301
 30
0.0
 10
542.3971158772
 20
364.3300977029
 30
0.0
 10
542.470007857
 20
363.954416726
 30
0.0
 10
542.5143257104
 20
363.5885781739
 30
0.0
 10
542.5247694393
 20
363.3479584146
 30
0.0
 10
542.5247694393
 20
363.2303284653
 30
0.0
  0
SPLINE
  5
3AA
100
AcDbEntity
  8
0
100
AcDbSpline
 62
7
  6
CONTINUOUS
 70
0
 71
3
 72
15
 73
11
 74
0
 42
0.0000001
 43
0.0000001
 44
0.0000000001
 40
0.0
 40
0.0
 40
0.0
 40
0.0
 40
0.1486051025
 40
0.2894992567
 40
0.4227220695
 40
0.5486419442
 40
0.6680001235
 40
0.78193801
 40
0.8919871666
 40
1.0
 40
1.0
 40
1.0
 40
1.0
 10
546.060292747
 20
335.3059227821
 30
0.0
 10
546.060292747
 20
335.1756886729
 30
0.0
 10
546.049805204
 20
334.9218023013
 30
0.0
 10
545.9998113367
 20
334.5541385972
 30
0.0
 10
545.9163328042
 20
334.2128957372
 30
0.0
 10
545.799995031
 20
333.9013461797
 30
0.0
 10
545.6516932187
 20
333.6225207106
 30
0.0
 10
545.4725826732
 20
333.3792633418
 30
0.0
 10
545.2643252275
 20
333.1743043836
 30
0.0
 10
545.1067109937
 20
333.0643228489
 30
0.0
 10
545.024732929
 20
333.016993074
 30
0.0
  0
SPLINE
  5
3AB
100
AcDbEntity
  8
0
100
AcDbSpline
 62
7
  6
CONTINUOUS
 70
0
 71
3
 72
23
 73
19
 74
0
 42
0.0000001
 43
0.0000001
 44
0.0000000001
 40
0.0
 40
0.0
 40
0.0
 40
0.0
 40
0.0558386235
 40
0.1141797343
 40
0.174783637
 40
0.2373540827
 40
0.3015495405
 40
0.3669934544
 40
0.4332836315
 40
0.5000010794
 40
0.5667184896
 40
0.6330085542
 40
0.6984522832
 40
0.7626474872
 40
0.8252176156
 40
0.8858211446
 40
0.9441618342
 40
1.0
 40
1.0
 40
1.0
 40
1.0
 10
543.514718933
 20
363.2303308448
 30
0.0
 10
543.514718933
 20
363.3671102784
 30
0.0
 10
543.5025749805
 20
363.6469015677
 30
0.0
 10
543.4510423094
 20
364.0722965654
 30
0.0
 10
543.3662836697
 20
364.5091362744
 30
0.0
 10
543.2491159979
 20
364.9532256952
 30
0.0
 10
543.1006613087
 20
365.4003458393
 30
0.0
 10
542.9223390367
 20
365.8462252549
 30
0.0
 10
542.7158544556
 20
366.2866034472
 30
0.0
 10
542.4831828136
 20
366.7172680863
 30
0.0
 10
542.2265502636
 20
367.1340984948
 30
0.0
 10
541.9484123582
 20
367.5331064429
 30
0.0
 10
541.6514294719
 20
367.9104751706
 30
0.0
 10
541.3384386748
 20
368.2625976454
 30
0.0
 10
541.0124294415
 20
368.5861089054
 30
0.0
 10
540.6764945171
 20
368.8779277982
 30
0.0
 10
540.3338584083
 20
369.1352493755
 30
0.0
 10
540.0976244705
 20
369.2856587072
 30
0.0
 10
539.9791703073
 20
369.3540467031
 30
0.0
  0
SPLINE
  5
3AC
100
AcDbEntity
  8
0
100
AcDbSpline
 62
7
  6
CONTINUOUS
 70
0
 71
3
 72
23
 73
19
 74
0
 42
0.0000001
 43
0.0000001
 44
0.0000000001
 40
0.0
 40
0.0
 40
0.0
 40
0.0
 40
0.0558381658
 40
0.1141788554
 40
0.1747823844
 40
0.2373525128
 40
0.3015477168
 40
0.3669914458
 40
0.4332815104
 40
0.4999989206
 40
0.5667163685
 40
0.6330065456
 40
0.6984504595
 40
0.7626459173
 40
0.825216363
 40
0.8858202657
 40
0.9441613765
 40
1.0
 40
1.0
 40
1.0
 40
1.0
 10
542.5247441212
 20
370.823725657
 30
0.0
 10
542.6431982845
 20
370.7553376611
 30
0.0
 10
542.8794322222
 20
370.6049283294
 30
0.0
 10
543.2220683311
 20
370.3476067522
 30
0.0
 10
543.5580032554
 20
370.0557878593
 30
0.0
 10
543.8840124888
 20
369.7322765994
 30
0.0
 10
544.1970032859
 20
369.3801541246
 30
0.0
 10
544.4939861722
 20
369.0027853969
 30
0.0
 10
544.7721240776
 20
368.6037774487
 30
0.0
 10
545.0287566276
 20
368.1869470402
 30
0.0
 10
545.2614282696
 20
367.7562824011
 30
0.0
 10
545.4679128507
 20
367.3159042089
 30
0.0
 10
545.6462351227
 20
366.8700247932
 30
0.0
 10
545.7946898119
 20
366.4229046491
 30
0.0
 10
545.9118574837
 20
365.9788152284
 30
0.0
 10
545.9966161234
 20
365.5419755193
 30
0.0
 10
546.0481487945
 20
365.1165805216
 30
0.0
 10
546.060292747
 20
364.8367892324
 30
0.0
 10
546.060292747
 20
364.7000097988
 30
0.0
  0
SPLINE
  5
3AD
100
AcDbEntity
  8
0
100
AcDbSpline
 62
7
  6
CONTINUOUS
 70
0
 71
3
 72
15
 73
11
 74
0
 42
0.0000001
 43
0.0000001
 44
0.0000000001
 40
0.0
 40
0.0
 40
0.0
 40
0.0
 40
0.1486045576
 40
0.2894982821
 40
0.4227208226
 40
0.5486406101
 40
0.6679988969
 40
0.7819370718
 40
0.8919866585
 40
1.0
 40
1.0
 40
1.0
 40
1.0
 10
502.5023548745
 20
390.9908066927
 30
0.0
 10
502.3895716251
 20
391.055920659
 30
0.0
 10
502.1644614658
 20
391.1737756455
 30
0.0
 10
501.8210673645
 20
391.3143042271
 30
0.0
 10
501.4838120011
 20
391.4126254681
 30
0.0
 10
501.1558419062
 20
391.4676448748
 30
0.0
 10
500.8402292115
 20
391.4786223971
 30
0.0
 10
500.5400143533
 20
391.4451366079
 30
0.0
 10
500.2583925475
 20
391.3672615604
 30
0.0
 10
500.0843423205
 20
391.2857568172
 30
0.0
 10
500.0023660667
 20
391.2384280877
 30
0.0
  0
SPLINE
  5
3AE
100
AcDbEntity
  8
0
100
AcDbSpline
 62
7
  6
CONTINUOUS
 70
0
 71
3
 72
25
 73
21
 74
0
 42
0.0000001
 43
0.0000001
 44
0.0000000001
 40
0.0
 40
0.0
 40
0.0
 40
0.0
 40
0.0742982137
 40
0.1447412243
 40
0.2113488319
 40
0.2432794777
 40
0.2743357282
 40
0.3340114663
 40
0.3909772148
 40
0.4459986752
 40
0.5000019679
 40
0.5540051696
 40
0.6090263654
 40
0.6659916989
 40
0.7256669039
 40
0.756722855
 40
0.7886531852
 40
0.8552601288
 40
0.9257024581
 40
1.0
 40
1.0
 40
1.0
 40
1.0
 10
542.5247694393
 20
333.8362414486
 30
0.0
 10
542.5247694393
 20
333.7242413181
 30
0.0
 10
542.515748891
 20
333.5058964493
 30
0.0
 10
542.472761244
 20
333.1897293968
 30
0.0
 10
542.4120900017
 20
332.9417279049
 30
0.0
 10
542.3488770052
 20
332.7567610152
 30
0.0
 10
542.2782806367
 20
332.5857580102
 30
0.0
 10
542.173373414
 20
332.3885159101
 30
0.0
 10
542.0193617195
 20
332.1793360022
 30
0.0
 10
541.840213005
 20
332.0030389101
 30
0.0
 10
541.6377081718
 20
331.8617081291
 30
0.0
 10
541.4140626714
 20
331.7569937864
 30
0.0
 10
541.171813247
 20
331.689989549
 30
0.0
 10
540.9136547048
 20
331.661196058
 30
0.0
 10
540.6903861325
 20
331.6689604277
 30
0.0
 10
540.5069962917
 20
331.6933202722
 30
0.0
 10
540.3152050476
 20
331.7310561902
 30
0.0
 10
540.070095196
 20
331.8025098874
 30
0.0
 10
539.7747939928
 20
331.9233602532
 30
0.0
 10
539.581192251
 20
332.0247176906
 30
0.0
 10
539.4841976212
 20
332.0807162994
 30
0.0
  0
SPLINE
  5
3AF
100
AcDbEntity
  8
0
100
AcDbSpline
 62
7
  6
CONTINUOUS
 70
0
 71
3
 72
15
 73
11
 74
0
 42
0.0000001
 43
0.0000001
 44
0.0000000001
 40
0.0
 40
0.0
 40
0.0
 40
0.0
 40
0.1080128334
 40
0.21806199
 40
0.3319998765
 40
0.4513580558
 40
0.5772779305
 40
0.7105007433
 40
0.8513948975
 40
1.0
 40
1.0
 40
1.0
 40
1.0
 10
542.4791591151
 20
331.54731412
 30
0.0
 10
542.5611371797
 20
331.594643895
 30
0.0
 10
542.7187514135
 20
331.7046254296
 30
0.0
 10
542.9270088592
 20
331.9095843879
 30
0.0
 10
543.1061194047
 20
332.1528417567
 30
0.0
 10
543.254421217
 20
332.4316672257
 30
0.0
 10
543.3707589902
 20
332.7432167833
 30
0.0
 10
543.4542375227
 20
333.0844596433
 30
0.0
 10
543.50423139
 20
333.4521233473
 30
0.0
 10
543.514718933
 20
333.706009719
 30
0.0
 10
543.514718933
 20
333.8362438282
 30
0.0
  0
SPLINE
  5
3B0
100
AcDbEntity
  8
0
100
AcDbSpline
 62
7
  6
CONTINUOUS
 70
0
 71
3
 72
14
 73
10
 74
0
 42
0.0000001
 43
0.0000001
 44
0.0000000001
 40
0.0
 40
0.0
 40
0.0
 40
0.0
 40
0.1080471156
 40
0.2181312533
 40
0.3321055256
 40
0.4515019275
 40
0.5774623933
 40
0.7107282127
 40
1.0
 40
1.0
 40
1.0
 40
1.0
 10
539.6291762457
 20
331.7602659959
 30
0.0
 10
539.6176993024
 20
331.7668920622
 30
0.0
 10
539.5956333037
 20
331.7822893648
 30
0.0
 10
539.566477169
 20
331.8109833221
 30
0.0
 10
539.5414016366
 20
331.8450395741
 30
0.0
 10
539.5206396212
 20
331.8840740964
 30
0.0
 10
539.5043509216
 20
331.9276951646
 30
0.0
 10
539.4883399019
 20
331.9931555837
 30
0.0
 10
539.4841976212
 20
332.0452361003
 30
0.0
 10
539.4841976212
 20
332.0807162994
 30
0.0
  0
SPLINE
  5
3B1
100
AcDbEntity
  8
0
100
AcDbSpline
 62
7
  6
CONTINUOUS
 70
0
 71
3
 72
14
 73
10
 74
0
 42
0.0000001
 43
0.0000001
 44
0.0000000001
 40
0.0
 40
0.0
 40
0.0
 40
0.0
 40
0.1080466883
 40
0.218130451
 40
0.3321044467
 40
0.4515007072
 40
0.5774611934
 40
0.7107272141
 40
1.0
 40
1.0
 40
1.0
 40
1.0
 10
498.7617830563
 20
388.6637298514
 30
0.0
 10
498.7617830563
 20
388.6504778676
 30
0.0
 10
498.7640847255
 20
388.6236702714
 30
0.0
 10
498.7743565215
 20
388.5840745429
 30
0.0
 10
498.7913123506
 20
388.5453316006
 30
0.0
 10
498.814736098
 20
388.5078351452
 30
0.0
 10
498.8443684262
 20
388.471919408
 30
0.0
 10
498.8930527777
 20
388.4253248481
 30
0.0
 10
498.9360840817
 20
388.3956983734
 30
0.0
 10
498.9668103703
 20
388.3779589437
 30
0.0
  0
SPLINE
  5
3B2
100
AcDbEntity
  8
0
100
AcDbSpline
 62
7
  6
CONTINUOUS
 70
0
 71
3
 72
15
 73
11
 74
0
 42
0.0000001
 43
0.0000001
 44
0.0000000001
 40
0.0
 40
0.0
 40
0.0
 40
0.0
 40
0.1141572591
 40
0.237326463
 40
0.3669760824
 40
0.5000000322
 40
0.6330239444
 40
0.7626736016
 40
0.8858449474
 40
1.0
 40
1.0
 40
1.0
 40
1.0
 10
559.6366648435
 20
390.9089557899
 30
0.0
 10
560.0723268676
 20
390.6574189011
 30
0.0
 10
560.9328195589
 20
390.0542066051
 30
0.0
 10
562.1168162812
 20
388.9464751566
 30
0.0
 10
563.207920198
 20
387.6370606513
 30
0.0
 10
564.1650707451
 20
386.1750833125
 30
0.0
 10
564.9525965164
 20
384.615173816
 30
0.0
 10
565.5410282368
 20
383.0155312888
 30
0.0
 10
565.9083330065
 20
381.4362899289
 30
0.0
 10
566.0004848552
 20
380.3894759863
 30
0.0
 10
566.0004884777
 20
379.886422885
 30
0.0
  0
SPLINE
  5
3B3
100
AcDbEntity
  8
0
100
AcDbSpline
 62
7
  6
CONTINUOUS
 70
0
 71
3
 72
12
 73
8
 74
0
 42
0.0000001
 43
0.0000001
 44
0.0000000001
 40
0.0
 40
0.0
 40
0.0
 40
0.0
 40
0.2895793547
 40
0.5486332542
 40
0.7816354482
 40
0.8918372951
 40
1.0
 40
1.0
 40
1.0
 40
1.0
 10
566.0004973095
 20
378.6617058957
 30
0.0
 10
566.000501153
 20
378.1294989059
 30
0.0
 10
565.9198587223
 20
377.1175769625
 30
0.0
 10
565.5107309351
 20
375.7280412796
 30
0.0
 10
564.9227431314
 20
374.7693200217
 30
0.0
 10
564.3289651035
 20
374.1852990504
 30
0.0
 10
563.9979775152
 20
373.9542758099
 30
0.0
 10
563.8258216921
 20
373.8548821188
 30
0.0
  0
SPLINE
  5
3B4
100
AcDbEntity
  8
0
100
AcDbSpline
 62
7
  6
CONTINUOUS
 70
0
 71
3
 72
12
 73
8
 74
0
 42
0.0000001
 43
0.0000001
 44
0.0000000001
 40
0.0
 40
0.0
 40
0.0
 40
0.0
 40
0.1081634151
 40
0.2183659731
 40
0.4513686178
 40
0.710416042
 40
1.0
 40
1.0
 40
1.0
 40
1.0
 10
553.3258686994
 20
392.0414427378
 30
0.0
 10
553.4980188666
 20
392.1408331636
 30
0.0
 10
553.8635728157
 20
392.3119588558
 30
0.0
 10
554.666210099
 20
392.5341687094
 30
0.0
 10
555.7904245786
 20
392.5640286729
 30
0.0
 10
557.1983127421
 20
392.2236287585
 30
0.0
 10
558.1149486574
 20
391.787530529
 30
0.0
 10
558.5758451958
 20
391.5214378082
 30
0.0
  0
SPLINE
  5
3B5
100
AcDbEntity
  8
0
100
AcDbSpline
 62
7
  6
CONTINUOUS
 70
0
 71
3
 72
11
 73
7
 74
0
 42
0.0000001
 43
0.0000001
 44
0.0000000001
 40
0.0
 40
0.0
 40
0.0
 40
0.0
 40
0.2525650462
 40
0.5015826722
 40
0.7504014158
 40
1.0
 40
1.0
 40
1.0
 40
1.0
 10
381.5675218387
 20
304.565308737
 30
0.0
 10
381.5675218387
 20
304.8736339348
 30
0.0
 10
381.6263357442
 20
305.4883953158
 30
0.0
 10
381.9234045886
 20
306.3649535403
 30
0.0
 10
382.4420124947
 20
307.1301636943
 30
0.0
 10
382.9249805691
 20
307.5183687292
 30
0.0
 10
383.1888622064
 20
307.6707199541
 30
0.0
  0
SPLINE
  5
3B6
100
AcDbEntity
  8
0
100
AcDbSpline
 62
7
  6
CONTINUOUS
 70
0
 71
3
 72
11
 73
7
 74
0
 42
0.0000001
 43
0.0000001
 44
0.0000000001
 40
0.0
 40
0.0
 40
0.0
 40
0.0
 40
0.2495934811
 40
0.4984145489
 40
0.7474340368
 40
1.0
 40
1.0
 40
1.0
 40
1.0
 10
413.6447899273
 20
273.2910031987
 30
0.0
 10
413.3809188284
 20
273.1386580581
 30
0.0
 10
412.8032552987
 20
272.9145015288
 30
0.0
 10
411.8812795574
 20
272.8479772647
 30
0.0
 10
410.9736323322
 20
273.0289708956
 30
0.0
 10
410.4118328154
 20
273.2854112865
 30
0.0
 10
410.1448180865
 20
273.4395688246
 30
0.0
  0
SPLINE
  5
3B7
100
AcDbEntity
  8
0
100
AcDbSpline
 62
7
  6
CONTINUOUS
 70
0
 71
3
 72
11
 73
7
 74
0
 42
0.0000001
 43
0.0000001
 44
0.0000000001
 40
0.0
 40
0.0
 40
0.0
 40
0.0
 40
0.2177735421
 40
0.4509564835
 40
0.7101925161
 40
1.0
 40
1.0
 40
1.0
 40
1.0
 10
505.5178259557
 20
378.2969585227
 30
0.0
 10
505.6827498874
 20
378.3921768373
 30
0.0
 10
506.0617213836
 20
378.5298100385
 30
0.0
 10
506.6910779833
 20
378.5455574839
 30
0.0
 10
507.3619645316
 20
378.3838003684
 30
0.0
 10
507.7983373663
 20
378.1760496977
 30
0.0
 10
508.0178148522
 20
378.0493371788
 30
0.0
  0
SPLINE
  5
3B8
100
AcDbEntity
  8
0
100
AcDbSpline
 62
7
  6
CONTINUOUS
 70
0
 71
3
 72
11
 73
7
 74
0
 42
0.0000001
 43
0.0000001
 44
0.0000000001
 40
0.0
 40
0.0
 40
0.0
 40
0.0
 40
0.2444364484
 40
0.5000059279
 40
0.7555720129
 40
1.0
 40
1.0
 40
1.0
 40
1.0
 10
381.5675218387
 20
293.5425261057
 30
0.0
 10
381.5675218387
 20
293.0140638383
 30
0.0
 10
381.7444426882
 20
291.9302497821
 30
0.0
 10
382.4026589913
 20
290.4204527717
 30
0.0
 10
383.3810818084
 20
289.0955515445
 30
0.0
 10
384.2312194867
 20
288.4004534915
 30
0.0
 10
384.6888679812
 20
288.1362359874
 30
0.0
  0
SPLINE
  5
3B9
100
AcDbEntity
  8
0
100
AcDbSpline
 62
7
  6
CONTINUOUS
 70
0
 71
3
 72
13
 73
9
 74
0
 42
0.0000001
 43
0.0000001
 44
0.0000000001
 40
0.0
 40
0.0
 40
0.0
 40
0.0
 40
0.1142606351
 40
0.2375379002
 40
0.5000010844
 40
0.7624636751
 40
0.8857402471
 40
1.0
 40
1.0
 40
1.0
 40
1.0
 10
537.0093135832
 20
357.2289541578
 30
0.0
 10
537.0093135832
 20
357.5084422764
 30
0.0
 10
536.9581641061
 20
358.090065942
 30
0.0
 10
536.6801087863
 20
359.284080719
 30
0.0
 10
536.0344994157
 20
360.7486383805
 30
0.0
 10
535.0889550021
 20
362.0400258303
 30
0.0
 10
534.1939340536
 20
362.8778269286
 30
0.0
 10
533.7158082683
 20
363.2129294067
 30
0.0
 10
533.4737649575
 20
363.3526700161
 30
0.0
  0
SPLINE
  5
3BA
100
AcDbEntity
  8
0
100
AcDbSpline
 62
7
  6
CONTINUOUS
 70
0
 71
3
 72
11
 73
7
 74
0
 42
0.0000001
 43
0.0000001
 44
0.0000000001
 40
0.0
 40
0.0
 40
0.0
 40
0.0
 40
0.2898084714
 40
0.5490448717
 40
0.7822274137
 40
1.0
 40
1.0
 40
1.0
 40
1.0
 10
537.0093135832
 20
346.2061715266
 30
0.0
 10
537.0093135832
 20
345.9527345699
 30
0.0
 10
536.9710479914
 20
345.4709348487
 30
0.0
 10
536.7756904752
 20
344.8090313391
 30
0.0
 10
536.447368887
 20
344.2718507353
 30
0.0
 10
536.138681458
 20
344.0124623045
 30
0.0
 10
535.973753854
 20
343.9172418697
 30
0.0
  0
SPLINE
  5
3BB
100
AcDbEntity
  8
0
100
AcDbSpline
 62
7
  6
CONTINUOUS
 70
0
 71
3
 72
9
 73
5
 74
0
 42
0.0000001
 43
0.0000001
 44
0.0000000001
 40
0.0
 40
0.0
 40
0.0
 40
0.0
 40
0.2450620144
 40
1.0
 40
1.0
 40
1.0
 40
1.0
 10
558.5760353241
 20
391.5213280372
 30
0.0
 10
558.6442031389
 20
391.4819701999
 30
0.0
 10
558.9204412559
 20
391.3180421155
 30
0.0
 10
559.1889985001
 20
391.1412440661
 30
0.0
 10
559.3872549601
 20
391.0016232809
 30
0.0
  0
SPLINE
  5
3BC
100
AcDbEntity
  8
0
100
AcDbSpline
 62
7
  6
CONTINUOUS
 70
0
 71
3
 72
13
 73
9
 74
0
 42
0.0000001
 43
0.0000001
 44
0.0000000001
 40
0.0
 40
0.0
 40
0.0
 40
0.0
 40
0.1175835134
 40
0.2414636518
 40
0.4999995604
 40
0.7585356656
 40
0.8824149806
 40
1.0
 40
1.0
 40
1.0
 40
1.0
 10
559.5936952959
 20
390.852851716
 30
0.0
 10
560.0033600209
 20
390.5508764936
 30
0.0
 10
560.8059609798
 20
389.8770157213
 30
0.0
 10
562.3050156378
 20
388.3117163262
 30
0.0
 10
563.914273496
 20
386.0302915295
 30
0.0
 10
565.0853960189
 20
383.4959186732
 30
0.0
 10
565.6914648502
 20
381.4150460774
 30
0.0
 10
565.8737223496
 20
380.3830365778
 30
0.0
 10
565.9304150711
 20
379.8772631185
 30
0.0
  0
SPLINE
  5
3BD
100
AcDbEntity
  8
0
100
AcDbSpline
 62
7
  6
CONTINUOUS
 70
0
 71
3
 72
9
 73
5
 74
0
 42
0.0000001
 43
0.0000001
 44
0.0000000001
 40
0.0
 40
0.0
 40
0.0
 40
0.0
 40
0.2548341362
 40
1.0
 40
1.0
 40
1.0
 40
1.0
 10
565.9560268659
 20
379.6242231341
 30
0.0
 10
565.9633840934
 20
379.5426911365
 30
0.0
 10
565.988851851
 20
379.2224567173
 30
0.0
 10
566.0004955808
 20
378.9010840155
 30
0.0
 10
566.0004973095
 20
378.6617058957
 30
0.0
  0
SPLINE
  5
3BE
100
AcDbEntity
  8
0
100
AcDbSpline
 62
7
  6
CONTINUOUS
 70
0
 71
3
 72
11
 73
7
 74
0
 42
0.0000001
 43
0.0000001
 44
0.0000000001
 40
0.0
 40
0.0
 40
0.0
 40
0.0
 40
0.2177725864
 40
0.4509551275
 40
0.7101915275
 40
1.0
 40
1.0
 40
1.0
 40
1.0
 10
413.6447899273
 20
273.2910031987
 30
0.0
 10
413.8097175437
 20
273.3862236271
 30
0.0
 10
414.1184049987
 20
273.6456120514
 30
0.0
 10
414.4467266168
 20
274.1827926657
 30
0.0
 10
414.6420841501
 20
274.8446961986
 30
0.0
 10
414.6803497455
 20
275.3264959393
 30
0.0
 10
414.6803497452
 20
275.5799329068
 30
0.0
  0
SPLINE
  5
3BF
100
AcDbEntity
  8
0
100
AcDbSpline
 62
7
  6
CONTINUOUS
 70
0
 71
3
 72
11
 73
7
 74
0
 42
0.0000001
 43
0.0000001
 44
0.0000000001
 40
0.0
 40
0.0
 40
0.0
 40
0.0
 40
0.2177717098
 40
0.4509506052
 40
0.7102002285
 40
1.0
 40
1.0
 40
1.0
 40
1.0
 10
384.6888679812
 20
288.1362359874
 30
0.0
 10
384.6228967584
 20
288.174323623
 30
0.0
 10
384.4994219466
 20
288.2780766687
 30
0.0
 10
384.3680855187
 20
288.4929492983
 30
0.0
 10
384.2899522834
 20
288.757715268
 30
0.0
 10
384.2746433397
 20
288.9504362848
 30
0.0
 10
384.2746433397
 20
289.051808283
 30
0.0
  0
SPLINE
  5
3C0
100
AcDbEntity
  8
0
100
AcDbSpline
 62
7
  6
CONTINUOUS
 70
0
 71
3
 72
11
 73
7
 74
0
 42
0.0000001
 43
0.0000001
 44
0.0000000001
 40
0.0
 40
0.0
 40
0.0
 40
0.0
 40
0.2177717098
 40
0.4509506052
 40
0.7102002285
 40
1.0
 40
1.0
 40
1.0
 40
1.0
 10
410.1448180865
 20
273.4395688246
 30
0.0
 10
410.0788468637
 20
273.4776564603
 30
0.0
 10
409.9553720519
 20
273.581409506
 30
0.0
 10
409.824035624
 20
273.7962821356
 30
0.0
 10
409.7459023887
 20
274.0610481053
 30
0.0
 10
409.730593445
 20
274.2537691221
 30
0.0
 10
409.730593445
 20
274.3551411203
 30
0.0
  0
SPLINE
  5
3C1
100
AcDbEntity
  8
0
100
AcDbSpline
 62
7
  6
CONTINUOUS
 70
0
 71
3
 72
11
 73
7
 74
0
 42
0.0000001
 43
0.0000001
 44
0.0000000001
 40
0.0
 40
0.0
 40
0.0
 40
0.0
 40
0.2177709015
 40
0.4509493769
 40
0.7101992283
 40
1.0
 40
1.0
 40
1.0
 40
1.0
 10
381.5675218387
 20
304.565308737
 30
0.0
 10
381.5675218371
 20
304.4891342943
 30
0.0
 10
381.5956382054
 20
304.3303300023
 30
0.0
 10
381.7160548354
 20
304.1091601782
 30
0.0
 10
381.9062802845
 20
303.9091188089
 30
0.0
 10
382.0655247681
 20
303.7995045141
 30
0.0
 10
382.1533141643
 20
303.7488204292
 30
0.0
  0
SPLINE
  5
3C2
100
AcDbEntity
  8
0
100
AcDbSpline
 62
7
  6
CONTINUOUS
 70
0
 71
3
 72
11
 73
7
 74
0
 42
0.0000001
 43
0.0000001
 44
0.0000000001
 40
0.0
 40
0.0
 40
0.0
 40
0.0
 40
0.2177709015
 40
0.4509493769
 40
0.7101992283
 40
1.0
 40
1.0
 40
1.0
 40
1.0
 10
381.5675218387
 20
293.5425261057
 30
0.0
 10
381.5675218371
 20
293.4663516631
 30
0.0
 10
381.5956382054
 20
293.307547371
 30
0.0
 10
381.7160548354
 20
293.0863775469
 30
0.0
 10
381.9062802845
 20
292.8863361777
 30
0.0
 10
382.0655247681
 20
292.7767218828
 30
0.0
 10
382.1533141643
 20
292.726037798
 30
0.0
  0
SPLINE
  5
3C3
100
AcDbEntity
  8
0
100
AcDbSpline
 62
7
  6
CONTINUOUS
 70
0
 71
3
 72
11
 73
7
 74
0
 42
0.0000001
 43
0.0000001
 44
0.0000000001
 40
0.0
 40
0.0
 40
0.0
 40
0.0
 40
0.237214309
 40
0.4999989076
 40
0.7627841063
 40
1.0
 40
1.0
 40
1.0
 40
1.0
 10
409.730593445
 20
290.2769382543
 30
0.0
 10
410.0317302548
 20
290.1030807693
 30
0.0
 10
410.6016596653
 20
289.6234328711
 30
0.0
 10
411.2668700865
 20
288.7144245901
 30
0.0
 10
411.7214947449
 20
287.6838312466
 30
0.0
 10
411.8519226205
 20
286.9504319321
 30
0.0
 10
411.8519226205
 20
286.6027087394
 30
0.0
  0
SPLINE
  5
3C4
100
AcDbEntity
  8
0
100
AcDbSpline
 62
7
  6
CONTINUOUS
 70
0
 71
3
 72
15
 73
11
 74
0
 42
0.0000001
 43
0.0000001
 44
0.0000000001
 40
0.0
 40
0.0
 40
0.0
 40
0.0
 40
0.1449040405
 40
0.2745209626
 40
0.3911149604
 40
0.5000019843
 40
0.6088886469
 40
0.7254816825
 40
0.855097315
 40
1.0
 40
1.0
 40
1.0
 40
1.0
 10
411.8519226205
 20
275.5799261081
 30
0.0
 10
411.8519226205
 20
275.4278663814
 30
0.0
 10
411.8289459578
 20
275.1387802645
 30
0.0
 10
411.7118120164
 20
274.7416900162
 30
0.0
 10
411.5145733983
 20
274.4192338108
 30
0.0
 10
411.2407773195
 20
274.1889489013
 30
0.0
 10
410.9044506528
 20
274.0669688103
 30
0.0
 10
410.5265788551
 20
274.0573755087
 30
0.0
 10
410.1241237213
 20
274.154472649
 30
0.0
 10
409.8622805441
 20
274.2791132581
 30
0.0
 10
409.730593445
 20
274.3551411203
 30
0.0
  0
SPLINE
  5
3C5
100
AcDbEntity
  8
0
100
AcDbSpline
 62
7
  6
CONTINUOUS
 70
0
 71
3
 72
11
 73
7
 74
0
 42
0.0000001
 43
0.0000001
 44
0.0000000001
 40
0.0
 40
0.0
 40
0.0
 40
0.0
 40
0.237214309
 40
0.4999989076
 40
0.7627841063
 40
1.0
 40
1.0
 40
1.0
 40
1.0
 10
384.2746433397
 20
289.051808283
 30
0.0
 10
383.97350653
 20
289.225665768
 30
0.0
 10
383.4035771195
 20
289.7053136662
 30
0.0
 10
382.7383666983
 20
290.6143219472
 30
0.0
 10
382.2837420399
 20
291.6449152907
 30
0.0
 10
382.1533141643
 20
292.3783146052
 30
0.0
 10
382.1533141643
 20
292.726037798
 30
0.0
  0
SPLINE
  5
3C6
100
AcDbEntity
  8
0
100
AcDbSpline
 62
7
  6
CONTINUOUS
 70
0
 71
3
 72
15
 73
11
 74
0
 42
0.0000001
 43
0.0000001
 44
0.0000000001
 40
0.0
 40
0.0
 40
0.0
 40
0.0
 40
0.1449042791
 40
0.274521506
 40
0.3911158226
 40
0.5000030783
 40
0.6088897718
 40
0.7254825999
 40
0.855097842
 40
1.0
 40
1.0
 40
1.0
 40
1.0
 10
382.1533141643
 20
303.7488204292
 30
0.0
 10
382.1533141643
 20
303.9008792881
 30
0.0
 10
382.1762905756
 20
304.1899638359
 30
0.0
 10
382.293423126
 20
304.5870522149
 30
0.0
 10
382.4906593446
 20
304.9095075691
 30
0.0
 10
382.7644521323
 20
305.1397931262
 30
0.0
 10
383.1007751595
 20
305.2617754175
 30
0.0
 10
383.4786435735
 20
305.2713727019
 30
0.0
 10
383.8810951227
 20
305.1742794006
 30
0.0
 10
384.142937531
 20
305.049644081
 30
0.0
 10
384.2746231828
 20
304.9736170544
 30
0.0
  0
SPLINE
  5
3C7
100
AcDbEntity
  8
0
100
AcDbSpline
 62
7
  6
CONTINUOUS
 70
0
 71
3
 72
11
 73
7
 74
0
 42
0.0000001
 43
0.0000001
 44
0.0000000001
 40
0.0
 40
0.0
 40
0.0
 40
0.0
 40
0.237217269
 40
0.4999983813
 40
0.7627803743
 40
1.0
 40
1.0
 40
1.0
 40
1.0
 10
411.1448011099
 20
292.7264314019
 30
0.0
 10
410.9440415215
 20
292.6105234914
 30
0.0
 10
410.5640888389
 20
292.2907583547
 30
0.0
 10
410.1206232919
 20
291.6847513339
 30
0.0
 10
409.8175412395
 20
290.997691693
 30
0.0
 10
409.730593445
 20
290.5087574162
 30
0.0
 10
409.730593445
 20
290.2769382543
 30
0.0
  0
SPLINE
  5
3C8
100
AcDbEntity
  8
0
100
AcDbSpline
 62
7
  6
CONTINUOUS
 70
0
 71
3
 72
11
 73
7
 74
0
 42
0.0000001
 43
0.0000001
 44
0.0000000001
 40
0.0
 40
0.0
 40
0.0
 40
0.0
 40
0.2372172711
 40
0.4999983826
 40
0.7627803749
 40
1.0
 40
1.0
 40
1.0
 40
1.0
 10
385.6888510238
 20
307.4230985535
 30
0.0
 10
385.4880914332
 20
307.3071906417
 30
0.0
 10
385.1081387286
 20
306.9874255278
 30
0.0
 10
384.6646731885
 20
306.3814184943
 30
0.0
 10
384.3615911338
 20
305.6943588563
 30
0.0
 10
384.2746433397
 20
305.2054245789
 30
0.0
 10
384.2746433397
 20
304.973605417
 30
0.0
  0
SPLINE
  5
3C9
100
AcDbEntity
  8
0
100
AcDbSpline
 62
7
  6
CONTINUOUS
 70
0
 71
3
 72
11
 73
7
 74
0
 42
0.0000001
 43
0.0000001
 44
0.0000000001
 40
0.0
 40
0.0
 40
0.0
 40
0.0
 40
0.2372178126
 40
0.4999994731
 40
0.76278142
 40
1.0
 40
1.0
 40
1.0
 40
1.0
 10
414.6803497452
 20
286.6027155263
 30
0.0
 10
414.4795899338
 20
286.486807487
 30
0.0
 10
414.0126883352
 20
286.3176422812
 30
0.0
 10
413.2661384069
 20
286.2365911045
 30
0.0
 10
412.5195873474
 20
286.3176388697
 30
0.0
 10
412.0526839172
 20
286.4868017728
 30
0.0
 10
411.8519226205
 20
286.6027087394
 30
0.0
  0
SPLINE
  5
3CA
100
AcDbEntity
  8
0
100
AcDbSpline
 62
7
  6
CONTINUOUS
 70
0
 71
3
 72
11
 73
7
 74
0
 42
0.0000001
 43
0.0000001
 44
0.0000000001
 40
0.0
 40
0.0
 40
0.0
 40
0.0
 40
0.2372178148
 40
0.4999994746
 40
0.7627814207
 40
1.0
 40
1.0
 40
1.0
 40
1.0
 10
414.6803497452
 20
275.5799329185
 30
0.0
 10
414.4795899313
 20
275.4640248778
 30
0.0
 10
414.0126883421
 20
275.2948596399
 30
0.0
 10
413.2661384057
 20
275.2138084761
 30
0.0
 10
412.5195873477
 20
275.2948562377
 30
0.0
 10
412.0526839172
 20
275.4640191416
 30
0.0
 10
411.8519226205
 20
275.5799261081
 30
0.0
  0
SPLINE
  5
3CB
100
AcDbEntity
  8
0
100
AcDbSpline
 62
7
  6
CONTINUOUS
 70
0
 71
3
 72
13
 73
9
 74
0
 42
0.0000001
 43
0.0000001
 44
0.0000000001
 40
0.0
 40
0.0
 40
0.0
 40
0.0
 40
0.1142606351
 40
0.2375379002
 40
0.5000010844
 40
0.7624636751
 40
0.8857402471
 40
1.0
 40
1.0
 40
1.0
 40
1.0
 10
414.6803497452
 20
286.6027155381
 30
0.0
 10
414.6803497455
 20
286.8822036567
 30
0.0
 10
414.6292002679
 20
287.4638273222
 30
0.0
 10
414.3511449484
 20
288.6578420992
 30
0.0
 10
413.7055355776
 20
290.1223997607
 30
0.0
 10
412.7599911642
 20
291.4137872106
 30
0.0
 10
411.8649702155
 20
292.2515883087
 30
0.0
 10
411.3868444305
 20
292.5866907872
 30
0.0
 10
411.1448011195
 20
292.7264313963
 30
0.0
  0
SPLINE
  5
3CC
100
AcDbEntity
  8
0
100
AcDbSpline
 62
7
  6
CONTINUOUS
 70
0
 71
3
 72
11
 73
7
 74
0
 42
0.0000001
 43
0.0000001
 44
0.0000000001
 40
0.0
 40
0.0
 40
0.0
 40
0.0
 40
0.2898074827
 40
0.5490435157
 40
0.782226458
 40
1.0
 40
1.0
 40
1.0
 40
1.0
 10
385.6888510142
 20
307.4230985591
 30
0.0
 10
385.4693735378
 20
307.5498110728
 30
0.0
 10
385.0330007213
 20
307.757561736
 30
0.0
 10
384.362114202
 20
307.9193188551
 30
0.0
 10
383.7327576263
 20
307.9035714302
 30
0.0
 10
383.3537861375
 20
307.7659382549
 30
0.0
 10
383.1888622064
 20
307.6707199541
 30
0.0
  0
ENDSEC
  0
SECTION
  2
OBJECTS
  0
DICTIONARY
  5
C
100
AcDbDictionary
280
0
281
1
  3
ACAD_GROUP
350
D
  3
ACAD_MLINESTYLE
350
17
  3
ACAD_LAYOUT
350
1A
  3
ACAD_PLOTSETTINGS
350
19
  3
ACAD_PLOTSTYLENAME
350
E
  0
DICTIONARY
  5
D
102
{ACAD_REACTORS
330
C
102
}
100
AcDbDictionary
280
0
281
1
  0
ACDBDICTIONARYWDFLT
  5
E
102
{ACAD_REACTORS
330
C
102
}
100
AcDbDictionary
281
1
  3
Normal
350
F
100
AcDbDictionaryWithDefault
340
F
  0
DICTIONARY
  5
17
102
{ACAD_REACTORS
330
C
102
}
100
AcDbDictionary
280
0
281
1
  3
Standard
350
18
  0
DICTIONARY
  5
19
102
{ACAD_REACTORS
330
C
102
}
100
AcDbDictionary
281
1
  0
DICTIONARY
  5
1A
102
{ACAD_REACTORS
330
C
102
}
100
AcDbDictionary
281
1
  3
Model
350
3CD
  3
Layout1
350
3CE
  0
ACDBPLACEHOLDER
  5
F
102
{ACAD_REACTORS
330
E
102
}
  0
MLINESTYLE
  5
18
102
{ACAD_REACTORS
330
17
102
}
100
AcDbMlineStyle
  2
STANDARD
 70
0
  3

 62
256
 51
90.0
 52
90.0
 71
2
 49
0.5
 62
256
  6
BYLAYER
 49
-0.5
 62
256
  6
BYLAYER
  0
LAYOUT
  5
3CD
102
{ACAD_REACTORS
330
1A
102
}
100
AcDbPlotSettings
  1

  2
none_device
  4
ISO_A2_(594.00_x_420.00_MM)
  6

 40
0.0
 41
0.0
 42
0.0
 43
0.0
 44
594.0
 45
420.0
 46
0.0
 47
0.0
 48
0.0
 49
0.0
140
0.0
141
0.0
142
1.0
143
1.0
 70
1024
 72
1
 73
0
 74
0
  7

 75
0
147
1.0
148
0.0
149
0.0
100
AcDbLayout
  1
Model
 70
0
 71
0
 10
0.0
 20
0.0
 11
594.0
 21
420.0
 12
0.0
 22
0.0
 32
0.0
 14
0.0
 24
0.0
 34
0.0
 15
0.0
 25
0.0
 35
0.0
146
0.0
 13
0.0
 23
0.0
 33
0.0
 16
1.0
 26
0.0
 36
0.0
 17
0.0
 27
1.0
 37
0.0
 76
0
330
214
345
0
346
0
  0
LAYOUT
  5
3CE
102
{ACAD_REACTORS
330
1A
102
}
100
AcDbPlotSettings
  1

  2
none_device
  4
ISO_A2_(594.00_x_420.00_MM)
  6

 40
0.0
 41
0.0
 42
0.0
 43
0.0
 44
594.0
 45
420.0
 46
0.0
 47
0.0
 48
0.0
 49
0.0
140
0.0
141
0.0
142
1.0
143
1.0
 70
0
 72
1
 73
0
 74
0
  7

 75
0
147
1.0
148
0.0
149
0.0
100
AcDbLayout
  1
Layout1
 70
0
 71
1
 10
0.0
 20
0.0
 11
594.0
 21
420.0
 12
0.0
 22
0.0
 32
0.0
 14
0.0
 24
0.0
 34
0.0
 15
0.0
 25
0.0
 35
0.0
146
0.0
 13
0.0
 23
0.0
 33
0.0
 16
1.0
 26
0.0
 36
0.0
 17
0.0
 27
1.0
 37
0.0
 76
0
330
215
345
0
346
0
  0
ENDSEC
  0
EOF
