999
DXF file: 37334in-4_2D.dxf
999
Pro/ENGINEER 2012070 by Parametric Technology Corporation
  0
SECTION
  2
HEADER
  9
$ACADVER
  1
AC1021
  9
$DWGCODEPAGE
  3
ANSI_1252
  9
$EXTMAX
 10
841.0
 20
594.0
 30
0.0
  9
$EXTMIN
 10
0.0
 20
0.0
 30
0.0
  9
$LIMMIN
 10
0.0
 20
0.0
  9
$LIMMAX
 10
841.0
 20
594.0
  9
$VIEWCTR
 10
420.5
 20
297.0
  9
$VIEWSIZE
 40
594.0
  9
$CLAYER
  8
0
  9
$LTSCALE
 40
46.255
  9
$CELTYPE
  6
BYLAYER
  9
$DIMSCALE
 40
1.0
  9
$DIMASZ
 40
3.5
  9
$DIMEXO
 40
1.0
  9
$DIMDLI
 40
31.958
  9
$DIMEXE
 40
1.5
  9
$DIMCEN
 40
7.569
  9
$DIMLFAC
 40
1.0
  9
$DIMBLK
  1
_FILLED
  9
$DIMTXT
 40
3.5
  9
$DIMTOL
 70
1
  9
$DIMLIM
 70
0
  9
$DIMTFAC
 40
1.0
  9
$DIMTP
 40
0.01
  9
$DIMTM
 40
0.01
  9
$DIMGAP
 40
0.625
  9
$DIMDSEP
 70
46
  9
$PDMODE
 70
3
  9
$PDSIZE
 40
0.3125
  9
$HANDSEED
  5
51E
  9
$TILEMODE
 70
1
  9
$MEASUREMENT
 70
1
  9
$INSUNITS
 70
4
  0
ENDSEC
  0
SECTION
  2
CLASSES
  0
CLASS
  1
ACDBDICTIONARYWDFLT
  2
AcDbDictionaryWithDefault
  3
AutoCAD 2000
 90
0
 91
1
280
0
281
0
  0
CLASS
  1
ACDBPLACEHOLDER
  2
AcDbPlaceHolder
  3
AutoCAD 2000
 90
0
 91
1
280
0
281
0
  0
CLASS
  1
LAYOUT
  2
AcDbLayout
  3
AutoCAD 2000
 90
0
 91
0
280
0
281
0
  0
ENDSEC
  0
SECTION
  2
TABLES
  0
TABLE
  2
VPORT
  5
8
100
AcDbSymbolTable
 70
2
  0
VPORT
  5
1F4
100
AcDbSymbolTableRecord
100
AcDbViewportTableRecord
  2
*ACTIVE
 70
0
 10
0.0
 20
0.0
 11
1.0
 21
1.0
 12
420.5
 22
297.0
 13
0.0
 23
0.0
 14
1.0
 24
1.0
 15
0.0
 25
0.0
 16
0.0
 26
0.0
 36
1.0
 17
0.0
 27
0.0
 37
0.0
 40
594.0
 41
1.4158249158
 42
50.0
 43
0.0
 44
0.0
 50
0.0
 51
0.0
 71
0
 72
100
 73
1
 74
1
 75
0
 76
0
 77
0
 78
0
  0
ENDTAB
  0
TABLE
  2
LTYPE
  5
5
100
AcDbSymbolTable
 70
6
  0
LTYPE
  5
14
100
AcDbSymbolTableRecord
100
AcDbLinetypeTableRecord
  2
BYBLOCK
 70
0
  3

 72
65
 73
0
 40
0.0
  0
LTYPE
  5
15
100
AcDbSymbolTableRecord
100
AcDbLinetypeTableRecord
  2
BYLAYER
 70
0
  3

 72
65
 73
0
 40
0.0
  0
LTYPE
  5
16
100
AcDbSymbolTableRecord
100
AcDbLinetypeTableRecord
  2
CONTINUOUS
 70
64
  3
Solid line
 72
65
 73
0
 40
0.0
  0
LTYPE
  5
1F5
100
AcDbSymbolTableRecord
100
AcDbLinetypeTableRecord
  2
CENTER
 70
64
  3
____ _ ____ _ ____ _ ____ _ ____ _ ____ _ ____
 72
65
 73
4
 40
0.6
 49
0.375
 74
0
 49
-0.075
 74
0
 49
0.075
 74
0
 49
-0.075
 74
0
  0
LTYPE
  5
1F6
100
AcDbSymbolTableRecord
100
AcDbLinetypeTableRecord
  2
HIDDEN
 70
64
  3
- - - - - - - - - - - - - - - - - - - -
 72
65
 73
2
 40
0.2
 49
0.1
 74
0
 49
-0.1
 74
0
  0
LTYPE
  5
1F7
100
AcDbSymbolTableRecord
100
AcDbLinetypeTableRecord
  2
PHANTOM
 70
64
  3
_____ _ _ _____ _ _ _____ _ _ _____
 72
65
 73
6
 40
0.8
 49
0.45
 74
0
 49
-0.05
 74
0
 49
0.1
 74
0
 49
-0.05
 74
0
 49
0.1
 74
0
 49
-0.05
 74
0
  0
LTYPE
  5
1F8
100
AcDbSymbolTableRecord
100
AcDbLinetypeTableRecord
  2
DOT
 70
64
  3
. . . . . . . . . . . . . . . . . . . .
 72
65
 73
2
 40
0.2
 49
0.1
 74
0
 49
-0.1
 74
0
  0
LTYPE
  5
1F9
100
AcDbSymbolTableRecord
100
AcDbLinetypeTableRecord
  2
DASHED
 70
64
  3
- - - - - - - - - - - - - - - - - - - -
 72
65
 73
2
 40
0.2
 49
0.1
 74
0
 49
-0.1
 74
0
  0
ENDTAB
  0
TABLE
  2
LAYER
  5
2
100
AcDbSymbolTable
 70
36
  0
LAYER
  5
10
100
AcDbSymbolTableRecord
100
AcDbLayerTableRecord
  2
0
 70
0
 62
7
  6
CONTINUOUS
370
-3
390
F
  0
LAYER
  5
1FA
100
AcDbSymbolTableRecord
100
AcDbLayerTableRecord
  2
DEFAULT_1
 70
0
 62
7
  6
CENTER
370
-3
390
F
  0
LAYER
  5
1FB
100
AcDbSymbolTableRecord
100
AcDbLayerTableRecord
  2
DEFAULT_2
 70
0
 62
8
  6
HIDDEN
370
-3
390
F
  0
LAYER
  5
1FC
100
AcDbSymbolTableRecord
100
AcDbLayerTableRecord
  2
DEFAULT_3
 70
0
 62
7
  6
PHANTOM
370
-3
390
F
  0
LAYER
  5
1FD
100
AcDbSymbolTableRecord
100
AcDbLayerTableRecord
  2
01_ALL_DTM_PLN
 70
0
 62
7
  6
CONTINUOUS
370
-3
390
F
  0
LAYER
  5
1FE
100
AcDbSymbolTableRecord
100
AcDbLayerTableRecord
  2
01_ALL_PLANES
 70
0
 62
7
  6
CONTINUOUS
370
-3
390
F
  0
LAYER
  5
1FF
100
AcDbSymbolTableRecord
100
AcDbLayerTableRecord
  2
01__ASM_ALL_DTM_PLN
 70
0
 62
7
  6
CONTINUOUS
370
-3
390
F
  0
LAYER
  5
200
100
AcDbSymbolTableRecord
100
AcDbLayerTableRecord
  2
01__ASM_DEF_DTM_PLN
 70
0
 62
7
  6
CONTINUOUS
370
-3
390
F
  0
LAYER
  5
201
100
AcDbSymbolTableRecord
100
AcDbLayerTableRecord
  2
01___PRT_ALL_DTM_PLN
 70
0
 62
7
  6
CONTINUOUS
370
-3
390
F
  0
LAYER
  5
202
100
AcDbSymbolTableRecord
100
AcDbLayerTableRecord
  2
01___PRT_DEF_DTM_PLN
 70
0
 62
7
  6
CONTINUOUS
370
-3
390
F
  0
LAYER
  5
203
100
AcDbSymbolTableRecord
100
AcDbLayerTableRecord
  2
02_ALL_AXES
 70
0
 62
7
  6
CONTINUOUS
370
-3
390
F
  0
LAYER
  5
204
100
AcDbSymbolTableRecord
100
AcDbLayerTableRecord
  2
02_ALL_CSYS
 70
0
 62
7
  6
CONTINUOUS
370
-3
390
F
  0
LAYER
  5
205
100
AcDbSymbolTableRecord
100
AcDbLayerTableRecord
  2
02__ASM_ALL_AXES
 70
0
 62
7
  6
CONTINUOUS
370
-3
390
F
  0
LAYER
  5
206
100
AcDbSymbolTableRecord
100
AcDbLayerTableRecord
  2
02___PRT_ALL_AXES
 70
0
 62
7
  6
CONTINUOUS
370
-3
390
F
  0
LAYER
  5
207
100
AcDbSymbolTableRecord
100
AcDbLayerTableRecord
  2
03_ALL_CURVES
 70
0
 62
7
  6
CONTINUOUS
370
-3
390
F
  0
LAYER
  5
208
100
AcDbSymbolTableRecord
100
AcDbLayerTableRecord
  2
03__ASM_ALL_CURVES
 70
0
 62
7
  6
CONTINUOUS
370
-3
390
F
  0
LAYER
  5
209
100
AcDbSymbolTableRecord
100
AcDbLayerTableRecord
  2
03___PRT_ALL_CURVES
 70
0
 62
7
  6
CONTINUOUS
370
-3
390
F
  0
LAYER
  5
20A
100
AcDbSymbolTableRecord
100
AcDbLayerTableRecord
  2
04_ALL_DTM_PNT
 70
0
 62
7
  6
CONTINUOUS
370
-3
390
F
  0
LAYER
  5
20B
100
AcDbSymbolTableRecord
100
AcDbLayerTableRecord
  2
04__ASM_ALL_DTM_PNT
 70
0
 62
7
  6
CONTINUOUS
370
-3
390
F
  0
LAYER
  5
20C
100
AcDbSymbolTableRecord
100
AcDbLayerTableRecord
  2
04___PRT_ALL_DTM_PNT
 70
0
 62
7
  6
CONTINUOUS
370
-3
390
F
  0
LAYER
  5
20D
100
AcDbSymbolTableRecord
100
AcDbLayerTableRecord
  2
05_ALL_DTM_CSYS
 70
0
 62
7
  6
CONTINUOUS
370
-3
390
F
  0
LAYER
  5
20E
100
AcDbSymbolTableRecord
100
AcDbLayerTableRecord
  2
05__ASM_ALL_DTM_CSYS
 70
0
 62
7
  6
CONTINUOUS
370
-3
390
F
  0
LAYER
  5
20F
100
AcDbSymbolTableRecord
100
AcDbLayerTableRecord
  2
05__ASM_DEF_DTM_CSYS
 70
0
 62
7
  6
CONTINUOUS
370
-3
390
F
  0
LAYER
  5
210
100
AcDbSymbolTableRecord
100
AcDbLayerTableRecord
  2
05___PRT_ALL_DTM_CSYS
 70
0
 62
7
  6
CONTINUOUS
370
-3
390
F
  0
LAYER
  5
211
100
AcDbSymbolTableRecord
100
AcDbLayerTableRecord
  2
05___PRT_DEF_DTM_CSYS
 70
0
 62
7
  6
CONTINUOUS
370
-3
390
F
  0
LAYER
  5
212
100
AcDbSymbolTableRecord
100
AcDbLayerTableRecord
  2
06_ALL_SURFS
 70
0
 62
7
  6
CONTINUOUS
370
-3
390
F
  0
LAYER
  5
213
100
AcDbSymbolTableRecord
100
AcDbLayerTableRecord
  2
06__ASM_ALL_SURFS
 70
0
 62
7
  6
CONTINUOUS
370
-3
390
F
  0
LAYER
  5
214
100
AcDbSymbolTableRecord
100
AcDbLayerTableRecord
  2
06___PRT_ALL_SURFS
 70
0
 62
7
  6
CONTINUOUS
370
-3
390
F
  0
LAYER
  5
215
100
AcDbSymbolTableRecord
100
AcDbLayerTableRecord
  2
07__ASM_ALL_SKELETONS
 70
0
 62
7
  6
CONTINUOUS
370
-3
390
F
  0
LAYER
  5
216
100
AcDbSymbolTableRecord
100
AcDbLayerTableRecord
  2
20_ALL_FEATURES
 70
0
 62
7
  6
CONTINUOUS
370
-3
390
F
  0
LAYER
  5
217
100
AcDbSymbolTableRecord
100
AcDbLayerTableRecord
  2
AXES_REF
 70
0
 62
7
  6
CONTINUOUS
370
-3
390
F
  0
LAYER
  5
218
100
AcDbSymbolTableRecord
100
AcDbLayerTableRecord
  2
DATUMS
 70
0
 62
7
  6
CONTINUOUS
370
-3
390
F
  0
LAYER
  5
219
100
AcDbSymbolTableRecord
100
AcDbLayerTableRecord
  2
DATUM_AXIS
 70
0
 62
7
  6
CONTINUOUS
370
-3
390
F
  0
LAYER
  5
21A
100
AcDbSymbolTableRecord
100
AcDbLayerTableRecord
  2
DATUM_CSYS
 70
0
 62
7
  6
CONTINUOUS
370
-3
390
F
  0
LAYER
  5
21B
100
AcDbSymbolTableRecord
100
AcDbLayerTableRecord
  2
DATUM_PLANE
 70
0
 62
7
  6
CONTINUOUS
370
-3
390
F
  0
LAYER
  5
21C
100
AcDbSymbolTableRecord
100
AcDbLayerTableRecord
  2
DATUM_POINT
 70
0
 62
7
  6
CONTINUOUS
370
-3
390
F
  0
LAYER
  5
21D
100
AcDbSymbolTableRecord
100
AcDbLayerTableRecord
  2
PLAN_REF
 70
0
 62
7
  6
CONTINUOUS
370
-3
390
F
  0
LAYER
  5
21E
100
AcDbSymbolTableRecord
100
AcDbLayerTableRecord
  2
POINT_REF
 70
0
 62
7
  6
CONTINUOUS
370
-3
390
F
  0
LAYER
  5
21F
100
AcDbSymbolTableRecord
100
AcDbLayerTableRecord
  2
XSEC_DATUMS
 70
0
 62
7
  6
CONTINUOUS
370
-3
390
F
  0
LAYER
  5
220
100
AcDbSymbolTableRecord
100
AcDbLayerTableRecord
  2
_CURVE
 70
0
 62
7
  6
CONTINUOUS
370
-3
390
F
  0
LAYER
  5
221
100
AcDbSymbolTableRecord
100
AcDbLayerTableRecord
  2
_LOGO
 70
0
 62
7
  6
CONTINUOUS
370
-3
390
F
  0
LAYER
  5
222
100
AcDbSymbolTableRecord
100
AcDbLayerTableRecord
  2
_SURFACE
 70
0
 62
7
  6
CONTINUOUS
370
-3
390
F
  0
LAYER
  5
223
100
AcDbSymbolTableRecord
100
AcDbLayerTableRecord
  2
__REF_CURVE
 70
0
 62
7
  6
CONTINUOUS
370
-3
390
F
  0
LAYER
  5
224
100
AcDbSymbolTableRecord
100
AcDbLayerTableRecord
  2
__REF_SURFACE
 70
0
 62
7
  6
CONTINUOUS
370
-3
390
F
  0
LAYER
  5
225
100
AcDbSymbolTableRecord
100
AcDbLayerTableRecord
  2
___COSMETIC_THREAD
 70
0
 62
7
  6
CONTINUOUS
370
-3
390
F
  0
LAYER
  5
226
100
AcDbSymbolTableRecord
100
AcDbLayerTableRecord
  2
___GDT
 70
0
 62
7
  6
CONTINUOUS
370
-3
390
F
  0
LAYER
  5
227
100
AcDbSymbolTableRecord
100
AcDbLayerTableRecord
  2
___NOTE
 70
0
 62
7
  6
CONTINUOUS
370
-3
390
F
  0
LAYER
  5
228
100
AcDbSymbolTableRecord
100
AcDbLayerTableRecord
  2
___SYMBOL
 70
0
 62
7
  6
CONTINUOUS
370
-3
390
F
  0
ENDTAB
  0
TABLE
  2
STYLE
  5
3
100
AcDbSymbolTable
 70
1
  0
STYLE
  5
11
100
AcDbSymbolTableRecord
100
AcDbTextStyleTableRecord
  2
STANDARD
 70
0
 40
0.0
 41
0.8
 50
0.0
 71
0
 42
0.2
  3
txt
  4

  0
STYLE
  5
229
100
AcDbSymbolTableRecord
100
AcDbTextStyleTableRecord
  2
TEXTSTYLE_1
 70
0
 40
0.0
 41
0.8
 50
0.0
 71
0
 42
0.2
  3
gdt
  4

  0
ENDTAB
  0
TABLE
  2
VIEW
  5
6
100
AcDbSymbolTable
 70
0
  0
ENDTAB
  0
TABLE
  2
UCS
  5
7
100
AcDbSymbolTable
 70
0
  0
ENDTAB
  0
TABLE
  2
APPID
  5
9
100
AcDbSymbolTable
 70
1
  0
APPID
  5
22A
100
AcDbSymbolTableRecord
100
AcDbRegAppTableRecord
  2
ACAD
 70
0
  0
ENDTAB
  0
TABLE
  2
BLOCK_RECORD
  5
1
100
AcDbSymbolTable
 70
0
  0
BLOCK_RECORD
  5
22B
100
AcDbSymbolTableRecord
100
AcDbBlockTableRecord
  2
*Model_Space
  0
BLOCK_RECORD
  5
22C
100
AcDbSymbolTableRecord
100
AcDbBlockTableRecord
  2
*Paper_Space
  0
ENDTAB
  0
TABLE
  2
DIMSTYLE
  5
A
100
AcDbSymbolTable
 70
1
100
AcDbDimStyleTable
 71
0
  0
DIMSTYLE
105
22D
100
AcDbSymbolTableRecord
100
AcDbDimStyleTableRecord
  2
STANDARD
 70
0
  3

  4

 40
1.0
 41
3.5
 42
1.0
 43
0.38
 44
1.5
 45
0.0
 46
0.0
 47
0.01
 48
0.01
140
3.5
141
0.09
142
0.0
143
25.4
144
1.0
145
0.0
146
1.0
147
0.625
 71
1.0
 72
0.0
 73
1
 74
1
 75
0
 76
0
 77
0
 78
8
170
0
171
2
172
0
173
0
174
0
175
0
176
0
177
0
178
0
270
2
271
3
272
3
273
2
274
2
275
0
280
0
281
0
282
0
283
1
284
8
285
0
286
0
287
3
288
0
340
11
278
46
  0
ENDTAB
  0
ENDSEC
  0
SECTION
  2
BLOCKS
  0
BLOCK
  5
20
100
AcDbEntity
  8
0
100
AcDbBlockBegin
  2
*Model_Space
 70
0
 10
0.0
 20
0.0
 30
0.0
  3
*Model_Space
  1

  0
ENDBLK
  5
21
100
AcDbEntity
  8
0
100
AcDbBlockEnd
  0
BLOCK
  5
1C
100
AcDbEntity
  8
0
100
AcDbBlockBegin
  2
*Paper_Space
 70
0
 10
0.0
 20
0.0
 30
0.0
  3
*Paper_Space
  1

  0
ENDBLK
  5
1D
100
AcDbEntity
  8
0
100
AcDbBlockEnd
  0
ENDSEC
  0
SECTION
  2
ENTITIES
  0
LINE
  5
22E
100
AcDbEntity
  8
0
100
AcDbLine
 62
7
  6
CONTINUOUS
 10
0.0
 20
0.0
 11
0.0
 21
594.0
  0
LINE
  5
22F
100
AcDbEntity
  8
0
100
AcDbLine
 62
7
  6
CONTINUOUS
 10
0.0
 20
0.0
 11
841.0
 21
0.0
  0
LINE
  5
230
100
AcDbEntity
  8
0
100
AcDbLine
 62
7
  6
CONTINUOUS
 10
0.0
 20
594.0
 11
841.0
 21
594.0
  0
LINE
  5
231
100
AcDbEntity
  8
0
100
AcDbLine
 62
7
  6
CONTINUOUS
 10
841.0
 20
0.0
 11
841.0
 21
594.0
  0
LINE
  5
232
100
AcDbEntity
  8
0
100
AcDbLine
 62
7
  6
CONTINUOUS
 10
454.987314888
 20
85.8101374636
 11
436.087314888
 21
85.8101374636
  0
LINE
  5
233
100
AcDbEntity
  8
0
100
AcDbLine
 62
7
  6
CONTINUOUS
 10
456.037314888
 20
87.3101374636
 11
435.037314888
 21
87.3101374636
  0
LINE
  5
234
100
AcDbEntity
  8
AXES_REF
100
AcDbLine
 62
7
  6
CONTINUOUS
 10
431.9488576198
 20
99.8101374636
 11
459.1257721561
 21
99.8101374636
  0
LINE
  5
235
100
AcDbEntity
  8
0
100
AcDbLine
 62
7
  6
CONTINUOUS
 10
462.5371740792
 20
107.6101374636
 11
428.5374556968
 21
107.6101374636
  0
LINE
  5
236
100
AcDbEntity
  8
0
100
AcDbLine
 62
7
  6
CONTINUOUS
 10
465.037314888
 20
110.1101374636
 11
426.037314888
 21
110.1101374636
  0
LINE
  5
237
100
AcDbEntity
  8
AXES_REF
100
AcDbLine
 62
7
  6
CONTINUOUS
 10
424.537314888
 20
110.8101374636
 11
466.537314888
 21
110.8101374636
  0
LINE
  5
238
100
AcDbEntity
  8
AXES_REF
100
AcDbLine
 62
7
  6
CONTINUOUS
 10
424.537314888
 20
112.8101374636
 11
466.537314888
 21
112.8101374636
  0
LINE
  5
239
100
AcDbEntity
  8
0
100
AcDbLine
 62
7
  6
CONTINUOUS
 10
436.537314888
 20
85.8101374636
 11
435.037314888
 21
87.3101374636
  0
LINE
  5
23A
100
AcDbEntity
  8
0
100
AcDbLine
 62
7
  6
CONTINUOUS
 10
426.537314888
 20
131.8101374636
 11
464.537314888
 21
131.8101374636
  0
LINE
  5
23B
100
AcDbEntity
  8
0
100
AcDbLine
 62
7
  6
CONTINUOUS
 10
422.537314888
 20
132.8101374636
 11
468.537314888
 21
132.8101374636
  0
LINE
  5
23C
100
AcDbEntity
  8
AXES_REF
100
AcDbLine
 62
7
  6
CONTINUOUS
 10
431.9488576198
 20
99.8101374636
 11
429.9488576198
 21
101.8101374636
  0
LINE
  5
23D
100
AcDbEntity
  8
0
100
AcDbLine
 62
7
  6
CONTINUOUS
 10
422.537314888
 20
135.1101374636
 11
468.537314888
 21
135.1101374636
  0
LINE
  5
23E
100
AcDbEntity
  8
0
100
AcDbLine
 62
7
  6
CONTINUOUS
 10
423.237314888
 20
135.8101374636
 11
467.837314888
 21
135.8101374636
  0
LINE
  5
23F
100
AcDbEntity
  8
0
100
AcDbLine
 62
7
  6
CONTINUOUS
 10
458.2166610836
 20
315.0267583837
 11
458.6145214106
 21
315.1579129716
  0
LWPOLYLINE
  5
240
100
AcDbEntity
  8
0
100
AcDbPolyline
 62
7
  6
CONTINUOUS
 90
3
 70
0
 10
457.5427200953
 20
314.6852061099
 10
457.859361066
 20
314.8687039453
 10
458.2166610836
 20
315.0267583837
  0
LINE
  5
241
100
AcDbEntity
  8
0
100
AcDbLine
 62
7
  6
CONTINUOUS
 10
422.537314888
 20
135.1101374636
 11
422.537314888
 21
132.8101374636
  0
LINE
  5
242
100
AcDbEntity
  8
AXES_REF
100
AcDbLine
 62
7
  6
CONTINUOUS
 10
424.537314888
 20
110.8101374636
 11
424.537314888
 21
112.8101374636
  0
LINE
  5
243
100
AcDbEntity
  8
AXES_REF
100
AcDbLine
 62
7
  6
CONTINUOUS
 10
426.037314888
 20
110.1101374636
 11
426.037314888
 21
110.8101374636
  0
LINE
  5
244
100
AcDbEntity
  8
0
100
AcDbLine
 62
7
  6
CONTINUOUS
 10
426.537314888
 20
132.8101374636
 11
426.537314888
 21
131.8101374636
  0
LINE
  5
245
100
AcDbEntity
  8
0
100
AcDbLine
 62
7
  6
CONTINUOUS
 10
430.4277744496
 20
376.631587188
 11
430.411232882
 21
377.3313917154
  0
LINE
  5
246
100
AcDbEntity
  8
0
100
AcDbLine
 62
7
  6
CONTINUOUS
 10
434.6873186787
 20
312.4312319641
 11
434.6873199821
 21
312.4310233552
  0
LINE
  5
247
100
AcDbEntity
  8
0
100
AcDbLine
 62
7
  6
CONTINUOUS
 10
427.537314888
 20
135.8101374636
 11
427.537314888
 21
132.8101374636
  0
LINE
  5
248
100
AcDbEntity
  8
0
100
AcDbLine
 62
7
  6
CONTINUOUS
 10
429.537314888
 20
353.8101374636
 11
429.537314888
 21
135.8101374636
  0
LINE
  5
249
100
AcDbEntity
  8
AXES_REF
100
AcDbLine
 62
7
  6
CONTINUOUS
 10
429.9488576198
 20
107.6101374636
 11
429.9488576198
 21
101.8101374636
  0
LINE
  5
24A
100
AcDbEntity
  8
0
100
AcDbLine
 62
7
  6
CONTINUOUS
 10
430.237314888
 20
327.3101374636
 11
430.237314888
 21
319.0101374636
  0
LINE
  5
24B
100
AcDbEntity
  8
0
100
AcDbLine
 62
7
  6
CONTINUOUS
 10
431.787314888
 20
354.8101374636
 11
431.787314888
 21
353.8101374636
  0
LINE
  5
24C
100
AcDbEntity
  8
0
100
AcDbLine
 62
7
  6
CONTINUOUS
 10
433.537314888
 20
353.8101374636
 11
433.537314888
 21
330.6101374636
  0
LINE
  5
24D
100
AcDbEntity
  8
0
100
AcDbLine
 62
7
  6
CONTINUOUS
 10
433.537314888
 20
315.7101374636
 11
433.537314888
 21
315.0101374636
  0
LINE
  5
24E
100
AcDbEntity
  8
0
100
AcDbLine
 62
7
  6
CONTINUOUS
 10
433.537314888
 20
314.6812243037
 11
433.537314888
 21
135.8101374636
  0
LINE
  5
24F
100
AcDbEntity
  8
0
100
AcDbLine
 62
7
  6
CONTINUOUS
 10
433.7163679912
 20
372.0101374636
 11
433.7163679912
 21
371.3101374636
  0
LINE
  5
250
100
AcDbEntity
  8
02___PRT_ALL_AXES
100
AcDbLine
 62
7
  6
CONTINUOUS
 10
434.687314888
 20
310.818324103
 11
434.687314888
 21
312.4150452116
  0
LINE
  5
251
100
AcDbEntity
  8
0
100
AcDbLine
 62
7
  6
CONTINUOUS
 10
435.037314888
 20
131.8101374636
 11
435.037314888
 21
112.8101374636
  0
LINE
  5
252
100
AcDbEntity
  8
0
100
AcDbLine
 62
7
  6
CONTINUOUS
 10
435.037314888
 20
99.8101374636
 11
435.037314888
 21
87.3101374636
  0
LINE
  5
253
100
AcDbEntity
  8
0
100
AcDbLine
 62
2
  6
CONTINUOUS
 10
436.087314888
 20
131.8101374636
 11
436.087314888
 21
112.8101374636
  0
LINE
  5
254
100
AcDbEntity
  8
0
100
AcDbLine
 62
2
  6
CONTINUOUS
 10
436.087314888
 20
99.8101374636
 11
436.087314888
 21
85.8101374636
  0
LINE
  5
255
100
AcDbEntity
  8
0
100
AcDbLine
 62
7
  6
CONTINUOUS
 10
429.7278011034
 20
376.6376957629
 11
429.537314888
 21
354.8101374636
  0
LINE
  5
256
100
AcDbEntity
  8
0
100
AcDbLine
 62
7
  6
CONTINUOUS
 10
430.427771376
 20
376.6312349917
 11
430.4164936451
 21
375.3389350308
  0
LINE
  5
257
100
AcDbEntity
  8
0
100
AcDbLine
 62
7
  6
CONTINUOUS
 10
433.5556897324
 20
356.7744231623
 11
433.5387762317
 21
354.8101374636
  0
LINE
  5
258
100
AcDbEntity
  8
0
100
AcDbLine
 62
7
  6
CONTINUOUS
 10
437.5499436057
 20
311.7650996476
 11
437.5499436057
 21
311.6547408241
  0
LINE
  5
259
100
AcDbEntity
  8
AXES_REF
100
AcDbLine
 62
7
  6
CONTINUOUS
 10
437.7430862539
 20
107.6101374636
 11
437.7430862539
 21
101.8101374636
  0
LINE
  5
25A
100
AcDbEntity
  8
0
100
AcDbLine
 62
7
  6
CONTINUOUS
 10
438.3937006067
 20
312.148888236
 11
438.3937006067
 21
311.6547408241
  0
LINE
  5
25B
100
AcDbEntity
  8
0
100
AcDbLine
 62
7
  6
CONTINUOUS
 10
439.3405038019
 20
311.932469347
 11
439.3405038019
 21
311.0631361034
  0
LINE
  5
25C
100
AcDbEntity
  8
0
100
AcDbLine
 62
7
  6
CONTINUOUS
 10
441.034903476
 20
311.1850899444
 11
441.034903476
 21
310.3157567007
  0
LINE
  5
25D
100
AcDbEntity
  8
0
100
AcDbLine
 62
7
  6
CONTINUOUS
 10
441.631529773
 20
311.3092613298
 11
441.631529773
 21
310.4701749492
  0
LINE
  5
25E
100
AcDbEntity
  8
0
100
AcDbLine
 62
7
  6
CONTINUOUS
 10
443.917314888
 20
310.006743869
 11
443.917314888
 21
311.033034606
  0
LINE
  5
25F
100
AcDbEntity
  8
0
100
AcDbLine
 62
7
  6
CONTINUOUS
 10
447.157314888
 20
310.006743869
 11
447.157314888
 21
311.033034606
  0
LINE
  5
260
100
AcDbEntity
  8
0
100
AcDbLine
 62
7
  6
CONTINUOUS
 10
449.4431000029
 20
311.3092613298
 11
449.4431000029
 21
310.4701749492
  0
LINE
  5
261
100
AcDbEntity
  8
0
100
AcDbLine
 62
7
  6
CONTINUOUS
 10
450.0397262999
 20
311.1850899444
 11
450.0397262999
 21
310.3157567007
  0
LINE
  5
262
100
AcDbEntity
  8
0
100
AcDbLine
 62
7
  6
CONTINUOUS
 10
451.734125974
 20
311.932469347
 11
451.734125974
 21
311.0631361034
  0
LINE
  5
263
100
AcDbEntity
  8
0
100
AcDbLine
 62
7
  6
CONTINUOUS
 10
452.6809291693
 20
312.1488740759
 11
452.6809291693
 21
311.6547408241
  0
LINE
  5
264
100
AcDbEntity
  8
AXES_REF
100
AcDbLine
 62
7
  6
CONTINUOUS
 10
453.331543522
 20
107.6101374636
 11
453.331543522
 21
101.8101374636
  0
LINE
  5
265
100
AcDbEntity
  8
0
100
AcDbLine
 62
7
  6
CONTINUOUS
 10
453.5246861702
 20
311.765108268
 11
453.5246861702
 21
311.6547408241
  0
LINE
  5
266
100
AcDbEntity
  8
0
100
AcDbLine
 62
2
  6
CONTINUOUS
 10
454.987314888
 20
131.8101374636
 11
454.987314888
 21
112.8101374636
  0
LINE
  5
267
100
AcDbEntity
  8
0
100
AcDbLine
 62
2
  6
CONTINUOUS
 10
454.987314888
 20
99.8101374636
 11
454.987314888
 21
85.8101374636
  0
LINE
  5
268
100
AcDbEntity
  8
0
100
AcDbLine
 62
7
  6
CONTINUOUS
 10
456.037314888
 20
131.8101374636
 11
456.037314888
 21
112.8101374636
  0
LINE
  5
269
100
AcDbEntity
  8
0
100
AcDbLine
 62
7
  6
CONTINUOUS
 10
456.037314888
 20
99.8101374636
 11
456.037314888
 21
87.3101374636
  0
LINE
  5
26A
100
AcDbEntity
  8
02___PRT_ALL_AXES
100
AcDbLine
 62
7
  6
CONTINUOUS
 10
456.387314888
 20
310.818324103
 11
456.387314888
 21
312.4149837009
  0
LINE
  5
26B
100
AcDbEntity
  8
0
100
AcDbLine
 62
7
  6
CONTINUOUS
 10
456.3873097853
 20
312.4310183846
 11
456.3873105918
 21
312.4311452005
  0
LWPOLYLINE
  5
26C
100
AcDbEntity
  8
0
100
AcDbPolyline
 62
7
  6
CONTINUOUS
 90
9
 70
0
 10
456.387310391
 20
312.4350371867
 10
456.4026288955
 20
312.766734582
 10
456.455963297
 20
313.1135283014
 10
456.5457325469
 20
313.4324554444
 10
456.6708974724
 20
313.7262489111
 10
456.8327814277
 20
313.9991054547
 10
457.0317127436
 20
314.2503672849
 10
457.2674247599
 20
314.4787115373
 10
457.5427200953
 20
314.6852061099
  0
LINE
  5
26D
100
AcDbEntity
  8
0
100
AcDbLine
 62
7
  6
CONTINUOUS
 10
460.6581361308
 20
375.3389350308
 11
460.646855409
 21
376.6315777154
  0
LINE
  5
26E
100
AcDbEntity
  8
0
100
AcDbLine
 62
7
  6
CONTINUOUS
 10
461.537314888
 20
354.8101374636
 11
461.3468286725
 21
376.6376957629
  0
LINE
  5
26F
100
AcDbEntity
  8
0
100
AcDbLine
 62
7
  6
CONTINUOUS
 10
457.5358535442
 20
354.8101374636
 11
457.5189400435
 21
356.774423158
  0
LINE
  5
270
100
AcDbEntity
  8
0
100
AcDbLine
 62
7
  6
CONTINUOUS
 10
457.3582617847
 20
372.0101374636
 11
457.3582617847
 21
371.3101374636
  0
LINE
  5
271
100
AcDbEntity
  8
0
100
AcDbLine
 62
7
  6
CONTINUOUS
 10
457.537314888
 20
314.6811517514
 11
457.537314888
 21
135.8101374636
  0
LINE
  5
272
100
AcDbEntity
  8
0
100
AcDbLine
 62
7
  6
CONTINUOUS
 10
457.537314888
 20
330.6101374636
 11
457.537314888
 21
353.8101374636
  0
LINE
  5
273
100
AcDbEntity
  8
0
100
AcDbLine
 62
7
  6
CONTINUOUS
 10
457.537314888
 20
315.7101374636
 11
457.5373149044
 21
315.0101374636
  0
LINE
  5
274
100
AcDbEntity
  8
0
100
AcDbLine
 62
7
  6
CONTINUOUS
 10
459.287314888
 20
354.8101374636
 11
459.287314888
 21
353.8101374636
  0
LINE
  5
275
100
AcDbEntity
  8
0
100
AcDbLine
 62
7
  6
CONTINUOUS
 10
460.837314888
 20
319.0101374636
 11
460.837314888
 21
327.3101374636
  0
LINE
  5
276
100
AcDbEntity
  8
AXES_REF
100
AcDbLine
 62
7
  6
CONTINUOUS
 10
461.1257721561
 20
107.6101374636
 11
461.1257721561
 21
101.8101374636
  0
LINE
  5
277
100
AcDbEntity
  8
0
100
AcDbLine
 62
7
  6
CONTINUOUS
 10
461.537314888
 20
135.8101374636
 11
461.537314888
 21
353.8101374636
  0
LINE
  5
278
100
AcDbEntity
  8
0
100
AcDbLine
 62
7
  6
CONTINUOUS
 10
463.537314888
 20
135.8101374636
 11
463.537314888
 21
132.8101374636
  0
LINE
  5
279
100
AcDbEntity
  8
0
100
AcDbLine
 62
7
  6
CONTINUOUS
 10
464.537314888
 20
132.8101374636
 11
464.537314888
 21
131.8101374636
  0
LINE
  5
27A
100
AcDbEntity
  8
AXES_REF
100
AcDbLine
 62
7
  6
CONTINUOUS
 10
465.037314888
 20
110.1101374636
 11
465.037314888
 21
110.8101374636
  0
LINE
  5
27B
100
AcDbEntity
  8
AXES_REF
100
AcDbLine
 62
7
  6
CONTINUOUS
 10
466.537314888
 20
110.8101374636
 11
466.537314888
 21
112.8101374636
  0
LINE
  5
27C
100
AcDbEntity
  8
0
100
AcDbLine
 62
7
  6
CONTINUOUS
 10
460.6633968939
 20
377.3313917154
 11
460.6468553263
 21
376.631587188
  0
LINE
  5
27D
100
AcDbEntity
  8
0
100
AcDbLine
 62
7
  6
CONTINUOUS
 10
468.537314888
 20
135.1101374636
 11
468.537314888
 21
132.8101374636
  0
LINE
  5
27E
100
AcDbEntity
  8
0
100
AcDbLine
 62
7
  6
CONTINUOUS
 10
429.537314888
 20
300.0101374636
 11
461.537314888
 21
300.0101374636
  0
LWPOLYLINE
  5
27F
100
AcDbEntity
  8
0
100
AcDbPolyline
 62
7
  6
CONTINUOUS
 90
10
 70
0
 10
433.2123892528
 20
314.8705892444
 10
433.5250567984
 20
314.6903252386
 10
433.7940792431
 20
314.4905913622
 10
434.0240131162
 20
314.2718876801
 10
434.2217656372
 20
314.0288149636
 10
434.3867751012
 20
313.7601181986
 10
434.5167176043
 20
313.4672910644
 10
434.6116517447
 20
313.1459472582
 10
434.6694518675
 20
312.792937892
 10
434.6873193256
 20
312.4353356799
  0
LINE
  5
280
100
AcDbEntity
  8
0
100
AcDbLine
 62
7
  6
CONTINUOUS
 10
441.631529773
 20
310.4701749492
 11
441.034903476
 21
310.3157567007
  0
LINE
  5
281
100
AcDbEntity
  8
0
100
AcDbLine
 62
7
  6
CONTINUOUS
 10
441.5636778573
 20
311.3219468248
 11
441.034903476
 21
311.1850899444
  0
LINE
  5
282
100
AcDbEntity
  8
0
100
AcDbLine
 62
7
  6
CONTINUOUS
 10
438.7438775049
 20
310.9087178549
 11
439.3405038019
 21
311.0631361034
  0
LINE
  5
283
100
AcDbEntity
  8
0
100
AcDbLine
 62
7
  6
CONTINUOUS
 10
453.5246861702
 20
311.6547408241
 11
452.6809291693
 21
311.6547408241
  0
LINE
  5
284
100
AcDbEntity
  8
0
100
AcDbLine
 62
7
  6
CONTINUOUS
 10
437.5499436057
 20
311.6547408241
 11
438.3937006067
 21
311.6547408241
  0
LINE
  5
285
100
AcDbEntity
  8
0
100
AcDbLine
 62
7
  6
CONTINUOUS
 10
450.0397262999
 20
310.3157567007
 11
449.4431000029
 21
310.4701749492
  0
LINE
  5
286
100
AcDbEntity
  8
0
100
AcDbLine
 62
7
  6
CONTINUOUS
 10
450.0397262999
 20
311.1850899444
 11
449.5109519186
 21
311.3219468248
  0
LINE
  5
287
100
AcDbEntity
  8
0
100
AcDbLine
 62
7
  6
CONTINUOUS
 10
451.734125974
 20
311.0631361034
 11
452.330752271
 21
310.9087178549
  0
LINE
  5
288
100
AcDbEntity
  8
0
100
AcDbLine
 62
7
  6
CONTINUOUS
 10
432.4595143596
 20
315.1580799661
 11
432.8574763126
 21
315.0271689795
  0
LINE
  5
289
100
AcDbEntity
  8
0
100
AcDbLine
 62
7
  6
CONTINUOUS
 10
432.8574763126
 20
315.0271689795
 11
433.2123892528
 21
314.8705892444
  0
LINE
  5
28A
100
AcDbEntity
  8
0
100
AcDbLine
 62
7
  6
CONTINUOUS
 10
433.537314888
 20
315.0101374636
 11
457.537314888
 21
315.0101374636
  0
LINE
  5
28B
100
AcDbEntity
  8
0
100
AcDbLine
 62
7
  6
CONTINUOUS
 10
433.537314888
 20
315.7101374636
 11
457.537314888
 21
315.7101374636
  0
LINE
  5
28C
100
AcDbEntity
  8
0
100
AcDbLine
 62
7
  6
CONTINUOUS
 10
430.237314888
 20
319.0101374636
 11
429.537314888
 21
319.0101374472
  0
LINE
  5
28D
100
AcDbEntity
  8
0
100
AcDbLine
 62
7
  6
CONTINUOUS
 10
460.837314888
 20
319.0101374636
 11
461.537314888
 21
319.0101374636
  0
LINE
  5
28E
100
AcDbEntity
  8
0
100
AcDbLine
 62
7
  6
CONTINUOUS
 10
430.237314888
 20
327.3101374636
 11
429.537314888
 21
327.3101374636
  0
LINE
  5
28F
100
AcDbEntity
  8
0
100
AcDbLine
 62
7
  6
CONTINUOUS
 10
460.837314888
 20
327.3101374636
 11
461.537314888
 21
327.310137452
  0
LINE
  5
290
100
AcDbEntity
  8
0
100
AcDbLine
 62
7
  6
CONTINUOUS
 10
457.537314888
 20
330.6101374636
 11
433.537314888
 21
330.6101374636
  0
LINE
  5
291
100
AcDbEntity
  8
0
100
AcDbLine
 62
7
  6
CONTINUOUS
 10
457.537314888
 20
331.3101374636
 11
433.537314888
 21
331.3101374636
  0
LINE
  5
292
100
AcDbEntity
  8
AXES_REF
100
AcDbLine
 62
7
  6
CONTINUOUS
 10
459.1257721561
 20
99.8101374636
 11
461.1257721561
 21
101.8101374636
  0
LINE
  5
293
100
AcDbEntity
  8
0
100
AcDbLine
 62
7
  6
CONTINUOUS
 10
454.537314888
 20
85.8101374636
 11
456.037314888
 21
87.3101374636
  0
LINE
  5
294
100
AcDbEntity
  8
0
100
AcDbLine
 62
7
  6
CONTINUOUS
 10
461.537314888
 20
346.3101374636
 11
429.537314888
 21
346.3101374648
  0
LINE
  5
295
100
AcDbEntity
  8
0
100
AcDbLine
 62
7
  6
CONTINUOUS
 10
429.537314888
 20
353.8101374636
 11
461.537314888
 21
353.8101374636
  0
LINE
  5
296
100
AcDbEntity
  8
0
100
AcDbLine
 62
7
  6
CONTINUOUS
 10
461.537314888
 20
354.8101374636
 11
429.537314888
 21
354.8101374636
  0
LINE
  5
297
100
AcDbEntity
  8
0
100
AcDbLine
 62
7
  6
CONTINUOUS
 10
457.5189400435
 20
356.774423158
 11
433.5556897324
 21
356.7744231623
  0
LINE
  5
298
100
AcDbEntity
  8
0
100
AcDbLine
 62
7
  6
CONTINUOUS
 10
460.6581361308
 20
375.3389350308
 11
461.358109477
 21
375.3450436056
  0
LINE
  5
299
100
AcDbEntity
  8
0
100
AcDbLine
 62
7
  6
CONTINUOUS
 10
460.6468553263
 20
376.631587188
 11
461.3468286725
 21
376.6376957629
  0
LINE
  5
29A
100
AcDbEntity
  8
0
100
AcDbLine
 62
7
  6
CONTINUOUS
 10
433.7163591545
 20
371.3101374636
 11
457.3582705258
 21
371.3101374636
  0
LINE
  5
29B
100
AcDbEntity
  8
0
100
AcDbLine
 62
7
  6
CONTINUOUS
 10
433.7163679912
 20
372.0101374636
 11
457.3582617847
 21
372.0101374636
  0
LINE
  5
29C
100
AcDbEntity
  8
0
100
AcDbLine
 62
7
  6
CONTINUOUS
 10
430.4164936451
 20
375.3389350308
 11
429.716520299
 21
375.3450436056
  0
LINE
  5
29D
100
AcDbEntity
  8
0
100
AcDbLine
 62
7
  6
CONTINUOUS
 10
429.7278011034
 20
376.6376957629
 11
430.4277744496
 21
376.631587188
  0
LINE
  5
29E
100
AcDbEntity
  8
0
100
AcDbLine
 62
7
  6
CONTINUOUS
 10
167.9849893969
 20
85.8101374636
 11
149.0849893969
 21
85.8101374636
  0
LINE
  5
29F
100
AcDbEntity
  8
0
100
AcDbLine
 62
7
  6
CONTINUOUS
 10
169.0349893969
 20
87.3101374636
 11
148.0349893969
 21
87.3101374636
  0
LINE
  5
2A0
100
AcDbEntity
  8
0
100
AcDbLine
 62
7
  6
CONTINUOUS
 10
149.5349894172
 20
85.8101374433
 11
148.0349894206
 21
87.3101374399
  0
LINE
  5
2A1
100
AcDbEntity
  8
AXES_REF
100
AcDbLine
 62
7
  6
CONTINUOUS
 10
145.0349893969
 20
99.8101374636
 11
172.0349893969
 21
99.8101374636
  0
LINE
  5
2A2
100
AcDbEntity
  8
0
100
AcDbLine
 62
7
  6
CONTINUOUS
 10
175.5349893969
 20
107.6101374636
 11
141.5349893969
 21
107.6101374636
  0
LINE
  5
2A3
100
AcDbEntity
  8
0
100
AcDbLine
 62
7
  6
CONTINUOUS
 10
178.0349893969
 20
110.1101374636
 11
139.0349893969
 21
110.1101374636
  0
LINE
  5
2A4
100
AcDbEntity
  8
AXES_REF
100
AcDbLine
 62
7
  6
CONTINUOUS
 10
137.5349893969
 20
110.8101374636
 11
179.5349893969
 21
110.8101374636
  0
LINE
  5
2A5
100
AcDbEntity
  8
AXES_REF
100
AcDbLine
 62
7
  6
CONTINUOUS
 10
137.5349893969
 20
112.8101374636
 11
179.5349893969
 21
112.8101374636
  0
LINE
  5
2A6
100
AcDbEntity
  8
0
100
AcDbLine
 62
7
  6
CONTINUOUS
 10
139.5349893969
 20
131.8101374636
 11
177.5349893969
 21
131.8101374636
  0
LINE
  5
2A7
100
AcDbEntity
  8
0
100
AcDbLine
 62
7
  6
CONTINUOUS
 10
135.5349893969
 20
132.8101374636
 11
181.5349893969
 21
132.8101374636
  0
LINE
  5
2A8
100
AcDbEntity
  8
0
100
AcDbLine
 62
7
  6
CONTINUOUS
 10
135.5349893969
 20
135.1101374636
 11
181.5349893969
 21
135.1101374636
  0
LINE
  5
2A9
100
AcDbEntity
  8
0
100
AcDbLine
 62
7
  6
CONTINUOUS
 10
136.2349893969
 20
135.8101374636
 11
180.8349893969
 21
135.8101374636
  0
LINE
  5
2AA
100
AcDbEntity
  8
0
100
AcDbLine
 62
7
  6
CONTINUOUS
 10
135.5349893969
 20
135.1101374636
 11
135.5349893969
 21
132.8101374636
  0
LINE
  5
2AB
100
AcDbEntity
  8
0
100
AcDbLine
 62
7
  6
CONTINUOUS
 10
136.2349893969
 20
132.8101374636
 11
136.2349893969
 21
135.8101374636
  0
LINE
  5
2AC
100
AcDbEntity
  8
AXES_REF
100
AcDbLine
 62
7
  6
CONTINUOUS
 10
137.5349893969
 20
110.8101374636
 11
137.5349893969
 21
112.8101374636
  0
LINE
  5
2AD
100
AcDbEntity
  8
AXES_REF
100
AcDbLine
 62
7
  6
CONTINUOUS
 10
139.0349893969
 20
110.1101374636
 11
139.0349893969
 21
110.8101374636
  0
LINE
  5
2AE
100
AcDbEntity
  8
0
100
AcDbLine
 62
7
  6
CONTINUOUS
 10
139.0349893969
 20
110.1101374636
 11
139.0349893969
 21
110.8101374636
  0
LINE
  5
2AF
100
AcDbEntity
  8
0
100
AcDbLine
 62
7
  6
CONTINUOUS
 10
139.5349893969
 20
132.8101374636
 11
139.5349893969
 21
131.8101374636
  0
LINE
  5
2B0
100
AcDbEntity
  8
0
100
AcDbLine
 62
7
  6
CONTINUOUS
 10
143.2171024069
 20
377.5101374636
 11
143.2107204924
 21
377.3313917154
  0
LINE
  5
2B1
100
AcDbEntity
  8
0
100
AcDbLine
 62
7
  6
CONTINUOUS
 10
142.5349893969
 20
353.8101374636
 11
142.5349893969
 21
135.8101374636
  0
LINE
  5
2B2
100
AcDbEntity
  8
0
100
AcDbLine
 62
7
  6
CONTINUOUS
 10
143.210730821
 20
376.6376957629
 11
143.210730821
 21
377.3313917154
  0
LINE
  5
2B3
100
AcDbEntity
  8
0
100
AcDbLine
 62
7
  6
CONTINUOUS
 10
143.2349893969
 20
353.8101374636
 11
143.2349893969
 21
135.8101374636
  0
LINE
  5
2B4
100
AcDbEntity
  8
0
100
AcDbLine
 62
7
  6
CONTINUOUS
 10
144.7849893969
 20
354.8101374636
 11
144.7849893969
 21
353.8101374636
  0
LINE
  5
2B5
100
AcDbEntity
  8
AXES_REF
100
AcDbLine
 62
7
  6
CONTINUOUS
 10
145.0349893969
 20
99.8101374636
 11
145.0349893969
 21
107.6101374636
  0
LINE
  5
2B6
100
AcDbEntity
  8
0
100
AcDbLine
 62
7
  6
CONTINUOUS
 10
148.0349893969
 20
131.8101374636
 11
148.0349893969
 21
112.8101374636
  0
LINE
  5
2B7
100
AcDbEntity
  8
0
100
AcDbLine
 62
7
  6
CONTINUOUS
 10
148.0349893969
 20
99.8101374636
 11
148.0349893969
 21
87.3101374636
  0
LINE
  5
2B8
100
AcDbEntity
  8
0
100
AcDbLine
 62
2
  6
CONTINUOUS
 10
149.0849893969
 20
131.8101374636
 11
149.0849893969
 21
112.8101374636
  0
LINE
  5
2B9
100
AcDbEntity
  8
0
100
AcDbLine
 62
2
  6
CONTINUOUS
 10
149.0849893969
 20
99.8101374636
 11
149.0849893969
 21
85.8101374636
  0
LINE
  5
2BA
100
AcDbEntity
  8
03___PRT_ALL_CURVES
100
AcDbLine
 62
40
  6
CONTINUOUS
 10
157.5649893969
 20
377.5101374636
 11
157.5649893969
 21
377.4786396542
  0
LINE
  5
2BB
100
AcDbEntity
  8
AXES_REF
100
AcDbLine
 62
7
  6
CONTINUOUS
 10
158.5349893969
 20
107.6101374636
 11
158.5349893969
 21
101.8101374636
  0
LINE
  5
2BC
100
AcDbEntity
  8
03___PRT_ALL_CURVES
100
AcDbLine
 62
40
  6
CONTINUOUS
 10
159.5049893969
 20
377.478639657
 11
159.5049893969
 21
377.5101374636
  0
LINE
  5
2BD
100
AcDbEntity
  8
0
100
AcDbLine
 62
2
  6
CONTINUOUS
 10
167.9849893969
 20
131.8101374636
 11
167.9849893969
 21
112.8101374636
  0
LINE
  5
2BE
100
AcDbEntity
  8
0
100
AcDbLine
 62
2
  6
CONTINUOUS
 10
167.9849893969
 20
99.8101374636
 11
167.9849893969
 21
85.8101374636
  0
LINE
  5
2BF
100
AcDbEntity
  8
0
100
AcDbLine
 62
7
  6
CONTINUOUS
 10
169.0349893969
 20
131.8101374636
 11
169.0349893969
 21
112.8101374636
  0
LINE
  5
2C0
100
AcDbEntity
  8
0
100
AcDbLine
 62
7
  6
CONTINUOUS
 10
169.0349893969
 20
99.8101374636
 11
169.0349893969
 21
87.3101374636
  0
LINE
  5
2C1
100
AcDbEntity
  8
0
100
AcDbLine
 62
7
  6
CONTINUOUS
 10
170.5349893969
 20
353.8101374636
 11
170.5349893969
 21
346.3101374636
  0
LINE
  5
2C2
100
AcDbEntity
  8
0
100
AcDbLine
 62
7
  6
CONTINUOUS
 10
170.5349893969
 20
300.0101374636
 11
170.5349893969
 21
135.8101374636
  0
LINE
  5
2C3
100
AcDbEntity
  8
AXES_REF
100
AcDbLine
 62
7
  6
CONTINUOUS
 10
172.0349893969
 20
107.6101374636
 11
172.0349893969
 21
99.8101374636
  0
LINE
  5
2C4
100
AcDbEntity
  8
0
100
AcDbLine
 62
7
  6
CONTINUOUS
 10
172.2849893969
 20
354.8101374636
 11
172.2849893969
 21
353.8101374636
  0
LINE
  5
2C5
100
AcDbEntity
  8
0
100
AcDbLine
 62
7
  6
CONTINUOUS
 10
174.5349893969
 20
353.8101374636
 11
174.5349893969
 21
346.3101374636
  0
LINE
  5
2C6
100
AcDbEntity
  8
0
100
AcDbLine
 62
7
  6
CONTINUOUS
 10
174.5349893969
 20
300.0101374636
 11
174.5349893969
 21
135.8101374636
  0
LINE
  5
2C7
100
AcDbEntity
  8
0
100
AcDbLine
 62
7
  6
CONTINUOUS
 10
176.5349893969
 20
135.8101374636
 11
176.5349893969
 21
132.8101374636
  0
LINE
  5
2C8
100
AcDbEntity
  8
0
100
AcDbLine
 62
7
  6
CONTINUOUS
 10
177.5349893969
 20
132.8101374636
 11
177.5349893969
 21
131.8101374636
  0
LINE
  5
2C9
100
AcDbEntity
  8
AXES_REF
100
AcDbLine
 62
7
  6
CONTINUOUS
 10
178.0349893969
 20
110.1101374636
 11
178.0349893969
 21
110.8101374636
  0
LINE
  5
2CA
100
AcDbEntity
  8
0
100
AcDbLine
 62
7
  6
CONTINUOUS
 10
178.0349893969
 20
110.1101374636
 11
178.0349893969
 21
110.8101374636
  0
LINE
  5
2CB
100
AcDbEntity
  8
AXES_REF
100
AcDbLine
 62
7
  6
CONTINUOUS
 10
179.5349893969
 20
110.8101374636
 11
179.5349893969
 21
112.8101374636
  0
LINE
  5
2CC
100
AcDbEntity
  8
0
100
AcDbLine
 62
7
  6
CONTINUOUS
 10
181.5349893969
 20
135.1101374636
 11
181.5349893969
 21
132.8101374636
  0
LINE
  5
2CD
100
AcDbEntity
  8
0
100
AcDbLine
 62
7
  6
CONTINUOUS
 10
189.5349893969
 20
331.3101374636
 11
189.5349893969
 21
327.3101374636
  0
LINE
  5
2CE
100
AcDbEntity
  8
0
100
AcDbLine
 62
7
  6
CONTINUOUS
 10
189.5349893969
 20
315.0101374636
 11
189.5349893978
 21
319.0101374634
  0
LINE
  5
2CF
100
AcDbEntity
  8
0
100
AcDbLine
 62
7
  6
CONTINUOUS
 10
189.5950720919
 20
371.3101320395
 11
189.5950720916
 21
375.3450436056
  0
LINE
  5
2D0
100
AcDbEntity
  8
0
100
AcDbLine
 62
7
  6
CONTINUOUS
 10
224.8349893969
 20
377.5101363688
 11
224.8349893969
 21
371.3101374636
  0
LINE
  5
2D1
100
AcDbEntity
  8
0
100
AcDbLine
 62
7
  6
CONTINUOUS
 10
225.5349893969
 20
376.8103679659
 11
225.5349893969
 21
372.0101374636
  0
LINE
  5
2D2
100
AcDbEntity
  8
02___PRT_ALL_AXES
100
AcDbLine
 62
7
  6
CONTINUOUS
 10
273.0349893969
 20
308.0101374636
 11
293.9955798274
 21
313.6265107424
  0
LINE
  5
2D3
100
AcDbEntity
  8
0
100
AcDbLine
 62
7
  6
CONTINUOUS
 10
167.5349893702
 20
85.8101374369
 11
169.0349893657
 21
87.3101374325
  0
LINE
  5
2D4
100
AcDbEntity
  8
0
100
AcDbLine
 62
7
  6
CONTINUOUS
 10
174.5349893969
 20
300.0101374636
 11
170.5349893969
 21
300.0101374636
  0
LINE
  5
2D5
100
AcDbEntity
  8
02___PRT_ALL_AXES
100
AcDbLine
 62
7
  6
CONTINUOUS
 10
273.0349893969
 20
308.0101374636
 11
272.7481357564
 21
309.0806898245
  0
LINE
  5
2D6
100
AcDbEntity
  8
0
100
AcDbLine
 62
7
  6
CONTINUOUS
 10
296.3349893969
 20
331.3101374636
 11
296.3349893969
 21
315.0101374636
  0
LINE
  5
2D7
100
AcDbEntity
  8
0
100
AcDbLine
 62
7
  6
CONTINUOUS
 10
297.0349893969
 20
330.6101374636
 11
297.0349893969
 21
315.7101374636
  0
LINE
  5
2D8
100
AcDbEntity
  8
0
100
AcDbLine
 62
7
  6
CONTINUOUS
 10
296.3349893969
 20
315.0101374636
 11
287.4504553978
 21
315.0101374636
  0
LINE
  5
2D9
100
AcDbEntity
  8
0
100
AcDbLine
 62
7
  6
CONTINUOUS
 10
272.0343573482
 20
315.0101374636
 11
189.5349893969
 21
315.0101374636
  0
LINE
  5
2DA
100
AcDbEntity
  8
0
100
AcDbLine
 62
7
  6
CONTINUOUS
 10
297.0349893969
 20
319.0101374636
 11
189.5349893969
 21
319.0101374636
  0
LINE
  5
2DB
100
AcDbEntity
  8
02___PRT_ALL_AXES
100
AcDbLine
 62
7
  6
CENTER
 10
285.3270179278
 20
304.056843319
 11
278.8565418003
 21
328.2049889762
  0
LINE
  5
2DC
100
AcDbEntity
  8
0
100
AcDbLine
 62
7
  6
CONTINUOUS
 10
189.5349893969
 20
327.3101374636
 11
297.0349893969
 21
327.3101374636
  0
LINE
  5
2DD
100
AcDbEntity
  8
0
100
AcDbLine
 62
7
  6
CONTINUOUS
 10
189.5349893969
 20
331.3101374636
 11
296.3349893969
 21
331.3101374636
  0
LINE
  5
2DE
100
AcDbEntity
  8
02___PRT_ALL_AXES
100
AcDbLine
 62
7
  6
CONTINUOUS
 10
293.9955798274
 20
313.6265107424
 11
293.9621377113
 21
313.7513184185
  0
LINE
  5
2DF
100
AcDbEntity
  8
0
100
AcDbLine
 62
7
  6
CONTINUOUS
 10
174.5349893969
 20
346.3101374636
 11
170.5349893973
 21
346.3101374648
  0
LINE
  5
2E0
100
AcDbEntity
  8
0
100
AcDbLine
 62
7
  6
CONTINUOUS
 10
142.5349893969
 20
353.8101374636
 11
174.5349893969
 21
353.8101374636
  0
LINE
  5
2E1
100
AcDbEntity
  8
0
100
AcDbLine
 62
7
  6
CONTINUOUS
 10
142.5349893969
 20
354.8101374636
 11
174.5349893969
 21
354.8101374636
  0
LINE
  5
2E2
100
AcDbEntity
  8
0
100
AcDbLine
 62
7
  6
CONTINUOUS
 10
224.8349893969
 20
371.3101374636
 11
189.5950720916
 21
371.3101374636
  0
LINE
  5
2E3
100
AcDbEntity
  8
0
100
AcDbLine
 62
7
  6
CONTINUOUS
 10
224.8349893969
 20
375.345044408
 11
189.5950720916
 21
375.3450436056
  0
LINE
  5
2E4
100
AcDbEntity
  8
0
100
AcDbLine
 62
7
  6
CONTINUOUS
 10
224.8349893969
 20
376.6376957629
 11
143.2107286891
 21
376.6376957629
  0
LINE
  5
2E5
100
AcDbEntity
  8
0
100
AcDbLine
 62
7
  6
CONTINUOUS
 10
224.8349893969
 20
377.3313917154
 11
143.2107204924
 21
377.3313917154
  0
LINE
  5
2E6
100
AcDbEntity
  8
03___PRT_ALL_CURVES
100
AcDbLine
 62
40
  6
CONTINUOUS
 10
157.5649893969
 20
377.478639657
 11
159.5049893969
 21
377.478639657
  0
LINE
  5
2E7
100
AcDbEntity
  8
0
100
AcDbLine
 62
7
  6
CONTINUOUS
 10
143.2168743607
 20
377.5101374636
 11
224.8349893969
 21
377.5101374636
  0
LWPOLYLINE
  5
2E8
100
AcDbEntity
  8
0
100
AcDbPolyline
 62
7
  6
CONTINUOUS
 90
15
 70
0
 10
143.2170944
 20
377.5101374331
 10
143.2030550446
 20
377.5099966307
 10
143.1217843845
 20
377.5036185078
 10
143.0418064036
 20
377.4878350931
 10
142.9642057952
 20
377.4628604629
 10
142.8900350071
 20
377.4290333482
 10
142.8202999669
 20
377.3868125393
 10
142.7559464415
 20
377.3367706647
 10
142.6978472103
 20
377.2795864253
 10
142.6467902264
 20
377.2160353882
 10
142.6034679278
 20
377.1469794629
 10
142.5684678504
 20
377.073355213
 10
142.5422646628
 20
376.9961611584
 10
142.5252137277
 20
376.9164442345
 10
142.5175462808
 20
376.8352855884
  0
LINE
  5
2E9
100
AcDbEntity
  8
AXES_REF
100
AcDbLine
 62
7
  6
CONTINUOUS
 10
763.8026680368
 20
322.8384101856
 11
760.8122480508
 21
322.3757895132
  0
LINE
  5
2EA
100
AcDbEntity
  8
0
100
AcDbLine
 62
7
  6
CONTINUOUS
 10
700.8982608174
 20
535.8689748437
 11
758.6150872661
 21
569.1916012214
  0
LINE
  5
2EB
100
AcDbEntity
  8
0
100
AcDbLine
 62
7
  6
CONTINUOUS
 10
701.2365625472
 20
535.8409011865
 11
758.9533962993
 21
569.1635317808
  0
LINE
  5
2EC
100
AcDbEntity
  8
0
100
AcDbLine
 62
7
  6
CONTINUOUS
 10
751.3887563535
 20
315.642786726
 11
751.3885658801
 21
315.6428966962
  0
LINE
  5
2ED
100
AcDbEntity
  8
0
100
AcDbLine
 62
7
  6
CONTINUOUS
 10
752.4492491648
 20
315.0304934074
 11
751.3885662516
 21
315.6428964817
  0
LINE
  5
2EE
100
AcDbEntity
  8
AXES_REF
100
AcDbLine
 62
7
  6
CONTINUOUS
 10
750.3620203029
 20
323.9923953378
 11
748.1728693808
 21
325.2562736192
  0
LINE
  5
2EF
100
AcDbEntity
  8
03___PRT_ALL_CURVES
100
AcDbLine
 62
40
  6
CONTINUOUS
 10
755.0090906117
 20
559.8409593778
 11
753.6373091675
 21
559.0489657193
  0
LINE
  5
2F0
100
AcDbEntity
  8
0
100
AcDbLine
 62
7
  6
CONTINUOUS
 10
649.8556590814
 20
465.8799695934
 11
649.8556590814
 21
459.1029995312
  0
LINE
  5
2F1
100
AcDbEntity
  8
0
100
AcDbLine
 62
7
  6
CONTINUOUS
 10
650.0606863954
 20
465.5941986857
 11
650.0606863954
 21
458.8172286235
  0
LINE
  5
2F2
100
AcDbEntity
  8
03___PRT_ALL_CURVES
100
AcDbLine
 62
40
  6
CONTINUOUS
 10
762.6176026768
 20
553.8643081369
 11
763.989384121
 21
554.6563017954
  0
LINE
  5
2F3
100
AcDbEntity
  8
0
100
AcDbLine
 62
7
  6
CONTINUOUS
 10
722.6281619267
 20
523.4907349244
 11
780.34498852
 21
556.8133613855
  0
LINE
  5
2F4
100
AcDbEntity
  8
0
100
AcDbLine
 62
7
  6
CONTINUOUS
 10
723.1114231838
 20
522.6453257975
 11
780.8280247497
 21
555.9678223398
  0
LINE
  5
2F5
100
AcDbEntity
  8
0
100
AcDbLine
 62
7
  6
CONTINUOUS
 10
748.0376807001
 20
535.9717571253
 11
723.1193999455
 21
521.5852675534
  0
LWPOLYLINE
  5
2F6
100
AcDbEntity
  8
0
100
AcDbPolyline
 62
7
  6
CONTINUOUS
 90
23
 70
0
 10
747.3369410394
 20
533.8983487211
 10
747.6550653491
 20
534.0790929081
 10
748.0621039429
 20
534.3015655317
 10
748.4626511034
 20
534.510229692
 10
748.8569330817
 20
534.7049875972
 10
749.2437841473
 20
534.8850801288
 10
749.6205353666
 20
535.0492001595
 10
749.9866674132
 20
535.1971742437
 10
750.3414208132
 20
535.3287915032
 10
750.6816293375
 20
535.4431590215
 10
751.0066685377
 20
535.5405447363
 10
751.3156687986
 20
535.6212512191
 10
751.6050003015
 20
535.6851753385
 10
751.8737812341
 20
535.7332683893
 10
752.1215412427
 20
535.7667320813
 10
752.3453612414
 20
535.7867372397
 10
752.5442382325
 20
535.7951121134
 10
752.7184653691
 20
535.7939274132
 10
752.8671804881
 20
535.7853897015
 10
752.990098438
 20
535.7719234336
 10
753.0873629814
 20
535.7560314984
 10
753.1588091686
 20
535.7404126609
 10
753.1892480868
 20
535.7323414036
  0
LINE
  5
2F7
100
AcDbEntity
  8
0
100
AcDbLine
 62
7
  6
CONTINUOUS
 10
729.8219833357
 20
355.0389283634
 11
755.277933441
 21
340.3422612006
  0
LINE
  5
2F8
100
AcDbEntity
  8
0
100
AcDbLine
 62
7
  6
CONTINUOUS
 10
729.8219833357
 20
356.9168839228
 11
755.277933441
 21
342.22021676
  0
LINE
  5
2F9
100
AcDbEntity
  8
0
100
AcDbLine
 62
7
  6
CONTINUOUS
 10
730.3169560217
 20
357.7742065225
 11
755.772906127
 21
343.0775393597
  0
LINE
  5
2FA
100
AcDbEntity
  8
0
100
AcDbLine
 62
7
  6
CONTINUOUS
 10
722.4186240417
 20
519.5118442055
 11
747.3369047914
 21
533.8983344283
  0
LINE
  5
2FB
100
AcDbEntity
  8
0
100
AcDbLine
 62
7
  6
CONTINUOUS
 10
726.4078199426
 20
511.5973575215
 11
650.8891301282
 21
467.9968818881
  0
LINE
  5
2FC
100
AcDbEntity
  8
0
100
AcDbLine
 62
7
  6
CONTINUOUS
 10
739.0143685471
 20
357.8967001647
 11
755.9850019506
 21
348.0989220562
  0
LINE
  5
2FD
100
AcDbEntity
  8
0
100
AcDbLine
 62
7
  6
CONTINUOUS
 10
671.6982439849
 20
446.3250615352
 11
671.6982439849
 21
453.1020315974
  0
LINE
  5
2FE
100
AcDbEntity
  8
0
100
AcDbLine
 62
7
  6
CONTINUOUS
 10
672.6881934785
 20
446.3250639147
 11
672.6881934785
 21
453.1020339769
  0
LINE
  5
2FF
100
AcDbEntity
  8
0
100
AcDbLine
 62
7
  6
CONTINUOUS
 10
728.4078109888
 20
511.3992604055
 11
652.8891211744
 21
467.798784772
  0
LINE
  5
300
100
AcDbEntity
  8
0
100
AcDbLine
 62
7
  6
CONTINUOUS
 10
780.9452792299
 20
538.0577349623
 11
761.6448141912
 21
526.9146727919
  0
LINE
  5
301
100
AcDbEntity
  8
0
100
AcDbLine
 62
7
  6
CONTINUOUS
 10
780.945790956
 20
537.2415279886
 11
761.6418562
 21
526.0964625879
  0
LINE
  5
302
100
AcDbEntity
  8
02___PRT_ALL_AXES
100
AcDbLine
 62
7
  6
CONTINUOUS
 10
681.0690245357
 20
449.2266574457
 11
681.2045895492
 21
449.8891360988
  0
LINE
  5
303
100
AcDbEntity
  8
0
100
AcDbLine
 62
7
  6
CONTINUOUS
 10
745.3784443924
 20
501.601482297
 11
669.8597545779
 21
458.0010066635
  0
LINE
  5
304
100
AcDbEntity
  8
0
100
AcDbLine
 62
7
  6
CONTINUOUS
 10
748.206883293
 20
496.7025096104
 11
672.6881934785
 21
453.1020339769
  0
LINE
  5
305
100
AcDbEntity
  8
0
100
AcDbLine
 62
7
  6
CONTINUOUS
 10
672.6881934785
 20
446.3250639147
 11
748.206883293
 21
489.9255395482
  0
LINE
  5
306
100
AcDbEntity
  8
0
100
AcDbLine
 62
7
  6
CONTINUOUS
 10
790.3503090849
 20
359.529793378
 11
781.1508141484
 21
364.8410041003
  0
LINE
  5
307
100
AcDbEntity
  8
0
100
AcDbLine
 62
7
  6
CONTINUOUS
 10
790.7003031464
 20
359.5644628971
 11
781.1508141484
 21
365.0777382138
  0
LWPOLYLINE
  5
308
100
AcDbEntity
  8
0
100
AcDbPolyline
 62
7
  6
CONTINUOUS
 90
23
 70
0
 10
700.5403016099
 20
534.2170999188
 10
700.5407136573
 20
534.0639069011
 10
700.5490575039
 20
533.8001308037
 10
700.5670582033
 20
533.5430027292
 10
700.5943060956
 20
533.2952390546
 10
700.630593011
 20
533.0557819964
 10
700.6768041889
 20
532.8193302486
 10
700.7334948042
 20
532.5855815017
 10
700.8005694597
 20
532.356706399
 10
700.8790833342
 20
532.1307655428
 10
700.9692135885
 20
531.9089946632
 10
701.07061288
 20
531.6931660713
 10
701.1841402522
 20
531.482121431
 10
701.3091538594
 20
531.2774866016
 10
701.44451937
 20
531.080776659
 10
701.5906773249
 20
530.8908256535
 10
701.7462711072
 20
530.7087968849
 10
701.9101248754
 20
530.5351625752
 10
702.0832029297
 20
530.3681729836
 10
702.2636050939
 20
530.2090110561
 10
702.451371283
 20
530.0569416082
 10
702.6506574589
 20
529.908458845
 10
702.8624966684
 20
529.7631637761
  0
LINE
  5
309
100
AcDbEntity
  8
0
100
AcDbLine
 62
7
  6
CONTINUOUS
 10
700.5482794166
 20
535.2680695547
 11
700.5403026502
 21
534.2172212435
  0
LINE
  5
30A
100
AcDbEntity
  8
0
100
AcDbLine
 62
7
  6
CONTINUOUS
 10
700.7532843911
 20
534.9766989343
 11
700.7453097979
 21
533.9261369219
  0
LINE
  5
30B
100
AcDbEntity
  8
0
100
AcDbLine
 62
7
  6
CONTINUOUS
 10
671.8597456242
 20
444.4939201482
 11
747.3784354386
 21
488.0943957817
  0
LINE
  5
30C
100
AcDbEntity
  8
0
100
AcDbLine
 62
7
  6
CONTINUOUS
 10
652.5391271129
 20
454.4551258536
 11
669.5097605164
 21
444.6573477451
  0
LINE
  5
30D
100
AcDbEntity
  8
0
100
AcDbLine
 62
7
  6
CONTINUOUS
 10
652.3941484884
 20
454.7755761571
 11
669.3647818919
 21
444.9777980486
  0
LINE
  5
30E
100
AcDbEntity
  8
0
100
AcDbLine
 62
7
  6
CONTINUOUS
 10
669.3647818919
 20
457.1436840638
 11
652.3941484884
 21
466.9414621723
  0
LINE
  5
30F
100
AcDbEntity
  8
0
100
AcDbLine
 62
7
  6
CONTINUOUS
 10
669.8597545779
 20
458.0010066635
 11
652.8891211744
 21
467.798784772
  0
LINE
  5
310
100
AcDbEntity
  8
0
100
AcDbLine
 62
7
  6
CONTINUOUS
 10
722.1294693039
 20
521.5802659756
 11
722.1214925958
 21
522.6403171024
  0
LINE
  5
311
100
AcDbEntity
  8
0
100
AcDbLine
 62
7
  6
CONTINUOUS
 10
723.1193999455
 20
521.5852675534
 11
723.1114231838
 21
522.6453257975
  0
LINE
  5
312
100
AcDbEntity
  8
0
100
AcDbLine
 62
7
  6
CONTINUOUS
 10
728.3575025217
 20
358.9581046921
 11
728.3575025217
 21
357.0801491327
  0
LINE
  5
313
100
AcDbEntity
  8
0
100
AcDbLine
 62
7
  6
CONTINUOUS
 10
729.8219833357
 20
356.9168839228
 11
729.8219833357
 21
355.0389283634
  0
LINE
  5
314
100
AcDbEntity
  8
AXES_REF
100
AcDbLine
 62
7
  6
CONTINUOUS
 10
737.8133466442
 20
339.1171571442
 11
737.8133466442
 21
340.7501619784
  0
LINE
  5
315
100
AcDbEntity
  8
0
100
AcDbLine
 62
7
  6
CONTINUOUS
 10
737.8427838959
 20
482.5890176593
 11
737.8427838959
 21
359.5296767802
  0
LINE
  5
316
100
AcDbEntity
  8
0
100
AcDbLine
 62
7
  6
CONTINUOUS
 10
739.0143685471
 20
483.2654283354
 11
739.0143685471
 21
357.8967001647
  0
LINE
  5
317
100
AcDbEntity
  8
AXES_REF
100
AcDbLine
 62
7
  6
CONTINUOUS
 10
743.7560699747
 20
330.6268416224
 11
743.7560699747
 21
329.4392610912
  0
LINE
  5
318
100
AcDbEntity
  8
0
100
AcDbLine
 62
7
  6
CONTINUOUS
 10
748.3133466442
 20
344.3631762973
 11
748.3133466442
 21
338.8640422343
  0
LINE
  5
319
100
AcDbEntity
  8
0
100
AcDbLine
 62
7
  6
CONTINUOUS
 10
748.3133466442
 20
325.1751708681
 11
748.3133466442
 21
319.9293503416
  0
LINE
  5
31A
100
AcDbEntity
  8
0
100
AcDbLine
 62
2
  6
CONTINUOUS
 10
749.3633466442
 20
343.7569722288
 11
749.3633466442
 21
337.4997232425
  0
LINE
  5
31B
100
AcDbEntity
  8
0
100
AcDbLine
 62
2
  6
CONTINUOUS
 10
749.3633466442
 20
324.5689667997
 11
749.3633466442
 21
318.7045967159
  0
LINE
  5
31C
100
AcDbEntity
  8
AXES_REF
100
AcDbLine
 62
7
  6
CONTINUOUS
 10
754.778819709
 20
326.4909570527
 11
754.778819709
 21
323.0754175343
  0
LINE
  5
31D
100
AcDbEntity
  8
0
100
AcDbLine
 62
7
  6
CONTINUOUS
 10
755.277933441
 20
342.22021676
 11
755.277933441
 21
340.3422612006
  0
LINE
  5
31E
100
AcDbEntity
  8
0
100
AcDbLine
 62
7
  6
CONTINUOUS
 10
755.9850019506
 20
526.0964489905
 11
755.9850019506
 21
519.972680862
  0
LINE
  5
31F
100
AcDbEntity
  8
0
100
AcDbLine
 62
7
  6
CONTINUOUS
 10
755.9850019506
 20
482.1686189489
 11
755.9850019506
 21
348.0989220562
  0
LINE
  5
320
100
AcDbEntity
  8
0
100
AcDbLine
 62
7
  6
CONTINUOUS
 10
761.6418562
 20
526.0964625879
 11
761.6418562
 21
519.9726944594
  0
LINE
  5
321
100
AcDbEntity
  8
0
100
AcDbLine
 62
7
  6
CONTINUOUS
 10
761.6418562
 20
482.1686325463
 11
761.6418562
 21
348.0989356536
  0
LINE
  5
322
100
AcDbEntity
  8
0
100
AcDbLine
 62
7
  6
CONTINUOUS
 10
762.3490012528
 20
342.2202337568
 11
762.3490012528
 21
340.3422781974
  0
LINE
  5
323
100
AcDbEntity
  8
0
100
AcDbLine
 62
2
  6
CONTINUOUS
 10
768.2633466442
 20
343.7569067186
 11
768.2633466442
 21
337.5045967499
  0
LINE
  5
324
100
AcDbEntity
  8
0
100
AcDbLine
 62
2
  6
CONTINUOUS
 10
768.2633466442
 20
324.5008381437
 11
768.2633466442
 21
318.7045967159
  0
LINE
  5
325
100
AcDbEntity
  8
0
100
AcDbLine
 62
7
  6
CONTINUOUS
 10
769.3133466442
 20
344.3631208827
 11
769.3133466442
 21
338.8629460785
  0
LINE
  5
326
100
AcDbEntity
  8
0
100
AcDbLine
 62
7
  6
CONTINUOUS
 10
769.3133466442
 20
325.1029735023
 11
769.3133466442
 21
319.9293503416
  0
LINE
  5
327
100
AcDbEntity
  8
AXES_REF
100
AcDbLine
 62
7
  6
CONTINUOUS
 10
769.8360963786
 20
328.3304469225
 11
769.8360963786
 21
325.4047918331
  0
LINE
  5
328
100
AcDbEntity
  8
AXES_REF
100
AcDbLine
 62
7
  6
CONTINUOUS
 10
779.8133466442
 20
339.1171571442
 11
779.8133466442
 21
340.7501619784
  0
LWPOLYLINE
  5
329
100
AcDbEntity
  8
0
100
AcDbPolyline
 62
7
  6
CONTINUOUS
 90
10
 70
0
 10
781.1505222709
 20
538.3381777355
 10
781.1910774089
 20
540.2502257263
 10
781.2208098846
 20
542.2955674772
 10
781.236241888
 20
544.333063263
 10
781.2373717411
 20
546.3625767601
 10
781.2241986722
 20
548.3839717154
 10
781.1967229666
 20
550.3971121516
 10
781.1549456772
 20
552.4018631962
 10
781.0988690108
 20
554.3980910145
 10
781.0327688059
 20
556.2757712238
  0
LINE
  5
32A
100
AcDbEntity
  8
0
100
AcDbLine
 62
7
  6
CONTINUOUS
 10
746.5497362222
 20
487.615948922
 11
755.9850019506
 21
482.1686189489
  0
LINE
  5
32B
100
AcDbEntity
  8
0
100
AcDbLine
 62
7
  6
CONTINUOUS
 10
780.945790956
 20
537.2415279886
 11
780.945790956
 21
359.2440010543
  0
LINE
  5
32C
100
AcDbEntity
  8
0
100
AcDbLine
 62
7
  6
CONTINUOUS
 10
781.1508141484
 20
537.5272965167
 11
781.1508141484
 21
359.5297695825
  0
LWPOLYLINE
  5
32D
100
AcDbEntity
  8
0
100
AcDbPolyline
 62
7
  6
CONTINUOUS
 90
16
 70
0
 10
719.9408028343
 20
519.8891446569
 10
720.0350138479
 20
519.8356558181
 10
720.2273289724
 20
519.7323856034
 10
720.4166135709
 20
519.6391805517
 10
720.602760842
 20
519.5565742036
 10
720.7858744216
 20
519.4850479245
 10
720.9664232312
 20
519.4250414071
 10
721.1445212328
 20
519.3772435015
 10
721.3199519734
 20
519.3424748273
 10
721.4927369949
 20
519.3215191876
 10
721.6628361811
 20
519.3152226145
 10
721.8291606142
 20
519.3243822743
 10
721.9897065763
 20
519.3493210594
 10
722.1428838327
 20
519.3897554461
 10
722.2877553256
 20
519.4451536213
 10
722.4188673167
 20
519.511984709
  0
LINE
  5
32E
100
AcDbEntity
  8
0
100
AcDbLine
 62
7
  6
CONTINUOUS
 10
745.3784443924
 20
501.601482297
 11
728.4078109888
 21
511.3992604055
  0
LINE
  5
32F
100
AcDbEntity
  8
0
100
AcDbLine
 62
7
  6
CONTINUOUS
 10
703.2236616643
 20
529.5405721658
 11
719.9410746756
 21
519.8889876116
  0
LINE
  5
330
100
AcDbEntity
  8
0
100
AcDbLine
 62
7
  6
CONTINUOUS
 10
703.0786830398
 20
529.8610224693
 11
719.796096062
 21
520.2094379088
  0
LWPOLYLINE
  5
331
100
AcDbEntity
  8
0
100
AcDbPolyline
 62
7
  6
CONTINUOUS
 90
3
 70
0
 10
702.8624966684
 20
529.7631637761
 10
703.084749328
 20
529.6227644932
 10
703.2235654792
 20
529.5406275822
  0
LINE
  5
332
100
AcDbEntity
  8
0
100
AcDbLine
 62
7
  6
CONTINUOUS
 10
790.8452858925
 20
358.6724731578
 11
790.8452858925
 21
356.7945175984
  0
LINE
  5
333
100
AcDbEntity
  8
0
100
AcDbLine
 62
7
  6
CONTINUOUS
 10
791.0503090849
 20
358.958241686
 11
791.0503090849
 21
357.0802861266
  0
LINE
  5
334
100
AcDbEntity
  8
0
100
AcDbLine
 62
7
  6
CONTINUOUS
 10
737.8427838959
 20
365.8668565374
 11
729.9669322705
 21
361.3197586238
  0
LINE
  5
335
100
AcDbEntity
  8
0
100
AcDbLine
 62
7
  6
CONTINUOUS
 10
737.8427838959
 20
365.6301190587
 11
730.3169307036
 21
361.2850916285
  0
LINE
  5
336
100
AcDbEntity
  8
0
100
AcDbLine
 62
7
  6
CONTINUOUS
 10
755.9850019506
 20
519.972680862
 11
739.600775203
 21
529.4319045889
  0
LINE
  5
337
100
AcDbEntity
  8
AXES_REF
100
AcDbLine
 62
7
  6
CONTINUOUS
 10
772.2539943781
 20
328.9816454036
 11
771.4527253143
 21
327.2551464497
  0
LINE
  5
338
100
AcDbEntity
  8
0
100
AcDbLine
 62
7
  6
CONTINUOUS
 10
744.9041897859
 20
532.4938141489
 11
755.9850019506
 21
526.0964489905
  0
LINE
  5
339
100
AcDbEntity
  8
0
100
AcDbLine
 62
7
  6
CONTINUOUS
 10
755.9839686202
 20
526.9135479877
 11
745.6113117303
 21
532.9020687568
  0
LINE
  5
33A
100
AcDbEntity
  8
0
100
AcDbLine
 62
7
  6
CONTINUOUS
 10
755.9244421927
 20
528.4968342868
 11
746.9527345247
 21
533.6765349453
  0
LINE
  5
33B
100
AcDbEntity
  8
0
100
AcDbLine
 62
7
  6
CONTINUOUS
 10
780.945790956
 20
359.2440010543
 11
761.6418562
 21
348.0989356536
  0
LINE
  5
33C
100
AcDbEntity
  8
0
100
AcDbLine
 62
7
  6
CONTINUOUS
 10
761.8540244452
 20
343.0775539769
 11
790.3503090849
 21
359.529793378
  0
LINE
  5
33D
100
AcDbEntity
  8
0
100
AcDbLine
 62
7
  6
CONTINUOUS
 10
762.3490012528
 20
342.2202337568
 11
790.8452858925
 21
358.6724731578
  0
LINE
  5
33E
100
AcDbEntity
  8
0
100
AcDbLine
 62
7
  6
CONTINUOUS
 10
762.3490012528
 20
340.3422781974
 11
790.8452858925
 21
356.7945175984
  0
LINE
  5
33F
100
AcDbEntity
  8
0
100
AcDbLine
 62
7
  6
CONTINUOUS
 10
780.9457868344
 20
537.8130674245
 11
780.7336416976
 21
537.9355467054
  0
LINE
  5
340
100
AcDbEntity
  8
AXES_REF
100
AcDbLine
 62
7
  6
CONTINUOUS
 10
768.4220429604
 20
324.5883643676
 11
769.8361912681
 21
325.4048466173
  0
LINE
  5
341
100
AcDbEntity
  8
0
100
AcDbLine
 62
7
  6
CONTINUOUS
 10
765.1774441381
 20
315.0304934157
 11
765.33643111
 21
315.1222872112
  0
LWPOLYLINE
  5
342
100
AcDbEntity
  8
0
100
AcDbPolyline
 62
7
  6
CONTINUOUS
 90
10
 70
0
 10
780.6950397678
 20
556.8480037759
 10
778.3996148014
 20
558.2271453926
 10
775.999141003
 20
559.6555447693
 10
773.5989120804
 20
561.0696359657
 10
771.1989997306
 20
562.4693821685
 10
768.7994726957
 20
563.8547448309
 10
766.4003990611
 20
565.2256846033
 10
764.0018434529
 20
566.5821611846
 10
761.6038676899
 20
567.9241335758
 10
759.302896929
 20
569.1984763254
  0
LINE
  5
343
100
AcDbEntity
  8
0
100
AcDbLine
 62
7
  6
CONTINUOUS
 10
135.5349893969
 20
513.0690878551
 11
135.5349893969
 21
468.4690878551
  0
LINE
  5
344
100
AcDbEntity
  8
0
100
AcDbLine
 62
7
  6
CONTINUOUS
 10
136.2349893969
 20
467.7690878551
 11
136.2349893969
 21
513.7690878551
  0
LWPOLYLINE
  5
345
100
AcDbEntity
  8
0
100
AcDbPolyline
 62
7
  6
CONTINUOUS
 90
19
 70
0
 10
142.3239819665
 20
475.5677322665
 10
142.3242069522
 20
475.5492656989
 10
142.3426139811
 20
475.4041941208
 10
142.3846760082
 20
475.2771420318
 10
142.4430544078
 20
475.1691888809
 10
142.5104475011
 20
475.0812458582
 10
142.5786169556
 20
475.0138205039
 10
142.6394435352
 20
474.9657714206
 10
142.6920017957
 20
474.9311610812
 10
142.7409054504
 20
474.9035932361
 10
142.7863499463
 20
474.881318668
 10
142.8267479053
 20
474.8638108435
 10
142.865616895
 20
474.8487089138
 10
142.9035757403
 20
474.8353766976
 10
142.9397878948
 20
474.8237770585
 10
142.9758565073
 20
474.8131559968
 10
143.0122983379
 20
474.8032370229
 10
143.0485316183
 20
474.7940702191
 10
143.0774705985
 20
474.7871819835
  0
LINE
  5
346
100
AcDbEntity
  8
0
100
AcDbLine
 62
7
  6
CONTINUOUS
 10
142.3239779526
 20
505.970993892
 11
142.3239819688
 21
505.9704426859
  0
LINE
  5
347
100
AcDbEntity
  8
0
100
AcDbLine
 62
7
  6
CONTINUOUS
 10
142.323977687
 20
505.9708840071
 11
142.323977687
 21
495.2690878534
  0
LINE
  5
348
100
AcDbEntity
  8
0
100
AcDbLine
 62
7
  6
CONTINUOUS
 10
142.323977687
 20
486.2690878559
 11
142.323977687
 21
475.5672918193
  0
LINE
  5
349
100
AcDbEntity
  8
0
100
AcDbLine
 62
7
  6
CONTINUOUS
 10
143.210730821
 20
474.9595740706
 11
143.210730821
 21
506.5786016396
  0
LINE
  5
34A
100
AcDbEntity
  8
0
100
AcDbLine
 62
7
  6
CONTINUOUS
 10
142.3239819519
 20
475.5677322396
 11
142.3239777308
 21
475.567336447
  0
LINE
  5
34B
100
AcDbEntity
  8
03___PRT_ALL_CURVES
100
AcDbLine
 62
40
  6
CONTINUOUS
 10
157.5649893969
 20
497.1190878551
 11
157.5649893969
 21
484.419087291
  0
LINE
  5
34C
100
AcDbEntity
  8
03___PRT_ALL_CURVES
100
AcDbLine
 62
40
  6
CONTINUOUS
 10
159.5049893969
 20
484.4190878551
 11
159.5049893969
 21
497.1190884192
  0
LINE
  5
34D
100
AcDbEntity
  8
0
100
AcDbLine
 62
7
  6
CONTINUOUS
 10
176.5349893969
 20
468.4690878551
 11
176.5349893958
 21
467.7690878551
  0
LINE
  5
34E
100
AcDbEntity
  8
0
100
AcDbLine
 62
7
  6
CONTINUOUS
 10
176.5349893969
 20
513.0690878551
 11
176.5349893969
 21
513.7690878551
  0
LINE
  5
34F
100
AcDbEntity
  8
0
100
AcDbLine
 62
7
  6
CONTINUOUS
 10
180.8349893969
 20
472.7690878551
 11
180.8349893969
 21
474.7690878551
  0
LINE
  5
350
100
AcDbEntity
  8
0
100
AcDbLine
 62
7
  6
CONTINUOUS
 10
180.8349893969
 20
506.7690878551
 11
180.8349893969
 21
508.7690878551
  0
LINE
  5
351
100
AcDbEntity
  8
0
100
AcDbLine
 62
7
  6
CONTINUOUS
 10
181.5349893969
 20
472.7690878551
 11
181.5349893969
 21
474.7690878551
  0
LINE
  5
352
100
AcDbEntity
  8
0
100
AcDbLine
 62
7
  6
CONTINUOUS
 10
181.5349893969
 20
506.7690878551
 11
181.5349893969
 21
508.7690878551
  0
LINE
  5
353
100
AcDbEntity
  8
0
100
AcDbLine
 62
7
  6
CONTINUOUS
 10
189.5349893969
 20
506.7690878551
 11
189.5349893969
 21
506.5901896387
  0
LINE
  5
354
100
AcDbEntity
  8
0
100
AcDbLine
 62
7
  6
CONTINUOUS
 10
189.5349893969
 20
474.947986178
 11
189.5349893969
 21
474.7690878551
  0
LINE
  5
355
100
AcDbEntity
  8
0
100
AcDbLine
 62
7
  6
CONTINUOUS
 10
189.5950720919
 20
474.9479885121
 11
189.5950720916
 21
474.9482932661
  0
LINE
  5
356
100
AcDbEntity
  8
0
100
AcDbLine
 62
7
  6
CONTINUOUS
 10
189.5950720916
 20
506.5901870654
 11
189.5950720916
 21
506.5898824441
  0
LINE
  5
357
100
AcDbEntity
  8
0
100
AcDbLine
 62
7
  6
CONTINUOUS
 10
136.2349893969
 20
467.7690878551
 11
176.5349893969
 21
467.7690878551
  0
LINE
  5
358
100
AcDbEntity
  8
0
100
AcDbLine
 62
7
  6
CONTINUOUS
 10
135.5349893969
 20
468.4690878551
 11
176.5349893969
 21
468.4690878551
  0
LINE
  5
359
100
AcDbEntity
  8
0
100
AcDbLine
 62
7
  6
CONTINUOUS
 10
180.8349893969
 20
472.7690878551
 11
181.5349893969
 21
472.7690878551
  0
LINE
  5
35A
100
AcDbEntity
  8
0
100
AcDbLine
 62
7
  6
CONTINUOUS
 10
171.3191183619
 20
474.8284346481
 11
171.3183250817
 21
474.8283803164
  0
LINE
  5
35B
100
AcDbEntity
  8
0
100
AcDbLine
 62
7
  6
CONTINUOUS
 10
171.3183250817
 20
474.8283803164
 11
171.3298520049
 21
474.8290806113
  0
LINE
  5
35C
100
AcDbEntity
  8
0
100
AcDbLine
 62
7
  6
CONTINUOUS
 10
171.3298520049
 20
474.8290806113
 11
171.3631407356
 21
474.8308733696
  0
LINE
  5
35D
100
AcDbEntity
  8
0
100
AcDbLine
 62
7
  6
CONTINUOUS
 10
171.3631407356
 20
474.8308733696
 11
171.4177176752
 21
474.8334650044
  0
LINE
  5
35E
100
AcDbEntity
  8
0
100
AcDbLine
 62
7
  6
CONTINUOUS
 10
171.4177176752
 20
474.8334650044
 11
171.4927823629
 21
474.83662232
  0
LINE
  5
35F
100
AcDbEntity
  8
0
100
AcDbLine
 62
7
  6
CONTINUOUS
 10
171.4927823629
 20
474.83662232
 11
171.6442573549
 21
474.8421284075
  0
LINE
  5
360
100
AcDbEntity
  8
0
100
AcDbLine
 62
7
  6
CONTINUOUS
 10
171.6442573549
 20
474.8421284075
 11
171.8435857745
 21
474.8482781007
  0
LINE
  5
361
100
AcDbEntity
  8
0
100
AcDbLine
 62
7
  6
CONTINUOUS
 10
171.8435857745
 20
474.8482781007
 11
172.0926227403
 21
474.8548496044
  0
LINE
  5
362
100
AcDbEntity
  8
0
100
AcDbLine
 62
7
  6
CONTINUOUS
 10
172.0926227403
 20
474.8548496044
 11
172.3938302319
 21
474.8616900638
  0
LINE
  5
363
100
AcDbEntity
  8
0
100
AcDbLine
 62
7
  6
CONTINUOUS
 10
172.3938302319
 20
474.8616900638
 11
172.7503040358
 21
474.868691226
  0
LINE
  5
364
100
AcDbEntity
  8
0
100
AcDbLine
 62
7
  6
CONTINUOUS
 10
172.7503040358
 20
474.868691226
 11
173.1653410798
 21
474.8757654312
  0
LINE
  5
365
100
AcDbEntity
  8
0
100
AcDbLine
 62
7
  6
CONTINUOUS
 10
173.1653410798
 20
474.8757654312
 11
173.6419832493
 21
474.8828324742
  0
LINE
  5
366
100
AcDbEntity
  8
0
100
AcDbLine
 62
7
  6
CONTINUOUS
 10
173.6419832493
 20
474.8828324742
 11
174.182612285
 21
474.8898143212
  0
LINE
  5
367
100
AcDbEntity
  8
0
100
AcDbLine
 62
7
  6
CONTINUOUS
 10
174.182612285
 20
474.8898143212
 11
174.7886219682
 21
474.8966335463
  0
LINE
  5
368
100
AcDbEntity
  8
0
100
AcDbLine
 62
7
  6
CONTINUOUS
 10
174.7886219682
 20
474.8966335463
 11
175.4600942756
 21
474.9032133446
  0
LINE
  5
369
100
AcDbEntity
  8
0
100
AcDbLine
 62
7
  6
CONTINUOUS
 10
175.4600942756
 20
474.9032133446
 11
176.1961231084
 21
474.9094840151
  0
LINE
  5
36A
100
AcDbEntity
  8
0
100
AcDbLine
 62
7
  6
CONTINUOUS
 10
176.1961231084
 20
474.9094840151
 11
176.9962799829
 21
474.9153941026
  0
LINE
  5
36B
100
AcDbEntity
  8
0
100
AcDbLine
 62
7
  6
CONTINUOUS
 10
176.9962799829
 20
474.9153941026
 11
177.8591113626
 21
474.9208950175
  0
LINE
  5
36C
100
AcDbEntity
  8
0
100
AcDbLine
 62
7
  6
CONTINUOUS
 10
177.8591113626
 20
474.9208950175
 11
178.7819896898
 21
474.9259422398
  0
LINE
  5
36D
100
AcDbEntity
  8
0
100
AcDbLine
 62
7
  6
CONTINUOUS
 10
178.7819896898
 20
474.9259422398
 11
179.7618647906
 21
474.9305009289
  0
LINE
  5
36E
100
AcDbEntity
  8
0
100
AcDbLine
 62
7
  6
CONTINUOUS
 10
179.7618647906
 20
474.9305009289
 11
180.7956423089
 21
474.9345465198
  0
LINE
  5
36F
100
AcDbEntity
  8
0
100
AcDbLine
 62
7
  6
CONTINUOUS
 10
180.7956423089
 20
474.9345465198
 11
181.8806179146
 21
474.9380643022
  0
LINE
  5
370
100
AcDbEntity
  8
0
100
AcDbLine
 62
7
  6
CONTINUOUS
 10
181.8806179146
 20
474.9380643022
 11
183.0145178247
 21
474.9410470252
  0
LINE
  5
371
100
AcDbEntity
  8
0
100
AcDbLine
 62
7
  6
CONTINUOUS
 10
183.0145178247
 20
474.9410470252
 11
184.193900529
 21
474.9434900004
  0
LINE
  5
372
100
AcDbEntity
  8
0
100
AcDbLine
 62
7
  6
CONTINUOUS
 10
184.193900529
 20
474.9434900004
 11
185.4152735656
 21
474.9453949241
  0
LINE
  5
373
100
AcDbEntity
  8
0
100
AcDbLine
 62
7
  6
CONTINUOUS
 10
185.4152735656
 20
474.9453949241
 11
186.6759822415
 21
474.9467697648
  0
LINE
  5
374
100
AcDbEntity
  8
0
100
AcDbLine
 62
7
  6
CONTINUOUS
 10
186.6759822415
 20
474.9467697648
 11
187.9740883245
 21
474.9476263357
  0
LINE
  5
375
100
AcDbEntity
  8
0
100
AcDbLine
 62
7
  6
CONTINUOUS
 10
143.2357130898
 20
474.7690878551
 11
170.5308061482
 21
474.7690878551
  0
LINE
  5
376
100
AcDbEntity
  8
0
100
AcDbLine
 62
7
  6
CONTINUOUS
 10
170.5349893969
 20
474.7690878551
 11
296.3349893969
 21
474.7690878551
  0
LINE
  5
377
100
AcDbEntity
  8
0
100
AcDbLine
 62
7
  6
CONTINUOUS
 10
189.5950720919
 20
474.9479886448
 11
224.8349893969
 21
474.9479886448
  0
LINE
  5
378
100
AcDbEntity
  8
0
100
AcDbLine
 62
7
  6
CONTINUOUS
 10
187.9740883245
 20
474.9476263357
 11
189.5950720919
 21
474.9479885121
  0
LINE
  5
379
100
AcDbEntity
  8
0
100
AcDbLine
 62
7
  6
CONTINUOUS
 10
224.8349893969
 20
474.9595740706
 11
143.2107286891
 21
474.9595740706
  0
LINE
  5
37A
100
AcDbEntity
  8
0
100
AcDbLine
 62
7
  6
CONTINUOUS
 10
224.8349893969
 20
475.6430058492
 11
143.2107204924
 21
475.6430058492
  0
LINE
  5
37B
100
AcDbEntity
  8
0
100
AcDbLine
 62
7
  6
CONTINUOUS
 10
297.0349893969
 20
478.7690878551
 11
225.5349893969
 21
478.7690878551
  0
LINE
  5
37C
100
AcDbEntity
  8
03___PRT_ALL_CURVES
100
AcDbLine
 62
40
  6
CONTINUOUS
 10
157.5649893969
 20
484.4190878551
 11
159.5049893969
 21
484.4190878551
  0
LINE
  5
37D
100
AcDbEntity
  8
0
100
AcDbLine
 62
7
  6
CONTINUOUS
 10
224.8349893969
 20
506.5901870654
 11
224.8349893969
 21
506.5898824372
  0
LINE
  5
37E
100
AcDbEntity
  8
0
100
AcDbLine
 62
7
  6
CONTINUOUS
 10
224.8349893969
 20
506.5786016396
 11
224.8349893969
 21
474.9595740706
  0
LINE
  5
37F
100
AcDbEntity
  8
0
100
AcDbLine
 62
7
  6
CONTINUOUS
 10
224.8349893969
 20
474.9482932731
 11
224.8349893969
 21
474.9479886449
  0
LINE
  5
380
100
AcDbEntity
  8
0
100
AcDbLine
 62
7
  6
CONTINUOUS
 10
225.5349893969
 20
505.8786283762
 11
225.5349893969
 21
475.6595443432
  0
LINE
  5
381
100
AcDbEntity
  8
0
100
AcDbLine
 62
7
  6
CONTINUOUS
 10
225.5349893969
 20
505.8903154079
 11
225.5349893969
 21
505.889909098
  0
LINE
  5
382
100
AcDbEntity
  8
0
100
AcDbLine
 62
7
  6
CONTINUOUS
 10
225.5349893969
 20
475.6482666123
 11
225.5349893969
 21
475.6478835316
  0
LINE
  5
383
100
AcDbEntity
  8
03___PRT_ALL_CURVES
100
AcDbLine
 62
40
  6
CONTINUOUS
 10
159.5049893969
 20
497.1190878551
 11
157.5649893969
 21
497.1190878551
  0
LINE
  5
384
100
AcDbEntity
  8
0
100
AcDbLine
 62
7
  6
CONTINUOUS
 10
225.5349893969
 20
502.7690878551
 11
297.0349893969
 21
502.7690878551
  0
LINE
  5
385
100
AcDbEntity
  8
0
100
AcDbLine
 62
7
  6
CONTINUOUS
 10
224.8349893969
 20
505.8951698611
 11
143.2107306167
 21
505.8951698611
  0
LINE
  5
386
100
AcDbEntity
  8
0
100
AcDbLine
 62
7
  6
CONTINUOUS
 10
224.8349893969
 20
506.5786016396
 11
143.2110488547
 21
506.5786016396
  0
LINE
  5
387
100
AcDbEntity
  8
0
100
AcDbLine
 62
7
  6
CONTINUOUS
 10
143.2357130898
 20
506.7690878551
 11
170.5308061482
 21
506.7690878551
  0
LINE
  5
388
100
AcDbEntity
  8
0
100
AcDbLine
 62
7
  6
CONTINUOUS
 10
170.5349893969
 20
506.7690878551
 11
296.3349893969
 21
506.7690878551
  0
LINE
  5
389
100
AcDbEntity
  8
0
100
AcDbLine
 62
7
  6
CONTINUOUS
 10
224.8349893969
 20
506.5898824372
 11
188.8480581903
 21
506.590262526
  0
LINE
  5
38A
100
AcDbEntity
  8
0
100
AcDbLine
 62
7
  6
CONTINUOUS
 10
188.8480581903
 20
506.590262526
 11
187.5279732547
 21
506.5907835878
  0
LINE
  5
38B
100
AcDbEntity
  8
0
100
AcDbLine
 62
7
  6
CONTINUOUS
 10
187.5279732547
 20
506.5907835878
 11
186.2437033956
 21
506.5918139288
  0
LINE
  5
38C
100
AcDbEntity
  8
0
100
AcDbLine
 62
7
  6
CONTINUOUS
 10
186.2437033956
 20
506.5918139288
 11
184.9967924369
 21
506.5933665139
  0
LINE
  5
38D
100
AcDbEntity
  8
0
100
AcDbLine
 62
7
  6
CONTINUOUS
 10
184.9967924369
 20
506.5933665139
 11
183.7895787172
 21
506.5954526418
  0
LINE
  5
38E
100
AcDbEntity
  8
0
100
AcDbLine
 62
7
  6
CONTINUOUS
 10
183.7895787172
 20
506.5954526418
 11
182.625146005
 21
506.5980787145
  0
LINE
  5
38F
100
AcDbEntity
  8
0
100
AcDbLine
 62
7
  6
CONTINUOUS
 10
182.625146005
 20
506.5980787145
 11
181.5074597449
 21
506.6012434988
  0
LINE
  5
390
100
AcDbEntity
  8
0
100
AcDbLine
 62
7
  6
CONTINUOUS
 10
181.5074597449
 20
506.6012434988
 11
180.4394784085
 21
506.604941514
  0
LINE
  5
391
100
AcDbEntity
  8
0
100
AcDbLine
 62
7
  6
CONTINUOUS
 10
180.4394784085
 20
506.604941514
 11
179.423732307
 21
506.6091626143
  0
LINE
  5
392
100
AcDbEntity
  8
0
100
AcDbLine
 62
7
  6
CONTINUOUS
 10
179.423732307
 20
506.6091626143
 11
178.4632126438
 21
506.6138878835
  0
LINE
  5
393
100
AcDbEntity
  8
0
100
AcDbLine
 62
7
  6
CONTINUOUS
 10
178.4632126438
 20
506.6138878835
 11
177.561132324
 21
506.6190879848
  0
LINE
  5
394
100
AcDbEntity
  8
0
100
AcDbLine
 62
7
  6
CONTINUOUS
 10
177.561132324
 20
506.6190879848
 11
176.7204885899
 21
506.6247230737
  0
LINE
  5
395
100
AcDbEntity
  8
0
100
AcDbLine
 62
7
  6
CONTINUOUS
 10
176.7204885899
 20
506.6247230737
 11
175.94370692
 21
506.6307437034
  0
LINE
  5
396
100
AcDbEntity
  8
0
100
AcDbLine
 62
7
  6
CONTINUOUS
 10
175.94370692
 20
506.6307437034
 11
175.2313835858
 21
506.6371020838
  0
LINE
  5
397
100
AcDbEntity
  8
0
100
AcDbLine
 62
7
  6
CONTINUOUS
 10
175.2313835858
 20
506.6371020838
 11
174.5838990331
 21
506.6437419112
  0
LINE
  5
398
100
AcDbEntity
  8
0
100
AcDbLine
 62
7
  6
CONTINUOUS
 10
174.5838990331
 20
506.6437419112
 11
174.0015049808
 21
506.6505945895
  0
LINE
  5
399
100
AcDbEntity
  8
0
100
AcDbLine
 62
7
  6
CONTINUOUS
 10
174.0015049808
 20
506.6505945895
 11
173.4833551768
 21
506.6575881918
  0
LINE
  5
39A
100
AcDbEntity
  8
0
100
AcDbLine
 62
7
  6
CONTINUOUS
 10
173.4833551768
 20
506.6575881918
 11
173.0275395082
 21
506.6646508324
  0
LINE
  5
39B
100
AcDbEntity
  8
0
100
AcDbLine
 62
7
  6
CONTINUOUS
 10
173.0275395082
 20
506.6646508324
 11
172.6314175754
 21
506.6717098977
  0
LINE
  5
39C
100
AcDbEntity
  8
0
100
AcDbLine
 62
7
  6
CONTINUOUS
 10
172.6314175754
 20
506.6717098977
 11
172.3990281899
 21
506.6763759507
  0
LINE
  5
39D
100
AcDbEntity
  8
0
100
AcDbLine
 62
7
  6
CONTINUOUS
 10
172.3990281899
 20
506.6763759507
 11
172.1908706348
 21
506.6809817249
  0
LINE
  5
39E
100
AcDbEntity
  8
0
100
AcDbLine
 62
7
  6
CONTINUOUS
 10
172.1908706348
 20
506.6809817249
 11
172.0060320167
 21
506.6854992812
  0
LINE
  5
39F
100
AcDbEntity
  8
0
100
AcDbLine
 62
7
  6
CONTINUOUS
 10
172.0060320167
 20
506.6854992812
 11
171.8439437455
 21
506.6898873891
  0
LINE
  5
3A0
100
AcDbEntity
  8
0
100
AcDbLine
 62
7
  6
CONTINUOUS
 10
171.8439437455
 20
506.6898873891
 11
171.6421770315
 21
506.6961171206
  0
LINE
  5
3A1
100
AcDbEntity
  8
0
100
AcDbLine
 62
7
  6
CONTINUOUS
 10
171.6421770315
 20
506.6961171206
 11
171.4891905079
 21
506.7016964321
  0
LINE
  5
3A2
100
AcDbEntity
  8
0
100
AcDbLine
 62
7
  6
CONTINUOUS
 10
171.4891905079
 20
506.7016964321
 11
171.4138947623
 21
506.7048824571
  0
LINE
  5
3A3
100
AcDbEntity
  8
0
100
AcDbLine
 62
7
  6
CONTINUOUS
 10
171.4138947623
 20
506.7048824571
 11
171.3598461331
 21
506.7074704075
  0
LINE
  5
3A4
100
AcDbEntity
  8
0
100
AcDbLine
 62
7
  6
CONTINUOUS
 10
171.3598461331
 20
506.7074704075
 11
171.3330977696
 21
506.7089087836
  0
LINE
  5
3A5
100
AcDbEntity
  8
0
100
AcDbLine
 62
7
  6
CONTINUOUS
 10
180.8349893969
 20
508.7690878551
 11
181.5349893969
 21
508.769087854
  0
LINE
  5
3A6
100
AcDbEntity
  8
0
100
AcDbLine
 62
7
  6
CONTINUOUS
 10
135.5349893969
 20
513.0690878551
 11
176.5349893969
 21
513.0690878551
  0
LINE
  5
3A7
100
AcDbEntity
  8
0
100
AcDbLine
 62
7
  6
CONTINUOUS
 10
176.5349893969
 20
513.7690878551
 11
136.2349893969
 21
513.7690878551
  0
LWPOLYLINE
  5
3A8
100
AcDbEntity
  8
0
100
AcDbPolyline
 62
7
  6
CONTINUOUS
 90
19
 70
0
 10
143.0774856241
 20
506.7509972226
 10
143.0491364349
 20
506.7442532086
 10
143.0128769858
 20
506.7350902692
 10
142.9764064383
 20
506.7251751608
 10
142.9403072467
 20
506.7145578449
 10
142.9040638305
 20
506.7029622332
 10
142.8660740425
 20
506.6896352484
 10
142.8271756817
 20
506.6745399009
 10
142.7867489921
 20
506.6570399616
 10
142.7412727696
 20
506.6347746774
 10
142.6923362403
 20
506.607217336
 10
142.6397412345
 20
506.5726168123
 10
142.5788636366
 20
506.5245704141
 10
142.5106219195
 20
506.4571254774
 10
142.4431540762
 20
506.3691391733
 10
142.3847215905
 20
506.2611380937
 10
142.3426288284
 20
506.1340457883
 10
142.324207671
 20
505.9889380499
 10
142.3239819867
 20
505.9704427005
  0
LINE
  5
3A9
100
AcDbEntity
  8
0
100
AcDbLine
 62
7
  6
CONTINUOUS
 10
296.3349893969
 20
506.7690878551
 11
296.3349893969
 21
474.7690878551
  0
LINE
  5
3AA
100
AcDbEntity
  8
0
100
AcDbLine
 62
7
  6
CONTINUOUS
 10
297.0349893969
 20
506.0690878551
 11
297.0349893969
 21
475.4690878551
  0
ARC
  5
3AB
100
AcDbEntity
  8
0
100
AcDbCircle
 62
7
  6
CONTINUOUS
 10
445.5184283813
 20
19.1124111956
 40
294.6389078283
100
AcDbArc
 50
89.9963273109
 51
90.136891705
  0
ARC
  5
3AC
100
AcDbEntity
  8
0
100
AcDbCircle
 62
7
  6
CONTINUOUS
 10
445.5371184206
 20
279.0993211767
 40
34.009551476
100
AcDbArc
 50
88.8032374787
 51
89.9996690122
  0
ARC
  5
3AD
100
AcDbEntity
  8
0
100
AcDbCircle
 62
7
  6
CONTINUOUS
 10
445.5371392706
 20
279.2723558169
 40
33.829702001
100
AcDbArc
 50
88.8762786947
 51
89.9997025746
  0
ARC
  5
3AE
100
AcDbEntity
  8
0
100
AcDbCircle
 62
7
  6
CONTINUOUS
 10
445.5327973737
 20
341.7248216025
 40
31.7412225953
100
AcDbArc
 50
267.0841969993
 51
270.0081545222
  0
ARC
  5
3AF
100
AcDbEntity
  8
0
100
AcDbCircle
 62
7
  6
CONTINUOUS
 10
445.527416618
 20
341.6490775067
 40
30.8150933932
100
AcDbArc
 50
267.0049072863
 51
270.0184042636
  0
ARC
  5
3B0
100
AcDbEntity
  8
DATUM_AXIS
100
AcDbCircle
 62
7
  6
CONTINUOUS
 10
445.5340056655
 20
336.2097826746
 40
25.2290500773
100
AcDbArc
 50
266.3250041968
 51
270.0075153238
  0
ARC
  5
3B1
100
AcDbEntity
  8
0
100
AcDbCircle
 62
7
  6
CONTINUOUS
 10
444.4391113558
 20
331.633383532
 40
21.8345436331
100
AcDbArc
 50
260.9144429946
 51
261.5014713971
  0
ARC
  5
3B2
100
AcDbEntity
  8
02___PRT_ALL_AXES
100
AcDbCircle
 62
7
  6
CONTINUOUS
 10
442.1021185244
 20
296.4534127801
 40
16.8906189585
100
AcDbArc
 50
102.8612074316
 51
105.059271548
  0
ARC
  5
3B3
100
AcDbEntity
  8
DATUM_AXIS
100
AcDbCircle
 62
7
  6
CONTINUOUS
 10
444.2536169513
 20
325.2702201032
 40
14.2054309948
100
AcDbArc
 50
259.1497591874
 51
259.3385691815
  0
ARC
  5
3B4
100
AcDbEntity
  8
0
100
AcDbCircle
 62
7
  6
CONTINUOUS
 10
442.3245737868
 20
300.6396443499
 40
12.1849259785
100
AcDbArc
 50
105.0338999236
 51
105.9179687945
  0
ARC
  5
3B5
100
AcDbEntity
  8
0
100
AcDbCircle
 62
7
  6
CONTINUOUS
 10
433.537314888
 20
319.0101374636
 40
4.0
100
AcDbArc
 50
180.0
 51
270.0
  0
ARC
  5
3B6
100
AcDbEntity
  8
0
100
AcDbCircle
 62
7
  6
CONTINUOUS
 10
433.537314888
 20
327.3101374636
 40
4.0
100
AcDbArc
 50
89.999999833
 51
179.999999765
  0
ARC
  5
3B7
100
AcDbEntity
  8
0
100
AcDbCircle
 62
7
  6
CONTINUOUS
 10
433.537314888
 20
319.0101374636
 40
3.3
100
AcDbArc
 50
180.0
 51
270.0
  0
ARC
  5
3B8
100
AcDbEntity
  8
0
100
AcDbCircle
 62
7
  6
CONTINUOUS
 10
433.537314888
 20
327.3101374636
 40
3.3
100
AcDbArc
 50
90.0
 51
180.0
  0
ARC
  5
3B9
100
AcDbEntity
  8
0
100
AcDbCircle
 62
7
  6
CONTINUOUS
 10
428.537314888
 20
110.1101374636
 40
2.5
100
AcDbArc
 50
180.0
 51
270.0000002776
  0
ARC
  5
3BA
100
AcDbEntity
  8
0
100
AcDbCircle
 62
7
  6
CONTINUOUS
 10
438.3461767593
 20
312.5018143558
 40
1.2663203996
100
AcDbArc
 50
221.0073861998
 51
223.1826510452
  0
ARC
  5
3BB
100
AcDbEntity
  8
0
100
AcDbCircle
 62
7
  6
CONTINUOUS
 10
423.237314888
 20
135.1101374636
 40
0.7
100
AcDbArc
 50
90.0
 51
180.0
  0
ARC
  5
3BC
100
AcDbEntity
  8
0
100
AcDbCircle
 62
7
  6
CONTINUOUS
 10
430.4277744496
 20
376.631587188
 40
0.7
100
AcDbArc
 50
91.3540717688
 51
179.5
  0
ARC
  5
3BD
100
AcDbEntity
  8
0
100
AcDbCircle
 62
7
  6
CONTINUOUS
 10
445.537314888
 20
-262.5898625361
 40
640.0999999997
100
AcDbArc
 50
88.6459282312
 51
91.3540717688
  0
ARC
  5
3BE
100
AcDbEntity
  8
03___PRT_ALL_CURVES
100
AcDbCircle
 62
40
  6
CONTINUOUS
 10
445.537314888
 20
-262.5898625361
 40
640.0999999997
100
AcDbArc
 50
89.9267446325
 51
90.0726769371
  0
ARC
  5
3BF
100
AcDbEntity
  8
0
100
AcDbCircle
 62
7
  6
CONTINUOUS
 10
445.537314888
 20
-262.5898625361
 40
639.3999999997
100
AcDbArc
 50
88.6459282037
 51
91.3540727899
  0
ARC
  5
3C0
100
AcDbEntity
  8
0
100
AcDbCircle
 62
7
  6
CONTINUOUS
 10
445.5670994712
 20
-29.2591331733
 40
343.010452885
100
AcDbArc
 50
89.8843121283
 51
90.0049751572
  0
ARC
  5
3C1
100
AcDbEntity
  8
0
100
AcDbCircle
 62
7
  6
CONTINUOUS
 10
445.5375112447
 20
279.0992600074
 40
34.0096126453
100
AcDbArc
 50
90.000330801
 51
91.1965525996
  0
ARC
  5
3C2
100
AcDbEntity
  8
0
100
AcDbCircle
 62
7
  6
CONTINUOUS
 10
445.5374902341
 20
279.2721999989
 40
33.829857819
100
AcDbArc
 50
90.0002969741
 51
91.1231982041
  0
ARC
  5
3C3
100
AcDbEntity
  8
0
100
AcDbCircle
 62
7
  6
CONTINUOUS
 10
445.5418324022
 20
341.7248216025
 40
31.7412225953
100
AcDbArc
 50
269.9918454778
 51
272.9158030007
  0
ARC
  5
3C4
100
AcDbEntity
  8
0
100
AcDbCircle
 62
7
  6
CONTINUOUS
 10
445.5396632756
 20
341.9396548346
 40
31.10566922
100
AcDbArc
 50
269.9956743351
 51
272.981014115
  0
ARC
  5
3C5
100
AcDbEntity
  8
DATUM_AXIS
100
AcDbCircle
 62
7
  6
CONTINUOUS
 10
445.5406241104
 20
336.2097826746
 40
25.2290500773
100
AcDbArc
 50
269.9924846762
 51
273.6749958032
  0
ARC
  5
3C6
100
AcDbEntity
  8
0
100
AcDbCircle
 62
7
  6
CONTINUOUS
 10
446.6355184198
 20
331.6333835338
 40
21.8345436349
100
AcDbArc
 50
278.498528603
 51
279.0855570054
  0
ARC
  5
3C7
100
AcDbEntity
  8
02___PRT_ALL_AXES
100
AcDbCircle
 62
7
  6
CONTINUOUS
 10
448.8363161567
 20
295.9055447024
 40
17.4550612276
100
AcDbArc
 50
74.976271873
 51
77.1032491473
  0
ARC
  5
3C8
100
AcDbEntity
  8
DATUM_AXIS
100
AcDbCircle
 62
7
  6
CONTINUOUS
 10
446.8210128343
 20
325.2702200521
 40
14.2054309428
100
AcDbArc
 50
280.6614308183
 51
280.8502408131
  0
ARC
  5
3C9
100
AcDbEntity
  8
0
100
AcDbCircle
 62
7
  6
CONTINUOUS
 10
448.7503013129
 20
300.6405229498
 40
12.1840137987
100
AcDbArc
 50
74.0820817206
 51
74.9644580763
  0
ARC
  5
3CA
100
AcDbEntity
  8
0
100
AcDbCircle
 62
7
  6
CONTINUOUS
 10
457.537314888
 20
319.0101374636
 40
4.0
100
AcDbArc
 50
270.0
 51
360.0
  0
ARC
  5
3CB
100
AcDbEntity
  8
0
100
AcDbCircle
 62
7
  6
CONTINUOUS
 10
457.537314888
 20
327.3101374636
 40
4.0
100
AcDbArc
 50
359.999999833
 51
89.999999765
  0
ARC
  5
3CC
100
AcDbEntity
  8
0
100
AcDbCircle
 62
7
  6
CONTINUOUS
 10
457.537314888
 20
327.3101374636
 40
3.3
100
AcDbArc
 50
0.0
 51
90.0
  0
ARC
  5
3CD
100
AcDbEntity
  8
0
100
AcDbCircle
 62
7
  6
CONTINUOUS
 10
457.537314888
 20
319.0101374636
 40
3.3
100
AcDbArc
 50
270.0
 51
360.0
  0
ARC
  5
3CE
100
AcDbEntity
  8
0
100
AcDbCircle
 62
7
  6
CONTINUOUS
 10
462.537314888
 20
110.1101374636
 40
2.5
100
AcDbArc
 50
269.9999997224
 51
360.0
  0
ARC
  5
3CF
100
AcDbEntity
  8
0
100
AcDbCircle
 62
7
  6
CONTINUOUS
 10
452.7284817361
 20
312.5017880818
 40
1.2662814781
100
AcDbArc
 50
316.8173265505
 51
318.9940891588
  0
ARC
  5
3D0
100
AcDbEntity
  8
0
100
AcDbCircle
 62
7
  6
CONTINUOUS
 10
467.837314888
 20
135.1101374636
 40
0.7
100
AcDbArc
 50
0.0
 51
90.0
  0
ARC
  5
3D1
100
AcDbEntity
  8
0
100
AcDbCircle
 62
7
  6
CONTINUOUS
 10
460.6468553263
 20
376.631587188
 40
0.7
100
AcDbArc
 50
0.5
 51
88.6459282312
  0
ARC
  5
3D2
100
AcDbEntity
  8
0
100
AcDbCircle
 62
7
  6
CONTINUOUS
 10
442.323977687
 20
366.0601374636
 40
300.0
100
AcDbArc
 50
177.9416119903
 51
182.1490956269
  0
ARC
  5
3D3
100
AcDbEntity
  8
0
100
AcDbCircle
 62
7
  6
CONTINUOUS
 10
-125.2539988932
 20
366.0601374636
 40
300.0
100
AcDbArc
 50
357.8509043731
 51
358.2262759063
  0
ARC
  5
3D4
100
AcDbEntity
  8
0
100
AcDbCircle
 62
7
  6
CONTINUOUS
 10
442.4234749205
 20
366.0663891396
 40
299.399432249
100
AcDbArc
 50
177.9765587055
 51
182.1546057672
  0
ARC
  5
3D5
100
AcDbEntity
  8
0
100
AcDbCircle
 62
7
  6
CONTINUOUS
 10
-125.2549009303
 20
366.0950747795
 40
296.0009025698
100
AcDbArc
 50
357.8150876906
 51
358.2262752824
  0
ARC
  5
3D6
100
AcDbEntity
  8
0
100
AcDbCircle
 62
7
  6
CONTINUOUS
 10
294.9671481676
 20
288.9502004224
 40
24.8220121751
100
AcDbArc
 50
92.8350420837
 51
93.7468711644
  0
ARC
  5
3D7
100
AcDbEntity
  8
0
100
AcDbCircle
 62
7
  6
CONTINUOUS
 10
189.5349893969
 20
300.0101374636
 40
19.0
100
AcDbArc
 50
90.0
 51
180.0
  0
ARC
  5
3D8
100
AcDbEntity
  8
0
100
AcDbCircle
 62
7
  6
CONTINUOUS
 10
189.5349893969
 20
346.3101374636
 40
19.0
100
AcDbArc
 50
180.0
 51
270.0
  0
ARC
  5
3D9
100
AcDbEntity
  8
0
100
AcDbCircle
 62
7
  6
CONTINUOUS
 10
189.5349893969
 20
346.3101374636
 40
15.0
100
AcDbArc
 50
180.0
 51
270.0
  0
ARC
  5
3DA
100
AcDbEntity
  8
0
100
AcDbCircle
 62
7
  6
CONTINUOUS
 10
189.5349893969
 20
300.0101374636
 40
15.0
100
AcDbArc
 50
89.9999999745
 51
180.000000029
  0
ARC
  5
3DB
100
AcDbEntity
  8
DATUM_AXIS
100
AcDbCircle
 62
7
  6
CONTINUOUS
 10
146.0249003124
 20
367.8101374636
 40
4.7933109155
100
AcDbArc
 50
139.9872611116
 51
219.3281429574
  0
ARC
  5
3DC
100
AcDbEntity
  8
0
100
AcDbCircle
 62
7
  6
CONTINUOUS
 10
141.5349893969
 20
110.1101374636
 40
2.5
100
AcDbArc
 50
180.0
 51
270.0
  0
ARC
  5
3DD
100
AcDbEntity
  8
0
100
AcDbCircle
 62
7
  6
CONTINUOUS
 10
175.5349893969
 20
110.1101374636
 40
2.5
100
AcDbArc
 50
270.0
 51
360.0
  0
ARC
  5
3DE
100
AcDbEntity
  8
0
100
AcDbCircle
 62
7
  6
CONTINUOUS
 10
224.8304886328
 20
376.6308265684
 40
0.7045011747
100
AcDbArc
 50
0.0618598009
 51
17.6477900413
  0
ARC
  5
3DF
100
AcDbEntity
  8
0
100
AcDbCircle
 62
7
  6
CONTINUOUS
 10
180.8349893969
 20
135.1101374636
 40
0.7
100
AcDbArc
 50
0.0
 51
90.0
  0
ARC
  5
3E0
100
AcDbEntity
  8
0
100
AcDbCircle
 62
7
  6
CONTINUOUS
 10
136.2349893969
 20
135.1101374636
 40
0.7
100
AcDbArc
 50
90.0
 51
180.0
  0
ARC
  5
3E1
100
AcDbEntity
  8
0
100
AcDbCircle
 62
7
  6
CONTINUOUS
 10
224.8349893969
 20
376.8101374636
 40
0.7
100
AcDbArc
 50
0.0
 51
90.0
  0
ARC
  5
3E2
100
AcDbEntity
  8
0
100
AcDbCircle
 62
7
  6
CONTINUOUS
 10
224.8349893969
 20
372.0101374636
 40
0.7
100
AcDbArc
 50
270.0
 51
360.0
  0
ARC
  5
3E3
100
AcDbEntity
  8
0
100
AcDbCircle
 62
7
  6
CONTINUOUS
 10
296.3349893969
 20
315.7101374636
 40
0.7
100
AcDbArc
 50
270.0
 51
359.9999999999
  0
ARC
  5
3E4
100
AcDbEntity
  8
0
100
AcDbCircle
 62
7
  6
CONTINUOUS
 10
296.3349893969
 20
330.6101374636
 40
0.7
100
AcDbArc
 50
0.0000000001
 51
90.0
  0
ARC
  5
3E5
100
AcDbEntity
  8
0
100
AcDbCircle
 62
7
  6
CONTINUOUS
 10
224.8350475004
 20
376.6314117972
 40
0.6999799206
100
AcDbArc
 50
17.7152701739
 51
90.0047559726
  0
ARC
  5
3E6
100
AcDbEntity
  8
0
100
AcDbCircle
 62
7
  6
CONTINUOUS
 10
143.2106141079
 20
376.6314914721
 40
0.6998935004
100
AcDbArc
 50
89.9904455451
 51
177.9676904863
  0
ARC
  5
3E7
100
AcDbEntity
  8
0
100
AcDbCircle
 62
7
  6
CONTINUOUS
 10
454.8472671501
 20
17.7290040359
 40
629.7306654086
100
AcDbArc
 50
58.8765307747
 51
61.0977948542
  0
ARC
  5
3E8
100
AcDbEntity
  8
0
100
AcDbCircle
 62
7
  6
CONTINUOUS
 10
408.4978015122
 20
4.0898522598
 40
607.0050743173
100
AcDbArc
 50
58.8347172336
 51
61.1664052927
  0
ARC
  5
3E9
100
AcDbEntity
  8
0
100
AcDbCircle
 62
7
  6
CONTINUOUS
 10
408.5658793616
 20
4.1958983708
 40
605.8892125667
100
AcDbArc
 50
58.8344165346
 51
61.1678315156
  0
ARC
  5
3EA
100
AcDbEntity
  8
0
100
AcDbCircle
 62
7
  6
CONTINUOUS
 10
494.7691477364
 20
545.1396130696
 40
286.2637441837
100
AcDbArc
 50
358.5824152198
 51
2.1677866885
  0
ARC
  5
3EB
100
AcDbEntity
  8
0
100
AcDbCircle
 62
7
  6
CONTINUOUS
 10
1025.6466540718
 20
537.8447521323
 40
269.8841513483
100
AcDbArc
 50
181.9849383078
 51
182.3213042781
  0
ARC
  5
3EC
100
AcDbEntity
  8
0
100
AcDbCircle
 62
7
  6
CONTINUOUS
 10
1027.5974282628
 20
537.8715493725
 40
266.1782223923
100
AcDbArc
 50
181.9905971942
 51
182.3591720065
  0
ARC
  5
3ED
100
AcDbEntity
  8
AXES_REF
100
AcDbCircle
 62
7
  6
CONTINUOUS
 10
753.4458003696
 20
353.733934991
 40
32.7289192508
100
AcDbArc
 50
297.1959117423
 51
300.0522403939
  0
ARC
  5
3EE
100
AcDbEntity
  8
AXES_REF
100
AcDbCircle
 62
7
  6
CONTINUOUS
 10
748.9042564192
 20
338.2587911435
 40
25.1252004137
100
AcDbArc
 50
338.3314505517
 51
340.1091428541
  0
ARC
  5
3EF
100
AcDbEntity
  8
0
100
AcDbCircle
 62
7
  6
CONTINUOUS
 10
760.2159760282
 20
326.3887972193
 40
12.3239365027
100
AcDbArc
 50
290.8515060568
 51
294.3070976266
  0
ARC
  5
3F0
100
AcDbEntity
  8
0
100
AcDbCircle
 62
7
  6
CONTINUOUS
 10
757.1935574899
 20
325.885489349
 40
11.7757215519
100
AcDbArc
 50
243.8849484348
 51
247.4391946332
  0
ARC
  5
3F1
100
AcDbEntity
  8
0
100
AcDbCircle
 62
7
  6
CONTINUOUS
 10
756.6739800777
 20
324.8205354796
 40
10.5907819352
100
AcDbArc
 50
240.0634933696
 51
243.8728768493
  0
ARC
  5
3F2
100
AcDbEntity
  8
0
100
AcDbCircle
 62
7
  6
CONTINUOUS
 10
654.3965700493
 20
459.1476141155
 40
4.5425079431
100
AcDbArc
 50
184.2703800152
 51
189.4762076094
  0
ARC
  5
3F3
100
AcDbEntity
  8
0
100
AcDbCircle
 62
7
  6
CONTINUOUS
 10
654.5644794973
 20
457.9547864667
 40
4.0434733445
100
AcDbArc
 50
234.9643190522
 51
239.9408219233
  0
ARC
  5
3F4
100
AcDbEntity
  8
0
100
AcDbCircle
 62
7
  6
CONTINUOUS
 10
653.855032515
 20
459.105989938
 40
3.9993745515
100
AcDbArc
 50
180.0428411247
 51
184.2534178412
  0
ARC
  5
3F5
100
AcDbEntity
  8
0
100
AcDbCircle
 62
7
  6
CONTINUOUS
 10
732.2416559992
 20
357.9489368619
 40
3.8515576188
100
AcDbArc
 50
119.9819050983
 51
123.9597922315
  0
ARC
  5
3F6
100
AcDbEntity
  8
0
100
AcDbCircle
 62
7
  6
CONTINUOUS
 10
653.4446040257
 20
465.8836184286
 40
3.5889467991
100
AcDbArc
 50
174.7861730302
 51
180.0582518781
  0
ARC
  5
3F7
100
AcDbEntity
  8
0
100
AcDbCircle
 62
7
  6
CONTINUOUS
 10
653.4064614947
 20
458.8214530177
 40
3.3457777662
100
AcDbArc
 50
180.0723419307
 51
185.0645310449
  0
ARC
  5
3F8
100
AcDbEntity
  8
0
100
AcDbCircle
 62
7
  6
CONTINUOUS
 10
652.9160591637
 20
465.5974595065
 40
2.8553746303
100
AcDbArc
 50
174.5296827596
 51
180.0654314528
  0
ARC
  5
3F9
100
AcDbEntity
  8
0
100
AcDbCircle
 62
7
  6
CONTINUOUS
 10
670.7950075284
 20
447.4485261488
 40
2.8548279662
100
AcDbArc
 50
239.9348196659
 51
245.483468796
  0
ARC
  5
3FA
100
AcDbEntity
  8
0
100
AcDbCircle
 62
7
  6
CONTINUOUS
 10
758.9661066624
 20
568.5827159768
 40
0.7028199326
100
AcDbArc
 50
108.4215433627
 51
119.9632407635
  0
ARC
  5
3FB
100
AcDbEntity
  8
0
100
AcDbCircle
 62
7
  6
CONTINUOUS
 10
758.9649666309
 20
568.5847496373
 40
0.7006131379
100
AcDbArc
 50
61.1350384228
 51
72.7632068217
  0
ARC
  5
3FC
100
AcDbEntity
  8
0
100
AcDbCircle
 62
7
  6
CONTINUOUS
 10
780.3332909605
 20
556.2487242579
 40
0.70000063
100
AcDbArc
 50
2.2140848305
 51
58.8574275258
  0
ARC
  5
3FD
100
AcDbEntity
  8
0
100
AcDbCircle
 62
7
  6
CONTINUOUS
 10
790.3503172701
 20
358.9582449133
 40
0.6999931125
100
AcDbArc
 50
359.983204486
 51
60.0010093997
  0
ARC
  5
3FE
100
AcDbEntity
  8
0
100
AcDbCircle
 62
7
  6
CONTINUOUS
 10
701.2482512862
 20
535.2627620232
 40
0.6999919915
100
AcDbArc
 50
119.9836089741
 51
179.5655635026
  0
ARC
  5
3FF
100
AcDbEntity
  8
0
100
AcDbCircle
 62
7
  6
CONTINUOUS
 10
758.9650888392
 20
568.5860330577
 40
0.6993511948
100
AcDbArc
 50
72.7416120539
 51
108.4283064157
  0
ARC
  5
400
100
AcDbEntity
  8
0
100
AcDbCircle
 62
7
  6
CONTINUOUS
 10
758.7326974663
 20
568.9879027305
 40
0.2351833096
100
AcDbArc
 50
115.216268899
 51
120.0010171062
  0
ARC
  5
401
100
AcDbEntity
  8
0
100
AcDbCircle
 62
7
  6
CONTINUOUS
 10
173.6155469609
 20
405.4347034886
 40
69.4392704074
100
AcDbArc
 50
91.2917153692
 51
91.8069272878
  0
ARC
  5
402
100
AcDbEntity
  8
0
100
AcDbCircle
 62
7
  6
CONTINUOUS
 10
170.6911728046
 20
480.8941104034
 40
6.1039195485
100
AcDbArc
 50
275.2837135486
 51
275.9110695885
  0
ARC
  5
403
100
AcDbEntity
  8
0
100
AcDbCircle
 62
7
  6
CONTINUOUS
 10
170.7066214672
 20
480.7449629158
 40
5.9539741112
100
AcDbArc
 50
275.9110059798
 51
276.5704723354
  0
ARC
  5
404
100
AcDbEntity
  8
0
100
AcDbCircle
 62
7
  6
CONTINUOUS
 10
170.6533168312
 20
480.5618532362
 40
5.7880601426
100
AcDbArc
 50
276.1233347067
 51
277.8041578175
  0
ARC
  5
405
100
AcDbEntity
  8
0
100
AcDbCircle
 62
7
  6
CONTINUOUS
 10
170.6881585769
 20
480.3017058033
 40
5.5255911843
100
AcDbArc
 50
277.8125124653
 51
278.4693706841
  0
ARC
  5
406
100
AcDbEntity
  8
0
100
AcDbCircle
 62
7
  6
CONTINUOUS
 10
176.5349893969
 20
472.7690878551
 40
5.0
100
AcDbArc
 50
270.0
 51
360.0
  0
ARC
  5
407
100
AcDbEntity
  8
0
100
AcDbCircle
 62
7
  6
CONTINUOUS
 10
176.5349893969
 20
472.7690878551
 40
4.3
100
AcDbArc
 50
270.0
 51
360.0
  0
ARC
  5
408
100
AcDbEntity
  8
0
100
AcDbCircle
 62
7
  6
CONTINUOUS
 10
143.2362593988
 20
475.4737143521
 40
0.7046267088
100
AcDbArc
 50
256.9769994758
 51
269.9555776062
  0
ARC
  5
409
100
AcDbEntity
  8
0
100
AcDbCircle
 62
7
  6
CONTINUOUS
 10
143.2112088086
 20
475.6595867094
 40
0.7000282946
100
AcDbArc
 50
180.0032159609
 51
269.9608768917
  0
ARC
  5
40A
100
AcDbEntity
  8
0
100
AcDbCircle
 62
7
  6
CONTINUOUS
 10
136.2349893969
 20
468.4690878551
 40
0.7
100
AcDbArc
 50
180.0
 51
270.0
  0
ARC
  5
40B
100
AcDbEntity
  8
0
100
AcDbCircle
 62
7
  6
CONTINUOUS
 10
173.3696066932
 20
567.0112894093
 40
60.3438674973
100
AcDbArc
 50
268.1540737363
 51
268.7468409846
  0
ARC
  5
40C
100
AcDbEntity
  8
0
100
AcDbCircle
 62
7
  6
CONTINUOUS
 10
170.6927031584
 20
500.6598011094
 40
6.0881108572
100
AcDbArc
 50
83.9564136264
 51
84.7169858306
  0
ARC
  5
40D
100
AcDbEntity
  8
0
100
AcDbCircle
 62
7
  6
CONTINUOUS
 10
170.7083033593
 20
500.8081727143
 40
5.9389214222
100
AcDbArc
 50
83.4295037069
 51
83.9553735595
  0
ARC
  5
40E
100
AcDbEntity
  8
0
100
AcDbCircle
 62
7
  6
CONTINUOUS
 10
170.6656334613
 20
501.0689740282
 40
5.6945972668
100
AcDbArc
 50
81.6637043632
 51
83.3225660039
  0
ARC
  5
40F
100
AcDbEntity
  8
0
100
AcDbCircle
 62
7
  6
CONTINUOUS
 10
176.5349893969
 20
508.7690878551
 40
5.0
100
AcDbArc
 50
0.0
 51
90.0
  0
ARC
  5
410
100
AcDbEntity
  8
0
100
AcDbCircle
 62
7
  6
CONTINUOUS
 10
146.0249003124
 20
490.7690878551
 40
4.7933109155
100
AcDbArc
 50
139.7743808623
 51
220.22562039
  0
ARC
  5
411
100
AcDbEntity
  8
0
100
AcDbCircle
 62
7
  6
CONTINUOUS
 10
176.5349893969
 20
508.7690878551
 40
4.3
100
AcDbArc
 50
0.0
 51
90.0
  0
ARC
  5
412
100
AcDbEntity
  8
0
100
AcDbCircle
 62
7
  6
CONTINUOUS
 10
143.5417026811
 20
507.9244501974
 40
1.3858716727
100
AcDbArc
 50
254.2146732484
 51
256.1967192154
  0
ARC
  5
413
100
AcDbEntity
  8
0
100
AcDbCircle
 62
7
  6
CONTINUOUS
 10
143.2362592645
 20
506.0644620121
 40
0.7046260547
100
AcDbArc
 50
90.0444115122
 51
103.0217474996
  0
ARC
  5
414
100
AcDbEntity
  8
0
100
AcDbCircle
 62
7
  6
CONTINUOUS
 10
143.2112087464
 20
505.8785890662
 40
0.7000282304
100
AcDbArc
 50
90.039118017
 51
179.9967893894
  0
ARC
  5
415
100
AcDbEntity
  8
0
100
AcDbCircle
 62
7
  6
CONTINUOUS
 10
136.2349893969
 20
513.0690878551
 40
0.7
100
AcDbArc
 50
90.0
 51
180.0
  0
ARC
  5
416
100
AcDbEntity
  8
0
100
AcDbCircle
 62
7
  6
CONTINUOUS
 10
224.8349648475
 20
475.6596004724
 40
0.7000289754
100
AcDbArc
 50
270.0020093179
 51
359.995657486
  0
ARC
  5
417
100
AcDbEntity
  8
0
100
AcDbCircle
 62
7
  6
CONTINUOUS
 10
296.3349893969
 20
475.4690878551
 40
0.7
100
AcDbArc
 50
270.0
 51
359.9999999999
  0
ARC
  5
418
100
AcDbEntity
  8
0
100
AcDbCircle
 62
7
  6
CONTINUOUS
 10
224.8349893969
 20
475.6479885937
 40
0.7
100
AcDbArc
 50
270.0
 51
359.9999999998
  0
ARC
  5
419
100
AcDbEntity
  8
0
100
AcDbCircle
 62
7
  6
CONTINUOUS
 10
224.8392291867
 20
475.6485444196
 40
0.6957602657
100
AcDbArc
 50
352.7529257319
 51
359.9771225944
  0
ARC
  5
41A
100
AcDbEntity
  8
0
100
AcDbCircle
 62
7
  6
CONTINUOUS
 10
224.8347800759
 20
475.6425146154
 40
0.6942213808
100
AcDbArc
 50
270.0172757701
 51
276.2141917109
  0
ARC
  5
41B
100
AcDbEntity
  8
0
100
AcDbCircle
 62
7
  6
CONTINUOUS
 10
224.8264515979
 20
505.8881206263
 40
0.7086263562
100
AcDbArc
 50
7.2379144121
 51
14.9604763812
  0
ARC
  5
41C
100
AcDbEntity
  8
0
100
AcDbCircle
 62
7
  6
CONTINUOUS
 10
224.8332625269
 20
505.8815182173
 40
0.7084454258
100
AcDbArc
 50
75.0401930113
 51
83.7876015441
  0
ARC
  5
41D
100
AcDbEntity
  8
0
100
AcDbCircle
 62
7
  6
CONTINUOUS
 10
224.8321909557
 20
505.8889198458
 40
0.7028320422
100
AcDbArc
 50
5.3532693963
 51
7.2322282254
  0
ARC
  5
41E
100
AcDbEntity
  8
0
100
AcDbCircle
 62
7
  6
CONTINUOUS
 10
224.8349629484
 20
505.878572671
 40
0.7000312813
100
AcDbArc
 50
0.0045525914
 51
89.9978352508
  0
ARC
  5
41F
100
AcDbEntity
  8
0
100
AcDbCircle
 62
7
  6
CONTINUOUS
 10
224.8349893969
 20
505.8901871183
 40
0.7
100
AcDbArc
 50
0.0000000003
 51
90.0
  0
ARC
  5
420
100
AcDbEntity
  8
0
100
AcDbCircle
 62
7
  6
CONTINUOUS
 10
296.3349893969
 20
506.0690878551
 40
0.7
100
AcDbArc
 50
0.0000000001
 51
90.0
  0
ARC
  5
421
100
AcDbEntity
  8
0
100
AcDbCircle
 62
7
  6
CONTINUOUS
 10
224.8354370737
 20
505.8903241509
 40
0.6993766311
100
AcDbArc
 50
14.9761067029
 51
75.0260749864
  0
ARC
  5
422
100
AcDbEntity
  8
0
100
AcDbCircle
 62
7
  6
CONTINUOUS
 10
224.8363353921
 20
505.8893112954
 40
0.6986691615
100
AcDbArc
 50
3.8484709432
 51
5.3530166813
  0
ARC
  5
423
100
AcDbEntity
  8
0
100
AcDbCircle
 62
7
  6
CONTINUOUS
 10
224.8347800758
 20
505.8956610875
 40
0.6942213882
100
AcDbArc
 50
83.7858001825
 51
89.9827242224
  0
ARC
  5
424
100
AcDbEntity
  8
0
100
AcDbCircle
 62
7
  6
CONTINUOUS
 10
224.8448906731
 20
505.8898245114
 40
0.690098729
100
AcDbArc
 50
0.0070228412
 51
3.8536313541
  0
SPLINE
  5
425
100
AcDbEntity
  8
AXES_REF
100
AcDbSpline
 62
7
  6
CONTINUOUS
 70
0
 71
3
 72
11
 73
7
 74
0
 42
0.0000001
 43
0.0000001
 44
0.0000000001
 40
0.0
 40
0.0
 40
0.0
 40
0.0
 40
0.2713542733
 40
0.5288294545
 40
0.771267155
 40
1.0
 40
1.0
 40
1.0
 40
1.0
 10
453.331543522
 20
101.8101374636
 30
0.0
 10
453.5715949802
 20
101.5700860055
 30
0.0
 10
454.0556795326
 20
101.1179159964
 30
0.0
 10
454.8224316641
 20
100.5287542404
 30
0.0
 10
455.6152976486
 20
100.0722327038
 30
0.0
 10
456.1756677332
 20
99.8737058219
 30
0.0
 10
456.4546793304
 20
99.8101374636
 30
0.0
  0
SPLINE
  5
426
100
AcDbEntity
  8
AXES_REF
100
AcDbSpline
 62
7
  6
CONTINUOUS
 70
0
 71
3
 72
11
 73
7
 74
0
 42
0.0000001
 43
0.0000001
 44
0.0000000001
 40
0.0
 40
0.0
 40
0.0
 40
0.0
 40
0.2287328726
 40
0.4711705802
 40
0.7286457414
 40
1.0
 40
1.0
 40
1.0
 40
1.0
 10
458.0026363477
 20
99.8101374636
 30
0.0
 10
458.2816479785
 20
99.8737058295
 30
0.0
 10
458.8420181036
 20
100.0722327315
 30
0.0
 10
459.6348840906
 20
100.5287543002
 30
0.0
 10
460.4016361854
 20
101.1179160448
 30
0.0
 10
460.885720711
 20
101.5700860186
 30
0.0
 10
461.1257721561
 20
101.8101374636
 30
0.0
  0
SPLINE
  5
427
100
AcDbEntity
  8
AXES_REF
100
AcDbSpline
 62
7
  6
CONTINUOUS
 70
0
 71
3
 72
10
 73
6
 74
0
 42
0.0000001
 43
0.0000001
 44
0.0000000001
 40
0.0
 40
0.0
 40
0.0
 40
0.0
 40
0.4998647113
 40
0.7499359644
 40
1.0
 40
1.0
 40
1.0
 40
1.0
 10
437.7430862539
 20
101.8101374636
 30
0.0
 10
438.724953276
 20
101.3192039526
 30
0.0
 10
440.2439272566
 20
100.6630218951
 30
0.0
 10
442.3588780171
 20
100.0612378509
 30
0.0
 10
443.4437173371
 20
99.8722952256
 30
0.0
 10
443.9893578706
 20
99.8101374636
 30
0.0
  0
SPLINE
  5
428
100
AcDbEntity
  8
AXES_REF
100
AcDbSpline
 62
7
  6
CONTINUOUS
 70
0
 71
3
 72
10
 73
6
 74
0
 42
0.0000001
 43
0.0000001
 44
0.0000000001
 40
0.0
 40
0.0
 40
0.0
 40
0.0
 40
0.250064065
 40
0.5001353229
 40
1.0
 40
1.0
 40
1.0
 40
1.0
 10
447.0852719053
 20
99.8101374636
 30
0.0
 10
447.6309125031
 20
99.872295233
 30
0.0
 10
448.7157518973
 20
100.0612378751
 30
0.0
 10
450.8307026463
 20
100.6630219593
 30
0.0
 10
452.349676567
 20
101.3192039861
 30
0.0
 10
453.331543522
 20
101.8101374636
 30
0.0
  0
SPLINE
  5
429
100
AcDbEntity
  8
AXES_REF
100
AcDbSpline
 62
7
  6
CONTINUOUS
 70
0
 71
3
 72
11
 73
7
 74
0
 42
0.0000001
 43
0.0000001
 44
0.0000000001
 40
0.0
 40
0.0
 40
0.0
 40
0.0
 40
0.2713542733
 40
0.5288294545
 40
0.771267155
 40
1.0
 40
1.0
 40
1.0
 40
1.0
 10
429.9488576198
 20
101.8101374636
 30
0.0
 10
430.188909078
 20
101.5700860055
 30
0.0
 10
430.6729936304
 20
101.1179159964
 30
0.0
 10
431.4397457619
 20
100.5287542404
 30
0.0
 10
432.2326117464
 20
100.0722327038
 30
0.0
 10
432.792981831
 20
99.8737058219
 30
0.0
 10
433.0719934282
 20
99.8101374636
 30
0.0
  0
SPLINE
  5
42A
100
AcDbEntity
  8
AXES_REF
100
AcDbSpline
 62
7
  6
CONTINUOUS
 70
0
 71
3
 72
11
 73
7
 74
0
 42
0.0000001
 43
0.0000001
 44
0.0000000001
 40
0.0
 40
0.0
 40
0.0
 40
0.0
 40
0.2287328726
 40
0.4711705802
 40
0.7286457414
 40
1.0
 40
1.0
 40
1.0
 40
1.0
 10
434.6199504455
 20
99.8101374636
 30
0.0
 10
434.8989620763
 20
99.8737058295
 30
0.0
 10
435.4593322014
 20
100.0722327315
 30
0.0
 10
436.2521981885
 20
100.5287543002
 30
0.0
 10
437.0189502833
 20
101.1179160448
 30
0.0
 10
437.5030348088
 20
101.5700860186
 30
0.0
 10
437.7430862539
 20
101.8101374636
 30
0.0
  0
SPLINE
  5
42B
100
AcDbEntity
  8
0
100
AcDbSpline
 62
7
  6
CONTINUOUS
 70
0
 71
3
 72
9
 73
5
 74
0
 42
0.0000001
 43
0.0000001
 44
0.0000000001
 40
0.0
 40
0.0
 40
0.0
 40
0.0
 40
0.5184379287
 40
1.0
 40
1.0
 40
1.0
 40
1.0
 10
447.157314888
 20
310.006743869
 30
0.0
 10
447.6578075045
 20
310.0330165897
 30
0.0
 10
448.6221073179
 20
310.1078434159
 30
0.0
 10
449.5808944515
 20
310.2370511457
 30
0.0
 10
450.0397262999
 20
310.3157567007
 30
0.0
  0
SPLINE
  5
42C
100
AcDbEntity
  8
0
100
AcDbSpline
 62
7
  6
CONTINUOUS
 70
0
 71
3
 72
9
 73
5
 74
0
 42
0.0000001
 43
0.0000001
 44
0.0000000001
 40
0.0
 40
0.0
 40
0.0
 40
0.0
 40
0.5273703499
 40
1.0
 40
1.0
 40
1.0
 40
1.0
 10
450.0397262999
 20
311.1850899444
 30
0.0
 10
450.3411897479
 20
311.2368013678
 30
0.0
 10
450.9106148758
 20
311.3484619623
 30
0.0
 10
451.4725942055
 20
311.4940178211
 30
0.0
 10
451.7349285916
 20
311.5735237114
 30
0.0
  0
SPLINE
  5
42D
100
AcDbEntity
  8
0
100
AcDbSpline
 62
7
  6
CONTINUOUS
 70
0
 71
3
 72
11
 73
7
 74
0
 42
0.0000001
 43
0.0000001
 44
0.0000000001
 40
0.0
 40
0.0
 40
0.0
 40
0.0
 40
0.3078615611
 40
0.5764210482
 40
0.8062243944
 40
1.0
 40
1.0
 40
1.0
 40
1.0
 10
452.330752271
 20
310.9087178549
 30
0.0
 10
452.4666546077
 20
310.9617901116
 30
0.0
 10
452.7180184772
 20
311.0695216489
 30
0.0
 10
453.0549775816
 20
311.2511114122
 30
0.0
 10
453.3239651759
 20
311.4403112123
 30
0.0
 10
453.4680435625
 20
311.5824591292
 30
0.0
 10
453.5246861702
 20
311.6547408241
 30
0.0
  0
SPLINE
  5
42E
100
AcDbEntity
  8
0
100
AcDbSpline
 62
7
  6
CONTINUOUS
 70
0
 71
3
 72
11
 73
7
 74
0
 42
0.0000001
 43
0.0000001
 44
0.0000000001
 40
0.0
 40
0.0
 40
0.0
 40
0.0
 40
0.3078615102
 40
0.5764210546
 40
0.8062244133
 40
1.0
 40
1.0
 40
1.0
 40
1.0
 10
438.7438775049
 20
310.9087178549
 30
0.0
 10
438.6079751907
 20
310.9617901028
 30
0.0
 10
438.3566113173
 20
311.0695216385
 30
0.0
 10
438.019652204
 20
311.2511114047
 30
0.0
 10
437.7506645897
 20
311.4403112191
 30
0.0
 10
437.6065862079
 20
311.5824591362
 30
0.0
 10
437.5499436057
 20
311.6547408241
 30
0.0
  0
SPLINE
  5
42F
100
AcDbEntity
  8
0
100
AcDbSpline
 62
7
  6
CONTINUOUS
 70
0
 71
3
 72
9
 73
5
 74
0
 42
0.0000001
 43
0.0000001
 44
0.0000000001
 40
0.0
 40
0.0
 40
0.0
 40
0.0
 40
0.4726296501
 40
1.0
 40
1.0
 40
1.0
 40
1.0
 10
439.3397011843
 20
311.5735237114
 30
0.0
 10
439.6020355705
 20
311.4940178211
 30
0.0
 10
440.1640149002
 20
311.3484619623
 30
0.0
 10
440.733440028
 20
311.2368013678
 30
0.0
 10
441.034903476
 20
311.1850899444
 30
0.0
  0
SPLINE
  5
430
100
AcDbEntity
  8
0
100
AcDbSpline
 62
7
  6
CONTINUOUS
 70
0
 71
3
 72
9
 73
5
 74
0
 42
0.0000001
 43
0.0000001
 44
0.0000000001
 40
0.0
 40
0.0
 40
0.0
 40
0.0
 40
0.518437826
 40
1.0
 40
1.0
 40
1.0
 40
1.0
 10
443.917314888
 20
310.006743869
 30
0.0
 10
443.4168223706
 20
310.0330165845
 30
0.0
 10
442.4525225571
 20
310.1078434061
 30
0.0
 10
441.4937354223
 20
310.2370511289
 30
0.0
 10
441.034903476
 20
310.3157567007
 30
0.0
  0
SPLINE
  5
431
100
AcDbEntity
  8
DATUM_AXIS
100
AcDbSpline
 62
7
  6
CONTINUOUS
 70
0
 71
3
 72
9
 73
5
 74
0
 42
0.0000001
 43
0.0000001
 44
0.0000000001
 40
0.0
 40
0.0
 40
0.0
 40
0.0
 40
0.5206201339
 40
1.0
 40
1.0
 40
1.0
 40
1.0
 10
447.1577256438
 20
311.0326114587
 30
0.0
 10
447.5576065609
 20
311.0586139693
 30
0.0
 10
448.3245848202
 20
311.127932413
 30
0.0
 10
449.0864776506
 20
311.2417441938
 30
0.0
 10
449.4490902694
 20
311.3100095498
 30
0.0
  0
SPLINE
  5
432
100
AcDbEntity
  8
DATUM_AXIS
100
AcDbSpline
 62
7
  6
CONTINUOUS
 70
0
 71
3
 72
13
 73
9
 74
0
 42
0.0000001
 43
0.0000001
 44
0.0000000001
 40
0.0
 40
0.0
 40
0.0
 40
0.0
 40
0.3315934127
 40
0.6113971538
 40
0.7300589546
 40
0.8340878564
 40
0.9237354673
 40
1.0
 40
1.0
 40
1.0
 40
1.0
 10
449.4950797809
 20
311.3187457846
 30
0.0
 10
449.7987210836
 20
311.3769459333
 30
0.0
 10
450.3553333831
 20
311.5023420315
 30
0.0
 10
451.0049814358
 20
311.7110744552
 30
0.0
 10
451.4337701378
 20
311.9009529018
 30
0.0
 10
451.6890979929
 20
312.0420794793
 30
0.0
 10
451.8944340017
 20
312.1886838431
 30
0.0
 10
452.0054187618
 20
312.2980712512
 30
0.0
 10
452.0497791229
 20
312.3536442821
 30
0.0
  0
SPLINE
  5
433
100
AcDbEntity
  8
DATUM_AXIS
100
AcDbSpline
 62
7
  6
CONTINUOUS
 70
0
 71
3
 72
9
 73
5
 74
0
 42
0.0000001
 43
0.0000001
 44
0.0000000001
 40
0.0
 40
0.0
 40
0.0
 40
0.0
 40
0.5206201339
 40
1.0
 40
1.0
 40
1.0
 40
1.0
 10
443.9169041322
 20
311.0326114587
 30
0.0
 10
443.517023215
 20
311.0586139693
 30
0.0
 10
442.7500449557
 20
311.127932413
 30
0.0
 10
441.9881521253
 20
311.2417441938
 30
0.0
 10
441.6255395065
 20
311.3100095498
 30
0.0
  0
SPLINE
  5
434
100
AcDbEntity
  8
DATUM_AXIS
100
AcDbSpline
 62
7
  6
CONTINUOUS
 70
0
 71
3
 72
13
 73
9
 74
0
 42
0.0000001
 43
0.0000001
 44
0.0000000001
 40
0.0
 40
0.0
 40
0.0
 40
0.0
 40
0.331591325
 40
0.6113943857
 40
0.7300564189
 40
0.8340859177
 40
0.9237344238
 40
1.0
 40
1.0
 40
1.0
 40
1.0
 10
441.579549995
 20
311.3187457846
 30
0.0
 10
441.2759135371
 20
311.3769450046
 30
0.0
 10
440.7193090833
 20
311.5023390462
 30
0.0
 10
440.0696691644
 20
311.7110671766
 30
0.0
 10
439.6408834073
 20
311.9009413541
 30
0.0
 10
439.3855553471
 20
312.0420649716
 30
0.0
 10
439.1802173011
 20
312.1886662633
 30
0.0
 10
439.069229847
 20
312.2980511932
 30
0.0
 10
439.0248675842
 20
312.3536230721
 30
0.0
  0
SPLINE
  5
435
100
AcDbEntity
  8
0
100
AcDbSpline
 62
7
  6
CONTINUOUS
 70
0
 71
3
 72
9
 73
5
 74
0
 42
0.0000001
 43
0.0000001
 44
0.0000000001
 40
0.0
 40
0.0
 40
0.0
 40
0.0
 40
0.4635432203
 40
1.0
 40
1.0
 40
1.0
 40
1.0
 10
439.3405038019
 20
311.932469347
 30
0.0
 10
439.5480944404
 20
311.8472253303
 30
0.0
 10
440.0069695497
 20
311.6901739361
 30
0.0
 10
440.4763234686
 20
311.570040564
 30
0.0
 10
440.729690956
 20
311.5129936441
 30
0.0
  0
SPLINE
  5
436
100
AcDbEntity
  8
0
100
AcDbSpline
 62
7
  6
CONTINUOUS
 70
0
 71
3
 72
10
 73
6
 74
0
 42
0.0000001
 43
0.0000001
 44
0.0000000001
 40
0.0
 40
0.0
 40
0.0
 40
0.0
 40
0.5674433184
 40
0.7998412532
 40
1.0
 40
1.0
 40
1.0
 40
1.0
 10
439.3405038019
 20
311.0631361034
 30
0.0
 10
439.1437797854
 20
311.143917903
 30
0.0
 10
438.8710371524
 20
311.2732255392
 30
0.0
 10
438.56260512
 20
311.4873707772
 30
0.0
 10
438.4431363063
 20
311.5983199386
 30
0.0
 10
438.3937006067
 20
311.6547408241
 30
0.0
  0
SPLINE
  5
437
100
AcDbEntity
  8
0
100
AcDbSpline
 62
7
  6
CONTINUOUS
 70
0
 71
3
 72
9
 73
5
 74
0
 42
0.0000001
 43
0.0000001
 44
0.0000000001
 40
0.0
 40
0.0
 40
0.0
 40
0.0
 40
0.5162374929
 40
1.0
 40
1.0
 40
1.0
 40
1.0
 10
443.917314888
 20
310.2251242503
 30
0.0
 10
443.5222761743
 20
310.248310628
 30
0.0
 10
442.757935357
 20
310.3103050904
 30
0.0
 10
441.9975170591
 20
310.4104711018
 30
0.0
 10
441.631529773
 20
310.4701749492
 30
0.0
  0
SPLINE
  5
438
100
AcDbEntity
  8
DATUM_AXIS
100
AcDbSpline
 62
7
  6
CONTINUOUS
 70
0
 71
3
 72
14
 73
10
 74
0
 42
0.0000001
 43
0.0000001
 44
0.0000000001
 40
0.0
 40
0.0
 40
0.0
 40
0.0
 40
0.3148257204
 40
0.4633787737
 40
0.6015556034
 40
0.7264120561
 40
0.8354714479
 40
0.9269263724
 40
1.0
 40
1.0
 40
1.0
 40
1.0
 10
445.537314888
 20
311.4611573283
 30
0.0
 10
446.1617100998
 20
311.4611573283
 30
0.0
 10
447.0814615658
 20
311.4967074914
 30
0.0
 10
448.2683312076
 20
311.6211739144
 30
0.0
 10
449.0754238593
 20
311.7461725748
 30
0.0
 10
449.797381887
 20
311.9012381276
 30
0.0
 10
450.4176381133
 20
312.0824821844
 30
0.0
 10
450.9218334293
 20
312.285039614
 30
0.0
 10
451.2064487035
 20
312.4496948251
 30
0.0
 10
451.3211546169
 20
312.5382750642
 30
0.0
  0
SPLINE
  5
439
100
AcDbEntity
  8
DATUM_AXIS
100
AcDbSpline
 62
7
  6
CONTINUOUS
 70
0
 71
3
 72
17
 73
13
 74
0
 42
0.0000001
 43
0.0000001
 44
0.0000000001
 40
0.0
 40
0.0
 40
0.0
 40
0.0
 40
0.1713006405
 40
0.3375096934
 40
0.4937632323
 40
0.6355717638
 40
0.7590882245
 40
0.8614022923
 40
0.9041251886
 40
0.9412061231
 40
0.9729365548
 40
1.0
 40
1.0
 40
1.0
 40
1.0
 10
445.537314888
 20
311.1230832891
 30
0.0
 10
445.8988082851
 20
311.1230832891
 30
0.0
 10
446.6111632828
 20
311.1393539249
 30
0.0
 10
447.65100466
 20
311.2121159459
 30
0.0
 10
448.6240276823
 20
311.3306329268
 30
0.0
 10
449.4998757743
 20
311.4907976299
 30
0.0
 10
450.2511415293
 20
311.6872488693
 30
0.0
 10
450.7840800889
 20
311.8854803757
 30
0.0
 10
451.125253768
 20
312.0635105771
 30
0.0
 10
451.3217517944
 20
312.1941781428
 30
0.0
 10
451.4734078184
 20
312.3292700293
 30
0.0
 10
451.5489588194
 20
312.4294068703
 30
0.0
 10
451.5764745455
 20
312.4794530663
 30
0.0
  0
SPLINE
  5
43A
100
AcDbEntity
  8
DATUM_AXIS
100
AcDbSpline
 62
7
  6
CONTINUOUS
 70
0
 71
3
 72
17
 73
13
 74
0
 42
0.0000001
 43
0.0000001
 44
0.0000000001
 40
0.0
 40
0.0
 40
0.0
 40
0.0
 40
0.171299603
 40
0.3375077532
 40
0.4937606495
 40
0.6355689044
 40
0.7590855294
 40
0.8614002259
 40
0.9041235909
 40
0.9412050661
 40
0.9729360611
 40
1.0
 40
1.0
 40
1.0
 40
1.0
 10
445.537314888
 20
311.1230832891
 30
0.0
 10
445.1758251673
 20
311.1230832891
 30
0.0
 10
444.4634771972
 20
311.1393536012
 30
0.0
 10
443.4236454937
 20
311.2121141857
 30
0.0
 10
442.4506301416
 20
311.3306288862
 30
0.0
 10
441.5747868851
 20
311.4907906372
 30
0.0
 10
440.823522432
 20
311.6872384621
 30
0.0
 10
440.2905823964
 20
311.8854665657
 30
0.0
 10
439.94940503
 20
312.0634936642
 30
0.0
 10
439.7529029244
 20
312.1941592433
 30
0.0
 10
439.6012417876
 20
312.3292490804
 30
0.0
 10
439.525686195
 20
312.4293844335
 30
0.0
 10
439.4981678518
 20
312.4794301113
 30
0.0
  0
SPLINE
  5
43B
100
AcDbEntity
  8
DATUM_AXIS
100
AcDbSpline
 62
7
  6
CONTINUOUS
 70
0
 71
3
 72
14
 73
10
 74
0
 42
0.0000001
 43
0.0000001
 44
0.0000000001
 40
0.0
 40
0.0
 40
0.0
 40
0.0
 40
0.3148259496
 40
0.4633790831
 40
0.6015559533
 40
0.7264123978
 40
0.8354717267
 40
0.9269265337
 40
1.0
 40
1.0
 40
1.0
 40
1.0
 10
445.537314888
 20
311.4611573283
 30
0.0
 10
444.9129187133
 20
311.4611573283
 30
0.0
 10
443.993165882
 20
311.4967075955
 30
0.0
 10
442.8062946048
 20
311.6211744034
 30
0.0
 10
441.9992011095
 20
311.7461734317
 30
0.0
 10
441.2772426206
 20
311.901239421
 30
0.0
 10
440.6569863691
 20
312.0824839613
 30
0.0
 10
440.1527915033
 20
312.2850418885
 30
0.0
 10
439.8681767827
 20
312.4496975545
 30
0.0
 10
439.7534713114
 20
312.5382780355
 30
0.0
  0
SPLINE
  5
43C
100
AcDbEntity
  8
0
100
AcDbSpline
 62
7
  6
CONTINUOUS
 70
0
 71
3
 72
9
 73
5
 74
0
 42
0.0000001
 43
0.0000001
 44
0.0000000001
 40
0.0
 40
0.0
 40
0.0
 40
0.0
 40
0.5162380603
 40
1.0
 40
1.0
 40
1.0
 40
1.0
 10
447.157314888
 20
310.2251242503
 30
0.0
 10
447.5523540434
 20
310.248310654
 30
0.0
 10
448.3166950389
 20
310.3103034279
 30
0.0
 10
449.0771131392
 20
310.4104711707
 30
0.0
 10
449.4431000029
 20
310.4701749492
 30
0.0
  0
SPLINE
  5
43D
100
AcDbEntity
  8
0
100
AcDbSpline
 62
7
  6
CONTINUOUS
 70
0
 71
3
 72
10
 73
6
 74
0
 42
0.0000001
 43
0.0000001
 44
0.0000000001
 40
0.0
 40
0.0
 40
0.0
 40
0.0
 40
0.5674456492
 40
0.7998492842
 40
1.0
 40
1.0
 40
1.0
 40
1.0
 10
451.734125974
 20
311.0631361034
 30
0.0
 10
451.9308507461
 20
311.1439182132
 30
0.0
 10
452.2036014451
 20
311.2732193499
 30
0.0
 10
452.5120226312
 20
311.4873790772
 30
0.0
 10
452.6314954663
 20
311.5983222175
 30
0.0
 10
452.6809291693
 20
311.6547408241
 30
0.0
  0
SPLINE
  5
43E
100
AcDbEntity
  8
0
100
AcDbSpline
 62
7
  6
CONTINUOUS
 70
0
 71
3
 72
9
 73
5
 74
0
 42
0.0000001
 43
0.0000001
 44
0.0000000001
 40
0.0
 40
0.0
 40
0.0
 40
0.0
 40
0.5364567797
 40
1.0
 40
1.0
 40
1.0
 40
1.0
 10
450.3449388199
 20
311.5129936441
 30
0.0
 10
450.5983063073
 20
311.570040564
 30
0.0
 10
451.0676602262
 20
311.6901739361
 30
0.0
 10
451.5265353355
 20
311.8472253303
 30
0.0
 10
451.734125974
 20
311.932469347
 30
0.0
  0
SPLINE
  5
43F
100
AcDbEntity
  8
0
100
AcDbSpline
 62
7
  6
CONTINUOUS
 70
0
 71
3
 72
8
 73
4
 74
0
 42
0.0000001
 43
0.0000001
 44
0.0000000001
 40
0.0
 40
0.0
 40
0.0
 40
0.0
 40
1.0
 40
1.0
 40
1.0
 40
1.0
 10
457.3582705258
 20
371.3101374636
 30
0.0
 10
460.048304794
 20
371.3101403772
 30
0.0
 10
461.3815844421
 20
372.6551093558
 30
0.0
 10
461.35810947
 20
375.3450443994
 30
0.0
  0
SPLINE
  5
440
100
AcDbEntity
  8
0
100
AcDbSpline
 62
7
  6
CONTINUOUS
 70
0
 71
3
 72
8
 73
4
 74
0
 42
0.0000001
 43
0.0000001
 44
0.0000000001
 40
0.0
 40
0.0
 40
0.0
 40
0.0
 40
1.0
 40
1.0
 40
1.0
 40
1.0
 10
433.7163679912
 20
371.3101374636
 30
0.0
 10
431.0263281347
 20
371.3101374636
 30
0.0
 10
429.6930455707
 20
372.6551061776
 30
0.0
 10
429.716520299
 20
375.3450436056
 30
0.0
  0
SPLINE
  5
441
100
AcDbEntity
  8
0
100
AcDbSpline
 62
7
  6
CONTINUOUS
 70
0
 71
3
 72
18
 73
14
 74
0
 42
0.0000001
 43
0.0000001
 44
0.0000000001
 40
0.0
 40
0.0
 40
0.0
 40
0.0
 40
0.2017116988
 40
0.3998574868
 40
0.5865534374
 40
0.7479184398
 40
0.8692980171
 40
0.9131673723
 40
0.9465871028
 40
0.9706406115
 40
0.98664146
 40
0.9958805363
 40
1.0
 40
1.0
 40
1.0
 40
1.0
 10
457.5189400433
 20
356.7744230223
 30
0.0
 10
457.7887230707
 20
356.7767751256
 30
0.0
 10
458.3235145464
 20
356.7822614649
 30
0.0
 10
459.1079560919
 20
356.7936657358
 30
0.0
 10
459.8383851809
 20
356.8088291564
 30
0.0
 10
460.4659426235
 20
356.8279838859
 30
0.0
 10
460.9024720193
 20
356.84814727
 30
0.0
 10
461.1674185009
 20
356.8668463853
 30
0.0
 10
461.3026126446
 20
356.87982404
 30
0.0
 10
461.3995775399
 20
356.8917891175
 30
0.0
 10
461.4655053163
 20
356.9053951583
 30
0.0
 10
461.5012868642
 20
356.9147403433
 30
0.0
 10
461.5188361345
 20
356.9276291943
 30
0.0
 10
461.5187877356
 20
356.9331388437
 30
0.0
  0
SPLINE
  5
442
100
AcDbEntity
  8
0
100
AcDbSpline
 62
7
  6
CONTINUOUS
 70
0
 71
3
 72
15
 73
11
 74
0
 42
0.0000001
 43
0.0000001
 44
0.0000000001
 40
0.0
 40
0.0
 40
0.0
 40
0.0
 40
0.1251454654
 40
0.2502386773
 40
0.3752132462
 40
0.499998802
 40
0.6247852105
 40
0.7497595819
 40
0.8748539346
 40
1.0
 40
1.0
 40
1.0
 40
1.0
 10
457.3582617847
 20
372.0101374636
 30
0.0
 10
457.5843054615
 20
372.0101371571
 30
0.0
 10
458.0367991473
 20
372.0306811274
 30
0.0
 10
458.7069272989
 20
372.146759807
 30
0.0
 10
459.3473184116
 20
372.3831129315
 30
0.0
 10
459.9054474827
 20
372.7850766016
 30
0.0
 10
460.3025268143
 20
373.3466905632
 30
0.0
 10
460.533287815
 20
373.9891214174
 30
0.0
 10
460.6435144406
 20
374.6602400663
 30
0.0
 10
460.6601087047
 20
375.1128988771
 30
0.0
 10
460.6581361308
 20
375.3389350308
 30
0.0
  0
SPLINE
  5
443
100
AcDbEntity
  8
0
100
AcDbSpline
 62
7
  6
CONTINUOUS
 70
0
 71
3
 72
18
 73
14
 74
0
 42
0.0000001
 43
0.0000001
 44
0.0000000001
 40
0.0
 40
0.0
 40
0.0
 40
0.0
 40
0.2017115068
 40
0.3998571005
 40
0.5865528616
 40
0.7479177275
 40
0.8692973064
 40
0.9131667268
 40
0.9465865584
 40
0.9706401963
 40
0.9866411929
 40
0.9958804242
 40
1.0
 40
1.0
 40
1.0
 40
1.0
 10
433.5556897326
 20
356.7744231779
 30
0.0
 10
433.2859069843
 20
356.7767752807
 30
0.0
 10
432.7511160694
 20
356.7822616188
 30
0.0
 10
431.966675359
 20
356.793665887
 30
0.0
 10
431.2362470262
 20
356.8088292978
 30
0.0
 10
430.60869007
 20
356.8279840199
 30
0.0
 10
430.1721608011
 20
356.848147365
 30
0.0
 10
429.9072141176
 20
356.8668464737
 30
0.0
 10
429.7720195804
 20
356.8798240692
 30
0.0
 10
429.6750542006
 20
356.8917892479
 30
0.0
 10
429.6091258001
 20
356.9053950754
 30
0.0
 10
429.5733437726
 20
356.9147406218
 30
0.0
 10
429.555793957
 20
356.9276290421
 30
0.0
 10
429.5558420403
 20
356.9331388437
 30
0.0
  0
LINE
  5
444
100
AcDbEntity
  8
0
100
AcDbLine
 62
7
  6
CONTINUOUS
 10
433.7163679912
 20
371.3101374636
 11
433.5556897324
 21
356.7744231623
  0
LINE
  5
445
100
AcDbEntity
  8
0
100
AcDbLine
 62
7
  6
CONTINUOUS
 10
457.5189400435
 20
356.774423158
 11
457.3582617863
 21
371.3101374755
  0
SPLINE
  5
446
100
AcDbEntity
  8
0
100
AcDbSpline
 62
7
  6
CONTINUOUS
 70
0
 71
3
 72
15
 73
11
 74
0
 42
0.0000001
 43
0.0000001
 44
0.0000000001
 40
0.0
 40
0.0
 40
0.0
 40
0.0
 40
0.1251456405
 40
0.2502392323
 40
0.3752139422
 40
0.5000001771
 40
0.6247861217
 40
0.7497602765
 40
0.8748542129
 40
1.0
 40
1.0
 40
1.0
 40
1.0
 10
430.4164936451
 20
375.3389350308
 30
0.0
 10
430.4145210794
 20
375.112899636
 30
0.0
 10
430.431115256
 20
374.6602429747
 30
0.0
 10
430.5413411509
 20
373.9891256907
 30
0.0
 10
430.7721012614
 20
373.3466959096
 30
0.0
 10
431.1691777746
 20
372.7850785369
 30
0.0
 10
431.7273073276
 20
372.3831156865
 30
0.0
 10
432.3676986428
 20
372.1467599621
 30
0.0
 10
433.0378281963
 20
372.0306814948
 30
0.0
 10
433.4903237248
 20
372.0101371525
 30
0.0
 10
433.7163679912
 20
372.0101374636
 30
0.0
  0
SPLINE
  5
447
100
AcDbEntity
  8
0
100
AcDbSpline
 62
7
  6
CONTINUOUS
 70
0
 71
3
 72
9
 73
5
 74
0
 42
0.0000001
 43
0.0000001
 44
0.0000000001
 40
0.0
 40
0.0
 40
0.0
 40
0.0
 40
0.2240187935
 40
1.0
 40
1.0
 40
1.0
 40
1.0
 10
454.187314888
 20
311.0115092683
 30
0.0
 10
454.187314888
 20
311.031453149
 30
0.0
 10
454.1806078791
 20
311.1205374255
 30
0.0
 10
454.1448414022
 20
311.205794764
 30
0.0
 10
454.1088558716
 20
311.264766091
 30
0.0
  0
SPLINE
  5
448
100
AcDbEntity
  8
0
100
AcDbSpline
 62
7
  6
CONTINUOUS
 70
0
 71
3
 72
9
 73
5
 74
0
 42
0.0000001
 43
0.0000001
 44
0.0000000001
 40
0.0
 40
0.0
 40
0.0
 40
0.0
 40
0.230581262
 40
1.0
 40
1.0
 40
1.0
 40
1.0
 10
454.1088558716
 20
311.264766091
 30
0.0
 10
454.101950552
 20
311.2760821909
 30
0.0
 10
454.0706019544
 20
311.3243024965
 30
0.0
 10
454.0340260888
 20
311.3690122569
 30
0.0
 10
454.0040889293
 20
311.4015782949
 30
0.0
  0
SPLINE
  5
449
100
AcDbEntity
  8
0
100
AcDbSpline
 62
7
  6
CONTINUOUS
 70
0
 71
3
 72
9
 73
5
 74
0
 42
0.0000001
 43
0.0000001
 44
0.0000000001
 40
0.0
 40
0.0
 40
0.0
 40
0.0
 40
0.2175866952
 40
1.0
 40
1.0
 40
1.0
 40
1.0
 10
454.0040889293
 20
311.4015782949
 30
0.0
 10
453.9822040221
 20
311.4253849865
 30
0.0
 10
453.8769222276
 20
311.5304726928
 30
0.0
 10
453.7569988906
 20
311.6200016334
 30
0.0
 10
453.6599426121
 20
311.6840435567
 30
0.0
  0
SPLINE
  5
44A
100
AcDbEntity
  8
0
100
AcDbSpline
 62
7
  6
CONTINUOUS
 70
0
 71
3
 72
9
 73
5
 74
0
 42
0.0000001
 43
0.0000001
 44
0.0000000001
 40
0.0
 40
0.0
 40
0.0
 40
0.0
 40
0.2375431988
 40
1.0
 40
1.0
 40
1.0
 40
1.0
 10
453.6599426121
 20
311.6840435567
 30
0.0
 10
453.6414657895
 20
311.696235362
 30
0.0
 10
453.5630664909
 20
311.7466235059
 30
0.0
 10
453.4823448728
 20
311.7933665462
 30
0.0
 10
453.419865816
 20
311.8272038674
 30
0.0
  0
SPLINE
  5
44B
100
AcDbEntity
  8
0
100
AcDbSpline
 62
7
  6
CONTINUOUS
 70
0
 71
3
 72
11
 73
7
 74
0
 42
0.0000001
 43
0.0000001
 44
0.0000000001
 40
0.0
 40
0.0
 40
0.0
 40
0.0
 40
0.1793376698
 40
0.4158734971
 40
0.6952337023
 40
1.0
 40
1.0
 40
1.0
 40
1.0
 10
453.419865816
 20
311.8272038674
 30
0.0
 10
453.0320661325
 20
312.0372278838
 30
0.0
 10
452.0611123626
 20
312.3849709253
 30
0.0
 10
450.3908781018
 20
312.7538556049
 30
0.0
 10
448.3855038466
 20
313.005565093
 30
0.0
 10
446.9499114472
 20
313.0808570492
 30
0.0
 10
446.200586389
 20
313.0955516357
 30
0.0
  0
SPLINE
  5
44C
100
AcDbEntity
  8
0
100
AcDbSpline
 62
7
  6
CONTINUOUS
 70
0
 71
3
 72
11
 73
7
 74
0
 42
0.0000001
 43
0.0000001
 44
0.0000000001
 40
0.0
 40
0.0
 40
0.0
 40
0.0
 40
0.3047398957
 40
0.5840871271
 40
0.8206303156
 40
1.0
 40
1.0
 40
1.0
 40
1.0
 10
444.8743488616
 20
313.0955576615
 30
0.0
 10
444.1251535195
 20
313.0808724559
 30
0.0
 10
442.6897812985
 20
313.0056131766
 30
0.0
 10
440.6846540038
 20
312.753997613
 30
0.0
 10
439.0144767398
 20
312.3852313325
 30
0.0
 10
438.043486317
 20
312.0376027164
 30
0.0
 10
437.6555997624
 20
311.8276540861
 30
0.0
  0
SPLINE
  5
44D
100
AcDbEntity
  8
0
100
AcDbSpline
 62
7
  6
CONTINUOUS
 70
0
 71
3
 72
9
 73
5
 74
0
 42
0.0000001
 43
0.0000001
 44
0.0000000001
 40
0.0
 40
0.0
 40
0.0
 40
0.0
 40
0.2624480253
 40
1.0
 40
1.0
 40
1.0
 40
1.0
 10
437.6555997624
 20
311.8276540861
 30
0.0
 10
437.6340724094
 20
311.8160021269
 30
0.0
 10
437.5524927467
 20
311.7707917777
 30
0.0
 10
437.4727083604
 20
311.7223033068
 30
0.0
 10
437.415280434
 20
311.6844314895
 30
0.0
  0
SPLINE
  5
44E
100
AcDbEntity
  8
0
100
AcDbSpline
 62
7
  6
CONTINUOUS
 70
0
 71
3
 72
9
 73
5
 74
0
 42
0.0000001
 43
0.0000001
 44
0.0000000001
 40
0.0
 40
0.0
 40
0.0
 40
0.0
 40
0.2827365304
 40
1.0
 40
1.0
 40
1.0
 40
1.0
 10
437.415280434
 20
311.6844314895
 30
0.0
 10
437.3801746038
 20
311.661280356
 30
0.0
 10
437.2580321361
 20
311.5765668307
 30
0.0
 10
437.14295522
 20
311.480313594
 30
0.0
 10
437.0707369949
 20
311.40179401
 30
0.0
  0
SPLINE
  5
44F
100
AcDbEntity
  8
0
100
AcDbSpline
 62
7
  6
CONTINUOUS
 70
0
 71
3
 72
9
 73
5
 74
0
 42
0.0000001
 43
0.0000001
 44
0.0000000001
 40
0.0
 40
0.0
 40
0.0
 40
0.0
 40
0.2706627476
 40
1.0
 40
1.0
 40
1.0
 40
1.0
 10
437.0707369949
 20
311.40179401
 30
0.0
 10
437.0601954125
 20
311.390332628
 30
0.0
 10
437.0221345979
 20
311.3471973186
 30
0.0
 10
436.9877222859
 20
311.3007173455
 30
0.0
 10
436.9658570008
 20
311.2649035198
 30
0.0
  0
SPLINE
  5
450
100
AcDbEntity
  8
0
100
AcDbSpline
 62
7
  6
CONTINUOUS
 70
0
 71
3
 72
9
 73
5
 74
0
 42
0.0000001
 43
0.0000001
 44
0.0000000001
 40
0.0
 40
0.0
 40
0.0
 40
0.0
 40
0.284056936
 40
1.0
 40
1.0
 40
1.0
 40
1.0
 10
436.9658570008
 20
311.2649035198
 30
0.0
 10
436.952674975
 20
311.2433122727
 30
0.0
 10
436.9103165749
 20
311.1650595933
 30
0.0
 10
436.887314888
 20
311.0752688336
 30
0.0
 10
436.887314888
 20
311.0115092683
 30
0.0
  0
SPLINE
  5
451
100
AcDbEntity
  8
02___PRT_ALL_AXES
100
AcDbSpline
 62
7
  6
CONTINUOUS
 70
0
 71
3
 72
15
 73
11
 74
0
 42
0.0000001
 43
0.0000001
 44
0.0000000001
 40
0.0
 40
0.0
 40
0.0
 40
0.0
 40
0.1822048321
 40
0.3579717837
 40
0.5209273911
 40
0.6656009091
 40
0.7873729819
 40
0.8386842839
 40
0.8833540325
 40
1.0
 40
1.0
 40
1.0
 40
1.0
 10
445.537314888
 20
308.0101374636
 30
0.0
 10
444.8316391386
 20
308.0101374636
 30
0.0
 10
443.4449720785
 20
308.0448817354
 30
0.0
 10
441.4323579139
 20
308.1999129683
 30
0.0
 10
439.5761491415
 20
308.4507982639
 30
0.0
 10
437.9449941871
 20
308.7887480518
 30
0.0
 10
436.7671959201
 20
309.1434885305
 30
0.0
 10
435.9851117335
 20
309.4781610672
 30
0.0
 10
435.2780456345
 20
309.8529895358
 30
0.0
 10
434.68741341
 20
310.3665565533
 30
0.0
 10
434.68741341
 20
310.818324103
 30
0.0
  0
SPLINE
  5
452
100
AcDbEntity
  8
02___PRT_ALL_AXES
100
AcDbSpline
 62
7
  6
CONTINUOUS
 70
0
 71
3
 72
15
 73
11
 74
0
 42
0.0000001
 43
0.0000001
 44
0.0000000001
 40
0.0
 40
0.0
 40
0.0
 40
0.0
 40
0.1166459675
 40
0.1613157161
 40
0.2126270181
 40
0.3343990909
 40
0.4790726089
 40
0.6420282163
 40
0.8177951679
 40
1.0
 40
1.0
 40
1.0
 40
1.0
 10
456.3872163659
 20
310.818324103
 30
0.0
 10
456.3872163659
 20
310.3665565533
 30
0.0
 10
455.7965841414
 20
309.8529895358
 30
0.0
 10
455.0895180424
 20
309.4781610672
 30
0.0
 10
454.3074338558
 20
309.1434885305
 30
0.0
 10
453.1296355888
 20
308.7887480518
 30
0.0
 10
451.4984806344
 20
308.4507982639
 30
0.0
 10
449.6422718621
 20
308.1999129683
 30
0.0
 10
447.6296576975
 20
308.0448817354
 30
0.0
 10
446.2429906373
 20
308.0101374636
 30
0.0
 10
445.537314888
 20
308.0101374636
 30
0.0
  0
SPLINE
  5
453
100
AcDbEntity
  8
0
100
AcDbSpline
 62
7
  6
CONTINUOUS
 70
0
 71
3
 72
11
 73
7
 74
0
 42
0.0000001
 43
0.0000001
 44
0.0000000001
 40
0.0
 40
0.0
 40
0.0
 40
0.0
 40
0.3671023839
 40
0.6413776973
 40
0.8386670233
 40
1.0
 40
1.0
 40
1.0
 40
1.0
 10
435.3470239363
 20
312.9120236729
 30
0.0
 10
435.2507522671
 20
312.8719558552
 30
0.0
 10
435.0821188892
 20
312.8021533042
 30
0.0
 10
434.8688602565
 20
312.6974992992
 30
0.0
 10
434.7223452484
 20
312.584926148
 30
0.0
 10
434.6870069579
 20
312.481074682
 30
0.0
 10
434.6872342677
 20
312.4352479846
 30
0.0
  0
SPLINE
  5
454
100
AcDbEntity
  8
0
100
AcDbSpline
 62
7
  6
CONTINUOUS
 70
0
 71
3
 72
9
 73
5
 74
0
 42
0.0000001
 43
0.0000001
 44
0.0000000001
 40
0.0
 40
0.0
 40
0.0
 40
0.0
 40
0.5442803339
 40
1.0
 40
1.0
 40
1.0
 40
1.0
 10
444.8144745398
 20
313.7504780763
 30
0.0
 10
443.5164499938
 20
313.7472797629
 30
0.0
 10
441.1322649413
 20
313.7260304984
 30
0.0
 10
438.7473046136
 20
313.5827716487
 30
0.0
 10
437.6698144803
 20
313.4406374388
 30
0.0
  0
SPLINE
  5
455
100
AcDbEntity
  8
0
100
AcDbSpline
 62
7
  6
CONTINUOUS
 70
0
 71
3
 72
9
 73
5
 74
0
 42
0.0000001
 43
0.0000001
 44
0.0000000001
 40
0.0
 40
0.0
 40
0.0
 40
0.0
 40
0.5757968476
 40
1.0
 40
1.0
 40
1.0
 40
1.0
 10
437.6698144803
 20
313.4406374388
 30
0.0
 10
437.2157106223
 20
313.3807355509
 30
0.0
 10
436.4307489787
 20
313.2513191648
 30
0.0
 10
435.6588119209
 20
313.041092943
 30
0.0
 10
435.3470239363
 20
312.9120236729
 30
0.0
  0
SPLINE
  5
456
100
AcDbEntity
  8
02___PRT_ALL_AXES
100
AcDbSpline
 62
7
  6
CONTINUOUS
 70
0
 71
3
 72
9
 73
5
 74
0
 42
0.0000001
 43
0.0000001
 44
0.0000000001
 40
0.0
 40
0.0
 40
0.0
 40
0.0
 40
0.5320524507
 40
1.0
 40
1.0
 40
1.0
 40
1.0
 10
445.537314888
 20
313.6265107424
 30
0.0
 10
446.8213225928
 20
313.6265107424
 30
0.0
 10
449.2353186185
 20
313.5179968508
 30
0.0
 10
451.6314549458
 20
313.1726592243
 30
0.0
 10
452.7321957299
 20
312.9202819854
 30
0.0
  0
SPLINE
  5
457
100
AcDbEntity
  8
02___PRT_ALL_AXES
100
AcDbSpline
 62
7
  6
CONTINUOUS
 70
0
 71
3
 72
11
 73
7
 74
0
 42
0.0000001
 43
0.0000001
 44
0.0000000001
 40
0.0
 40
0.0
 40
0.0
 40
0.0
 40
0.3628339448
 40
0.5157348952
 40
0.6489805639
 40
1.0
 40
1.0
 40
1.0
 40
1.0
 10
453.3610004684
 20
312.763966762
 30
0.0
 10
453.7967853191
 20
312.6465618318
 30
0.0
 10
454.4088974815
 20
312.4559800488
 30
0.0
 10
455.1535090697
 20
312.1270056714
 30
0.0
 10
455.8305669575
 20
311.7575264231
 30
0.0
 10
456.3872163659
 20
311.2549511321
 30
0.0
 10
456.3872163659
 20
310.818324103
 30
0.0
  0
SPLINE
  5
458
100
AcDbEntity
  8
0
100
AcDbSpline
 62
7
  6
CONTINUOUS
 70
0
 71
3
 72
9
 73
5
 74
0
 42
0.0000001
 43
0.0000001
 44
0.0000000001
 40
0.0
 40
0.0
 40
0.0
 40
0.0
 40
0.423650658
 40
1.0
 40
1.0
 40
1.0
 40
1.0
 10
455.7277088125
 20
312.9121772015
 30
0.0
 10
455.4154517558
 20
313.03779075
 30
0.0
 10
454.6431902206
 20
313.2417961344
 30
0.0
 10
453.8592724824
 20
313.3704613946
 30
0.0
 10
453.4053810906
 20
313.4308389242
 30
0.0
  0
SPLINE
  5
459
100
AcDbEntity
  8
0
100
AcDbSpline
 62
7
  6
CONTINUOUS
 70
0
 71
3
 72
9
 73
5
 74
0
 42
0.0000001
 43
0.0000001
 44
0.0000000001
 40
0.0
 40
0.0
 40
0.0
 40
0.0
 40
0.4558018036
 40
1.0
 40
1.0
 40
1.0
 40
1.0
 10
453.4053810906
 20
313.4308389242
 30
0.0
 10
452.3275933365
 20
313.5742083802
 30
0.0
 10
449.9428497463
 20
313.7284224256
 30
0.0
 10
447.55782491
 20
313.7478722007
 30
0.0
 10
446.2596831594
 20
313.7506205017
 30
0.0
  0
SPLINE
  5
45A
100
AcDbEntity
  8
0
100
AcDbSpline
 62
7
  6
CONTINUOUS
 70
0
 71
3
 72
11
 73
7
 74
0
 42
0.0000001
 43
0.0000001
 44
0.0000000001
 40
0.0
 40
0.0
 40
0.0
 40
0.0
 40
0.1626976648
 40
0.3606485775
 40
0.6345701718
 40
1.0
 40
1.0
 40
1.0
 40
1.0
 10
456.3873884068
 20
312.4349086866
 30
0.0
 10
456.3876334477
 20
312.4811924689
 30
0.0
 10
456.3525750517
 20
312.5858450815
 30
0.0
 10
456.2062244288
 20
312.699953609
 30
0.0
 10
455.9929065911
 20
312.804661292
 30
0.0
 10
455.8240804698
 20
312.8731931803
 30
0.0
 10
455.7277088125
 20
312.9121772015
 30
0.0
  0
SPLINE
  5
45B
100
AcDbEntity
  8
0
100
AcDbSpline
 62
7
  6
CONTINUOUS
 70
0
 71
3
 72
12
 73
8
 74
0
 42
0.0000001
 43
0.0000001
 44
0.0000000001
 40
0.0
 40
0.0
 40
0.0
 40
0.0
 40
0.2334674491
 40
0.3545701557
 40
0.4803230284
 40
0.7396016864
 40
1.0
 40
1.0
 40
1.0
 40
1.0
 10
457.537314888
 20
315.0101374636
 30
0.0
 10
457.2901963277
 20
315.0101374636
 30
0.0
 10
456.9082723469
 20
314.9675802889
 30
0.0
 10
456.442123872
 20
314.7525716975
 30
0.0
 10
456.0297838083
 20
314.3973496731
 30
0.0
 10
455.7470531851
 20
313.7412973151
 30
0.0
 10
455.7193565563
 20
313.1876747264
 30
0.0
 10
455.7277088125
 20
312.9121772015
 30
0.0
  0
SPLINE
  5
45C
100
AcDbEntity
  8
0
100
AcDbSpline
 62
7
  6
CONTINUOUS
 70
0
 71
3
 72
11
 73
7
 74
0
 42
0.0000001
 43
0.0000001
 44
0.0000000001
 40
0.0
 40
0.0
 40
0.0
 40
0.0
 40
0.2337306165
 40
0.4789695243
 40
0.7389595953
 40
1.0
 40
1.0
 40
1.0
 40
1.0
 10
433.537314888
 20
315.0101374636
 30
0.0
 10
433.7836381752
 20
315.0101558263
 30
0.0
 10
434.2952861856
 20
314.9531422498
 30
0.0
 10
434.987970475
 20
314.5136121567
 30
0.0
 10
435.3260254326
 20
313.7398061231
 30
0.0
 10
435.3549433423
 20
313.1870141034
 30
0.0
 10
435.3470239363
 20
312.9120236729
 30
0.0
  0
SPLINE
  5
45D
100
AcDbEntity
  8
02___PRT_ALL_AXES
100
AcDbSpline
 62
7
  6
CONTINUOUS
 70
0
 71
3
 72
11
 73
7
 74
0
 42
0.0000001
 43
0.0000001
 44
0.0000000001
 40
0.0
 40
0.0
 40
0.0
 40
0.0
 40
0.3510194361
 40
0.4842651048
 40
0.6371660552
 40
1.0
 40
1.0
 40
1.0
 40
1.0
 10
434.68741341
 20
310.818324103
 30
0.0
 10
434.68741341
 20
311.2549511321
 30
0.0
 10
435.2440628184
 20
311.7575264231
 30
0.0
 10
435.9211207062
 20
312.1270056714
 30
0.0
 10
436.6657322944
 20
312.4559800488
 30
0.0
 10
437.2778444568
 20
312.6465618318
 30
0.0
 10
437.7136293075
 20
312.763966762
 30
0.0
  0
SPLINE
  5
45E
100
AcDbEntity
  8
02___PRT_ALL_AXES
100
AcDbSpline
 62
7
  6
CONTINUOUS
 70
0
 71
3
 72
9
 73
5
 74
0
 42
0.0000001
 43
0.0000001
 44
0.0000000001
 40
0.0
 40
0.0
 40
0.0
 40
0.0
 40
0.4679475493
 40
1.0
 40
1.0
 40
1.0
 40
1.0
 10
438.342434046
 20
312.9202819854
 30
0.0
 10
439.4431748301
 20
313.1726592243
 30
0.0
 10
441.8393111574
 20
313.5179968508
 30
0.0
 10
444.2533071831
 20
313.6265107424
 30
0.0
 10
445.537314888
 20
313.6265107424
 30
0.0
  0
SPLINE
  5
45F
100
AcDbEntity
  8
0
100
AcDbSpline
 62
7
  6
CONTINUOUS
 70
0
 71
3
 72
15
 73
11
 74
0
 42
0.0000001
 43
0.0000001
 44
0.0000000001
 40
0.0
 40
0.0
 40
0.0
 40
0.0
 40
0.1166459669
 40
0.1613157155
 40
0.2126270173
 40
0.3343990897
 40
0.4790726068
 40
0.6420282141
 40
0.8177951671
 40
1.0
 40
1.0
 40
1.0
 40
1.0
 10
454.1872363445
 20
311.0115092732
 30
0.0
 10
454.1872363471
 20
310.6513443619
 30
0.0
 10
453.716363655
 20
310.2419107475
 30
0.0
 10
453.1526657997
 20
309.9430843642
 30
0.0
 10
452.5291608969
 20
309.676271696
 30
0.0
 10
451.5901788723
 20
309.3934601623
 30
0.0
 10
450.2897650185
 20
309.1240347542
 30
0.0
 10
448.8099303731
 20
308.9240202089
 30
0.0
 10
447.2054038659
 20
308.8004238789
 30
0.0
 10
446.0999043129
 20
308.7727245285
 30
0.0
 10
445.537314888
 20
308.7727245281
 30
0.0
  0
SPLINE
  5
460
100
AcDbEntity
  8
0
100
AcDbSpline
 62
7
  6
CONTINUOUS
 70
0
 71
3
 72
9
 73
5
 74
0
 42
0.0000001
 43
0.0000001
 44
0.0000000001
 40
0.0
 40
0.0
 40
0.0
 40
0.0
 40
0.2312150223
 40
1.0
 40
1.0
 40
1.0
 40
1.0
 10
453.9510057384
 20
311.457727025
 30
0.0
 10
453.9313032351
 20
311.4363496856
 30
0.0
 10
453.8430649796
 20
311.3466795622
 30
0.0
 10
453.7443596218
 20
311.2677381579
 30
0.0
 10
453.6655729688
 20
311.2117334469
 30
0.0
  0
SPLINE
  5
461
100
AcDbEntity
  8
0
100
AcDbSpline
 62
7
  6
CONTINUOUS
 70
0
 71
3
 72
10
 73
6
 74
0
 42
0.0000001
 43
0.0000001
 44
0.0000000001
 40
0.0
 40
0.0
 40
0.0
 40
0.0
 40
0.1834186783
 40
0.4137670433
 40
1.0
 40
1.0
 40
1.0
 40
1.0
 10
453.6655729688
 20
311.2117334469
 30
0.0
 10
453.4770915749
 20
311.0777533168
 30
0.0
 10
453.0129973206
 20
310.8313087522
 30
0.0
 10
451.8272394595
 20
310.3986142691
 30
0.0
 10
450.8132195776
 20
310.1895234819
 30
0.0
 10
450.0833928014
 20
310.0727838669
 30
0.0
  0
SPLINE
  5
462
100
AcDbEntity
  8
0
100
AcDbSpline
 62
7
  6
CONTINUOUS
 70
0
 71
3
 72
9
 73
5
 74
0
 42
0.0000001
 43
0.0000001
 44
0.0000000001
 40
0.0
 40
0.0
 40
0.0
 40
0.0
 40
0.2357951246
 40
1.0
 40
1.0
 40
1.0
 40
1.0
 10
449.862314888
 20
310.038590636
 30
0.0
 10
449.5251307973
 20
309.9881936602
 30
0.0
 10
448.090336777
 20
309.8072077873
 30
0.0
 10
446.6422572985
 20
309.7386503544
 30
0.0
 10
445.537314888
 20
309.7386503544
 30
0.0
  0
SPLINE
  5
463
100
AcDbEntity
  8
0
100
AcDbSpline
 62
7
  6
CONTINUOUS
 70
0
 71
3
 72
9
 73
5
 74
0
 42
0.0000001
 43
0.0000001
 44
0.0000000001
 40
0.0
 40
0.0
 40
0.0
 40
0.0
 40
0.2312149772
 40
1.0
 40
1.0
 40
1.0
 40
1.0
 10
437.1236234802
 20
311.4577276297
 30
0.0
 10
437.1433260095
 20
311.4363502358
 30
0.0
 10
437.2315644121
 20
311.3466798728
 30
0.0
 10
437.3302699782
 20
311.267738283
 30
0.0
 10
437.4090568071
 20
311.2117334469
 30
0.0
  0
SPLINE
  5
464
100
AcDbEntity
  8
0
100
AcDbSpline
 62
7
  6
CONTINUOUS
 70
0
 71
3
 72
10
 73
6
 74
0
 42
0.0000001
 43
0.0000001
 44
0.0000000001
 40
0.0
 40
0.0
 40
0.0
 40
0.0
 40
0.1834186783
 40
0.4137670433
 40
1.0
 40
1.0
 40
1.0
 40
1.0
 10
437.4090568071
 20
311.2117334469
 30
0.0
 10
437.597538201
 20
311.0777533168
 30
0.0
 10
438.0616324553
 20
310.8313087522
 30
0.0
 10
439.2473903164
 20
310.3986142691
 30
0.0
 10
440.2614101984
 20
310.1895234819
 30
0.0
 10
440.9912369745
 20
310.0727838669
 30
0.0
  0
SPLINE
  5
465
100
AcDbEntity
  8
0
100
AcDbSpline
 62
7
  6
CONTINUOUS
 70
0
 71
3
 72
9
 73
5
 74
0
 42
0.0000001
 43
0.0000001
 44
0.0000000001
 40
0.0
 40
0.0
 40
0.0
 40
0.0
 40
0.2357951246
 40
1.0
 40
1.0
 40
1.0
 40
1.0
 10
441.212314888
 20
310.038590636
 30
0.0
 10
441.5494989787
 20
309.9881936602
 30
0.0
 10
442.984292999
 20
309.8072077873
 30
0.0
 10
444.4323724775
 20
309.7386503544
 30
0.0
 10
445.537314888
 20
309.7386503544
 30
0.0
  0
SPLINE
  5
466
100
AcDbEntity
  8
0
100
AcDbSpline
 62
7
  6
CONTINUOUS
 70
0
 71
3
 72
15
 73
11
 74
0
 42
0.0000001
 43
0.0000001
 44
0.0000000001
 40
0.0
 40
0.0
 40
0.0
 40
0.0
 40
0.1822048324
 40
0.3579717846
 40
0.5209273929
 40
0.6656009113
 40
0.7873729825
 40
0.8386842843
 40
0.883354033
 40
1.0
 40
1.0
 40
1.0
 40
1.0
 10
445.537314888
 20
308.7727245281
 30
0.0
 10
444.9747254646
 20
308.7727245279
 30
0.0
 10
443.8692259158
 20
308.8004238792
 30
0.0
 10
442.26469941
 20
308.924020207
 30
0.0
 10
440.7848647613
 20
309.1240347555
 30
0.0
 10
439.4844509042
 20
309.3934601605
 30
0.0
 10
438.5454688804
 20
309.6762716956
 30
0.0
 10
437.9219639813
 20
309.9430843626
 30
0.0
 10
437.3582661254
 20
310.2419107449
 30
0.0
 10
436.887393431
 20
310.6513443568
 30
0.0
 10
436.8873934314
 20
311.0115092683
 30
0.0
  0
SPLINE
  5
467
100
AcDbEntity
  8
0
100
AcDbSpline
 62
7
  6
CONTINUOUS
 70
0
 71
3
 72
17
 73
13
 74
0
 42
0.0000001
 43
0.0000001
 44
0.0000000001
 40
0.0
 40
0.0
 40
0.0
 40
0.0
 40
0.390856744
 40
0.5600068731
 40
0.6997646418
 40
0.8045632925
 40
0.8437299826
 40
0.8753277597
 40
0.9022076906
 40
0.9291095554
 40
0.9607623191
 40
1.0
 40
1.0
 40
1.0
 40
1.0
 10
445.537314888
 20
308.5277755538
 30
0.0
 10
444.1632030985
 20
308.5277755538
 30
0.0
 10
442.1900164075
 20
308.638036783
 30
0.0
 10
439.7616262064
 20
309.0544244627
 30
0.0
 10
438.3595999367
 20
309.4446789234
 30
0.0
 10
437.4379561752
 20
309.8546699656
 30
0.0
 10
436.9515169363
 20
310.2404843194
 30
0.0
 10
436.7399769786
 20
310.5181486415
 30
0.0
 10
436.6629431187
 20
310.8196205496
 30
0.0
 10
436.7412435757
 20
311.1209798037
 30
0.0
 10
436.9538383116
 20
311.3982899578
 30
0.0
 10
437.1503958671
 20
311.5542595895
 30
0.0
 10
437.2644059551
 20
311.6319170592
 30
0.0
  0
SPLINE
  5
468
100
AcDbEntity
  8
0
100
AcDbSpline
 62
7
  6
CONTINUOUS
 70
0
 71
3
 72
9
 73
5
 74
0
 42
0.0000001
 43
0.0000001
 44
0.0000000001
 40
0.0
 40
0.0
 40
0.0
 40
0.0
 40
0.2379892451
 40
1.0
 40
1.0
 40
1.0
 40
1.0
 10
437.2644059551
 20
311.6319170592
 30
0.0
 10
437.2858535552
 20
311.6465259976
 30
0.0
 10
437.3768586707
 20
311.706609435
 30
0.0
 10
437.471089785
 20
311.7617371676
 30
0.0
 10
437.5440632381
 20
311.8014708641
 30
0.0
  0
SPLINE
  5
469
100
AcDbEntity
  8
0
100
AcDbSpline
 62
7
  6
CONTINUOUS
 70
0
 71
3
 72
9
 73
5
 74
0
 42
0.0000001
 43
0.0000001
 44
0.0000000001
 40
0.0
 40
0.0
 40
0.0
 40
0.0
 40
0.2391992074
 40
1.0
 40
1.0
 40
1.0
 40
1.0
 10
437.5440632381
 20
311.8014708641
 30
0.0
 10
437.570112109
 20
311.8156543498
 30
0.0
 10
437.6796718201
 20
311.8737368917
 30
0.0
 10
437.791659696
 20
311.9271888182
 30
0.0
 10
437.8777751641
 20
311.9657063675
 30
0.0
  0
SPLINE
  5
46A
100
AcDbEntity
  8
0
100
AcDbSpline
 62
7
  6
CONTINUOUS
 70
0
 71
3
 72
9
 73
5
 74
0
 42
0.0000001
 43
0.0000001
 44
0.0000000001
 40
0.0
 40
0.0
 40
0.0
 40
0.0
 40
0.2272974489
 40
1.0
 40
1.0
 40
1.0
 40
1.0
 10
437.8777751641
 20
311.9657063675
 30
0.0
 10
437.9588949877
 20
312.0019894751
 30
0.0
 10
438.3195562488
 20
312.1531855479
 30
0.0
 10
438.6922219706
 20
312.2744594712
 30
0.0
 10
438.9827259797
 20
312.3573435411
 30
0.0
  0
SPLINE
  5
46B
100
AcDbEntity
  8
0
100
AcDbSpline
 62
7
  6
CONTINUOUS
 70
0
 71
3
 72
9
 73
5
 74
0
 42
0.0000001
 43
0.0000001
 44
0.0000000001
 40
0.0
 40
0.0
 40
0.0
 40
0.0
 40
0.4602478942
 40
1.0
 40
1.0
 40
1.0
 40
1.0
 10
439.1639196894
 20
312.4075110545
 30
0.0
 10
440.0106740212
 20
312.6350313246
 30
0.0
 10
441.8960325279
 20
312.9555361356
 30
0.0
 10
443.7992905907
 20
313.0799897998
 30
0.0
 10
444.8273135161
 20
313.1014565757
 30
0.0
  0
SPLINE
  5
46C
100
AcDbEntity
  8
0
100
AcDbSpline
 62
7
  6
CONTINUOUS
 70
0
 71
3
 72
9
 73
5
 74
0
 42
0.0000001
 43
0.0000001
 44
0.0000000001
 40
0.0
 40
0.0
 40
0.0
 40
0.0
 40
0.2201599331
 40
1.0
 40
1.0
 40
1.0
 40
1.0
 10
453.6518232987
 20
311.6352379445
 30
0.0
 10
453.6192065294
 20
311.6004633704
 30
0.0
 10
453.4624748656
 20
311.4505374846
 30
0.0
 10
453.279665819
 20
311.3302390871
 30
0.0
 10
453.1327420492
 20
311.2469687585
 30
0.0
  0
SPLINE
  5
46D
100
AcDbEntity
  8
0
100
AcDbSpline
 62
7
  6
CONTINUOUS
 70
0
 71
3
 72
9
 73
5
 74
0
 42
0.0000001
 43
0.0000001
 44
0.0000000001
 40
0.0
 40
0.0
 40
0.0
 40
0.0
 40
0.2260617024
 40
1.0
 40
1.0
 40
1.0
 40
1.0
 10
453.1327420492
 20
311.2469687585
 30
0.0
 10
453.0756762375
 20
311.2146262118
 30
0.0
 10
452.8191912903
 20
311.0787004033
 30
0.0
 10
452.5499957095
 20
310.9678999643
 30
0.0
 10
452.3389463586
 20
310.8911690519
 30
0.0
  0
SPLINE
  5
46E
100
AcDbEntity
  8
0
100
AcDbSpline
 62
7
  6
CONTINUOUS
 70
0
 71
3
 72
9
 73
5
 74
0
 42
0.0000001
 43
0.0000001
 44
0.0000000001
 40
0.0
 40
0.0
 40
0.0
 40
0.0
 40
0.2404052401
 40
1.0
 40
1.0
 40
1.0
 40
1.0
 10
452.3389463586
 20
310.8911690519
 30
0.0
 10
452.3000030988
 20
310.8770105063
 30
0.0
 10
452.1375314947
 20
310.8194434544
 30
0.0
 10
451.9732749909
 20
310.7669609601
 30
0.0
 10
451.8478238338
 20
310.7294932662
 30
0.0
  0
SPLINE
  5
46F
100
AcDbEntity
  8
0
100
AcDbSpline
 62
7
  6
CONTINUOUS
 70
0
 71
3
 72
9
 73
5
 74
0
 42
0.0000001
 43
0.0000001
 44
0.0000000001
 40
0.0
 40
0.0
 40
0.0
 40
0.0
 40
0.2289798
 40
1.0
 40
1.0
 40
1.0
 40
1.0
 10
451.8478238338
 20
310.7294932662
 30
0.0
 10
451.7131489811
 20
310.6892707901
 30
0.0
 10
451.1213726378
 20
310.5257687969
 30
0.0
 10
450.5185179234
 20
310.4043476591
 30
0.0
 10
450.0516657137
 20
310.3266725142
 30
0.0
  0
SPLINE
  5
470
100
AcDbEntity
  8
0
100
AcDbSpline
 62
7
  6
CONTINUOUS
 70
0
 71
3
 72
9
 73
5
 74
0
 42
0.0000001
 43
0.0000001
 44
0.0000000001
 40
0.0
 40
0.0
 40
0.0
 40
0.0
 40
0.5397581108
 40
1.0
 40
1.0
 40
1.0
 40
1.0
 10
446.2474394498
 20
313.1014539868
 30
0.0
 10
447.2755158562
 20
313.0799823288
 30
0.0
 10
449.1788511384
 20
312.9555120489
 30
0.0
 10
451.0642844705
 20
312.6349686662
 30
0.0
 10
451.9110560201
 20
312.4074181192
 30
0.0
  0
SPLINE
  5
471
100
AcDbEntity
  8
0
100
AcDbSpline
 62
7
  6
CONTINUOUS
 70
0
 71
3
 72
9
 73
5
 74
0
 42
0.0000001
 43
0.0000001
 44
0.0000000001
 40
0.0
 40
0.0
 40
0.0
 40
0.0
 40
0.2724541457
 40
1.0
 40
1.0
 40
1.0
 40
1.0
 10
452.0918886146
 20
312.3573478845
 30
0.0
 10
452.1943391968
 20
312.3281177208
 30
0.0
 10
452.5687871296
 20
312.2156474705
 30
0.0
 10
452.9374061902
 20
312.081766876
 30
0.0
 10
453.1971017695
 20
311.9655958267
 30
0.0
  0
SPLINE
  5
472
100
AcDbEntity
  8
0
100
AcDbSpline
 62
7
  6
CONTINUOUS
 70
0
 71
3
 72
9
 73
5
 74
0
 42
0.0000001
 43
0.0000001
 44
0.0000000001
 40
0.0
 40
0.0
 40
0.0
 40
0.0
 40
0.2633565529
 40
1.0
 40
1.0
 40
1.0
 40
1.0
 10
453.1971017695
 20
311.9655958267
 30
0.0
 10
453.2328794305
 20
311.9495912091
 30
0.0
 10
453.3680871036
 20
311.8874067937
 30
0.0
 10
453.5006652104
 20
311.8193645109
 30
0.0
 10
453.5959100588
 20
311.7650736963
 30
0.0
  0
SPLINE
  5
473
100
AcDbEntity
  8
0
100
AcDbSpline
 62
7
  6
CONTINUOUS
 70
0
 71
3
 72
8
 73
4
 74
0
 42
0.0000001
 43
0.0000001
 44
0.0000000001
 40
0.0
 40
0.0
 40
0.0
 40
0.0
 40
1.0
 40
1.0
 40
1.0
 40
1.0
 10
453.5959100588
 20
311.7650736963
 30
0.0
 10
453.6690415476
 20
311.7233877871
 30
0.0
 10
453.7408397846
 20
311.6791860302
 30
0.0
 10
453.8104078063
 20
311.6317917263
 30
0.0
  0
SPLINE
  5
474
100
AcDbEntity
  8
0
100
AcDbSpline
 62
7
  6
CONTINUOUS
 70
0
 71
3
 72
17
 73
13
 74
0
 42
0.0000001
 43
0.0000001
 44
0.0000000001
 40
0.0
 40
0.0
 40
0.0
 40
0.0
 40
0.0392333816
 40
0.0708829961
 40
0.0977835454
 40
0.124664206
 40
0.1562639575
 40
0.1954329615
 40
0.3002356113
 40
0.4399956155
 40
0.6091461629
 40
1.0
 40
1.0
 40
1.0
 40
1.0
 10
453.8104078063
 20
311.6317917263
 30
0.0
 10
453.9243966477
 20
311.5541350433
 30
0.0
 10
454.1209152752
 20
311.3981664347
 30
0.0
 10
454.3334494766
 20
311.1208554089
 30
0.0
 10
454.4116852779
 20
310.8194991215
 30
0.0
 10
454.3345975124
 20
310.5180448286
 30
0.0
 10
454.1230231611
 20
310.2403967558
 30
0.0
 10
453.6365483412
 20
309.8546025354
 30
0.0
 10
452.7148890075
 20
309.4446312257
 30
0.0
 10
451.3128643488
 20
309.0543955447
 30
0.0
 10
448.8845240566
 20
308.638031513
 30
0.0
 10
446.9113876878
 20
308.5277755538
 30
0.0
 10
445.537314888
 20
308.5277755538
 30
0.0
  0
SPLINE
  5
475
100
AcDbEntity
  8
0
100
AcDbSpline
 62
7
  6
CONTINUOUS
 70
0
 71
3
 72
9
 73
5
 74
0
 42
0.0000001
 43
0.0000001
 44
0.0000000001
 40
0.0
 40
0.0
 40
0.0
 40
0.0
 40
0.2201599331
 40
1.0
 40
1.0
 40
1.0
 40
1.0
 10
437.4228064772
 20
311.6352379445
 30
0.0
 10
437.4554232465
 20
311.6004633704
 30
0.0
 10
437.6121549104
 20
311.4505374846
 30
0.0
 10
437.7949639569
 20
311.3302390871
 30
0.0
 10
437.9418877267
 20
311.2469687585
 30
0.0
  0
SPLINE
  5
476
100
AcDbEntity
  8
0
100
AcDbSpline
 62
7
  6
CONTINUOUS
 70
0
 71
3
 72
9
 73
5
 74
0
 42
0.0000001
 43
0.0000001
 44
0.0000000001
 40
0.0
 40
0.0
 40
0.0
 40
0.0
 40
0.2260617024
 40
1.0
 40
1.0
 40
1.0
 40
1.0
 10
437.9418877267
 20
311.2469687585
 30
0.0
 10
437.9989535384
 20
311.2146262118
 30
0.0
 10
438.2554384857
 20
311.0787004033
 30
0.0
 10
438.5246340664
 20
310.9678999643
 30
0.0
 10
438.7356834173
 20
310.8911690519
 30
0.0
  0
SPLINE
  5
477
100
AcDbEntity
  8
0
100
AcDbSpline
 62
7
  6
CONTINUOUS
 70
0
 71
3
 72
9
 73
5
 74
0
 42
0.0000001
 43
0.0000001
 44
0.0000000001
 40
0.0
 40
0.0
 40
0.0
 40
0.0
 40
0.2404052401
 40
1.0
 40
1.0
 40
1.0
 40
1.0
 10
438.7356834173
 20
310.8911690519
 30
0.0
 10
438.7746266771
 20
310.8770105063
 30
0.0
 10
438.9370982812
 20
310.8194434544
 30
0.0
 10
439.101354785
 20
310.7669609601
 30
0.0
 10
439.2268059421
 20
310.7294932662
 30
0.0
  0
SPLINE
  5
478
100
AcDbEntity
  8
0
100
AcDbSpline
 62
7
  6
CONTINUOUS
 70
0
 71
3
 72
9
 73
5
 74
0
 42
0.0000001
 43
0.0000001
 44
0.0000000001
 40
0.0
 40
0.0
 40
0.0
 40
0.0
 40
0.2289798
 40
1.0
 40
1.0
 40
1.0
 40
1.0
 10
439.2268059421
 20
310.7294932662
 30
0.0
 10
439.3614807948
 20
310.6892707901
 30
0.0
 10
439.9532571381
 20
310.5257687969
 30
0.0
 10
440.5561118525
 20
310.4043476591
 30
0.0
 10
441.0229640622
 20
310.3266725142
 30
0.0
  0
SPLINE
  5
479
100
AcDbEntity
  8
AXES_REF
100
AcDbSpline
 62
7
  6
CONTINUOUS
 70
0
 71
3
 72
11
 73
7
 74
0
 42
0.0000001
 43
0.0000001
 44
0.0000000001
 40
0.0
 40
0.0
 40
0.0
 40
0.0
 40
0.2470687041
 40
0.4959594764
 40
0.7469633364
 40
1.0
 40
1.0
 40
1.0
 40
1.0
 10
153.1255594979
 20
99.8101374636
 30
0.0
 10
153.5993425127
 20
99.8724589209
 30
0.0
 10
154.5427750006
 20
100.0625865889
 30
0.0
 10
155.9176238982
 20
100.5149459016
 30
0.0
 10
157.2516860578
 20
101.103470696
 30
0.0
 10
158.1111503613
 20
101.5654338824
 30
0.0
 10
158.5349893969
 20
101.8101374636
 30
0.0
  0
SPLINE
  5
47A
100
AcDbEntity
  8
AXES_REF
100
AcDbSpline
 62
7
  6
CONTINUOUS
 70
0
 71
3
 72
11
 73
7
 74
0
 42
0.0000001
 43
0.0000001
 44
0.0000000001
 40
0.0
 40
0.0
 40
0.0
 40
0.0
 40
0.2530366769
 40
0.5040405578
 40
0.7529313251
 40
1.0
 40
1.0
 40
1.0
 40
1.0
 10
145.0349893969
 20
101.8101374636
 30
0.0
 10
145.4588284549
 20
101.5654338694
 30
0.0
 10
146.3182928129
 20
101.1034706437
 30
0.0
 10
147.6523550321
 20
100.5149458413
 30
0.0
 10
149.0272039141
 20
100.0625865638
 30
0.0
 10
149.9706363369
 20
99.8724589135
 30
0.0
 10
150.4444192959
 20
99.8101374636
 30
0.0
  0
SPLINE
  5
47B
100
AcDbEntity
  8
AXES_REF
100
AcDbSpline
 62
7
  6
CONTINUOUS
 70
0
 71
3
 72
11
 73
7
 74
0
 42
0.0000001
 43
0.0000001
 44
0.0000000001
 40
0.0
 40
0.0
 40
0.0
 40
0.0
 40
0.2470687041
 40
0.4959594764
 40
0.7469633364
 40
1.0
 40
1.0
 40
1.0
 40
1.0
 10
166.6255594979
 20
99.8101374636
 30
0.0
 10
167.0993425127
 20
99.8724589209
 30
0.0
 10
168.0427750006
 20
100.0625865889
 30
0.0
 10
169.4176238982
 20
100.5149459016
 30
0.0
 10
170.7516860578
 20
101.103470696
 30
0.0
 10
171.6111503613
 20
101.5654338824
 30
0.0
 10
172.0349893969
 20
101.8101374636
 30
0.0
  0
SPLINE
  5
47C
100
AcDbEntity
  8
AXES_REF
100
AcDbSpline
 62
7
  6
CONTINUOUS
 70
0
 71
3
 72
11
 73
7
 74
0
 42
0.0000001
 43
0.0000001
 44
0.0000000001
 40
0.0
 40
0.0
 40
0.0
 40
0.0
 40
0.2530366769
 40
0.5040405578
 40
0.7529313251
 40
1.0
 40
1.0
 40
1.0
 40
1.0
 10
158.5349893969
 20
101.8101374636
 30
0.0
 10
158.9588284549
 20
101.5654338694
 30
0.0
 10
159.8182928129
 20
101.1034706437
 30
0.0
 10
161.1523550321
 20
100.5149458413
 30
0.0
 10
162.5272039141
 20
100.0625865638
 30
0.0
 10
163.4706363369
 20
99.8724589135
 30
0.0
 10
163.9444192959
 20
99.8101374636
 30
0.0
  0
SPLINE
  5
47D
100
AcDbEntity
  8
0
100
AcDbSpline
 62
7
  6
CONTINUOUS
 70
0
 71
3
 72
8
 73
4
 74
0
 42
0.0000001
 43
0.0000001
 44
0.0000000001
 40
0.0
 40
0.0
 40
0.0
 40
0.0
 40
1.0
 40
1.0
 40
1.0
 40
1.0
 10
189.5950720916
 20
371.3101374636
 30
0.0
 10
179.899950578
 20
371.3101374636
 30
0.0
 10
174.9023462765
 20
366.4648993632
 30
0.0
 10
174.6022591871
 20
356.7744231623
 30
0.0
  0
SPLINE
  5
47E
100
AcDbEntity
  8
0
100
AcDbSpline
 62
7
  6
CONTINUOUS
 70
0
 71
3
 72
18
 73
14
 74
0
 42
0.0000001
 43
0.0000001
 44
0.0000000001
 40
0.0
 40
0.0
 40
0.0
 40
0.0
 40
0.1948965152
 40
0.3826710828
 40
0.5555017082
 40
0.7069743519
 40
0.8313556508
 40
0.8817892061
 40
0.9237564167
 40
0.956830626
 40
0.9806648836
 40
0.9950914354
 40
1.0
 40
1.0
 40
1.0
 40
1.0
 10
224.8349893969
 20
376.6376957629
 30
0.0
 10
224.8804720738
 20
376.6376957629
 30
0.0
 10
224.9697760814
 20
376.6376203795
 30
0.0
 10
225.0994093761
 20
376.6372829973
 30
0.0
 10
225.2189201869
 20
376.6367456911
 30
0.0
 10
225.3235985631
 20
376.6359971589
 30
0.0
 10
225.3998085556
 20
376.6352740872
 30
0.0
 10
225.4502846638
 20
376.6344771762
 30
0.0
 10
225.4797980484
 20
376.6341113273
 30
0.0
 10
225.5022456688
 20
376.6331477714
 30
0.0
 10
225.520306823
 20
376.6335753814
 30
0.0
 10
225.5278460443
 20
376.6313514927
 30
0.0
 10
225.5349893969
 20
376.6327326916
 30
0.0
 10
225.5349893969
 20
376.631587188
 30
0.0
  0
SPLINE
  5
47F
100
AcDbEntity
  8
0
100
AcDbSpline
 62
7
  6
CONTINUOUS
 70
0
 71
3
 72
18
 73
14
 74
0
 42
0.0000001
 43
0.0000001
 44
0.0000000001
 40
0.0
 40
0.0
 40
0.0
 40
0.0
 40
0.0051315297
 40
0.0195647698
 40
0.0434553848
 40
0.076541497
 40
0.1185461772
 40
0.169013734
 40
0.293218749
 40
0.4445872343
 40
0.6174677297
 40
0.8054354625
 40
1.0
 40
1.0
 40
1.0
 40
1.0
 10
142.5111675974
 20
376.6563115943
 30
0.0
 10
142.511125296
 20
376.655114698
 30
0.0
 10
142.5180231714
 20
376.6548581761
 30
0.0
 10
142.525992772
 20
376.6552142317
 30
0.0
 10
142.5438467402
 20
376.6561993191
 30
0.0
 10
142.5664103741
 20
376.6569443963
 30
0.0
 10
142.5959199794
 20
376.6568731664
 30
0.0
 10
142.6463871215
 20
376.6558254349
 30
0.0
 10
142.7224949635
 20
376.6531504394
 30
0.0
 10
142.8270711097
 20
376.6495154064
 30
0.0
 10
142.9465877076
 20
376.6463285094
 30
0.0
 10
143.0761953792
 20
376.6446323319
 30
0.0
 10
143.1654442811
 20
376.6410320078
 30
0.0
 10
143.210730821
 20
376.6376957629
 30
0.0
  0
SPLINE
  5
480
100
AcDbEntity
  8
0
100
AcDbSpline
 62
7
  6
CONTINUOUS
 70
0
 71
3
 72
18
 73
14
 74
0
 42
0.0000001
 43
0.0000001
 44
0.0000000001
 40
0.0
 40
0.0
 40
0.0
 40
0.0
 40
0.0049219076
 40
0.0193685639
 40
0.0431974635
 40
0.0762326241
 40
0.1182343722
 40
0.1687222218
 40
0.2929924728
 40
0.4444414348
 40
0.6173730702
 40
0.8053420267
 40
1.0
 40
1.0
 40
1.0
 40
1.0
 10
225.5349893969
 20
375.3389350308
 30
0.0
 10
225.5349893969
 20
375.3400836477
 30
0.0
 10
225.5278320286
 20
375.3386934211
 30
0.0
 10
225.520288762
 20
375.3409226263
 30
0.0
 10
225.5022343113
 20
375.3404940615
 30
0.0
 10
225.4797882742
 20
375.3414601346
 30
0.0
 10
225.4502631847
 20
375.3418251532
 30
0.0
 10
225.3997923038
 20
375.3426214411
 30
0.0
 10
225.3236011916
 20
375.3433460278
 30
0.0
 10
225.2189307106
 20
375.344092736
 30
0.0
 10
225.0993565474
 20
375.3446314808
 30
0.0
 10
224.9697100431
 20
375.3449673576
 30
0.0
 10
224.8804163841
 20
375.3450436092
 30
0.0
 10
224.8349893969
 20
375.3450436056
 30
0.0
  0
SPLINE
  5
481
100
AcDbEntity
  8
0
100
AcDbSpline
 62
7
  6
CONTINUOUS
 70
0
 71
3
 72
22
 73
18
 74
0
 42
0.0000001
 43
0.0000001
 44
0.0000000001
 40
0.0
 40
0.0
 40
0.0
 40
0.0
 40
0.0007876105
 40
0.0028725503
 40
0.0064450554
 40
0.0116384524
 40
0.0274024429
 40
0.0513398217
 40
0.0847246386
 40
0.1286228814
 40
0.1838289037
 40
0.2502195618
 40
0.3268837125
 40
0.4119586284
 40
0.5991197946
 40
0.7977707613
 40
1.0
 40
1.0
 40
1.0
 40
1.0
 10
174.6022591878
 20
356.7744231779
 30
0.0
 10
174.6022917109
 20
356.7754734201
 30
0.0
 10
174.5973333199
 20
356.7770391967
 30
0.0
 10
174.5901652756
 20
356.7787272133
 30
0.0
 10
174.5751165722
 20
356.7808931654
 30
0.0
 10
174.5430625697
 20
356.7844939061
 30
0.0
 10
174.4829779802
 20
356.7893590223
 30
0.0
 10
174.3858816186
 20
356.7956887522
 30
0.0
 10
174.2509576905
 20
356.8031044212
 30
0.0
 10
174.0744483309
 20
356.8116891528
 30
0.0
 10
173.8538628717
 20
356.8214091181
 30
0.0
 10
173.5895892088
 20
356.8322037346
 30
0.0
 10
173.2854650125
 20
356.843875147
 30
0.0
 10
172.820310405
 20
356.8608699014
 30
0.0
 10
172.1924725637
 20
356.8824363415
 30
0.0
 10
171.4083873485
 20
356.9080048524
 30
0.0
 10
170.8738391242
 20
356.9247887549
 30
0.0
 10
170.6041757465
 20
356.9331388437
 30
0.0
  0
SPLINE
  5
482
100
AcDbEntity
  8
0
100
AcDbSpline
 62
7
  6
CONTINUOUS
 70
0
 71
3
 72
15
 73
11
 74
0
 42
0.0000001
 43
0.0000001
 44
0.0000000001
 40
0.0
 40
0.0
 40
0.0
 40
0.0
 40
0.1250862923
 40
0.2501321671
 40
0.3751042302
 40
0.5000065751
 40
0.624907743
 40
0.7498767039
 40
0.8749183741
 40
1.0
 40
1.0
 40
1.0
 40
1.0
 10
189.5950720916
 20
375.3450436056
 30
0.0
 10
188.3479121623
 20
375.3448720753
 30
0.0
 10
185.8500085228
 20
375.2049742965
 30
0.0
 10
182.1717236235
 20
374.4352693366
 30
0.0
 10
178.704819278
 20
372.958593612
 30
0.0
 10
175.6788740703
 20
370.698588085
 30
0.0
 10
173.3263852692
 20
367.7440114601
 30
0.0
 10
171.7432100741
 20
364.3245251304
 30
0.0
 10
170.8600780685
 20
360.6719375769
 30
0.0
 10
170.6429573489
 20
358.179649116
 30
0.0
 10
170.6041757465
 20
356.9331388437
 30
0.0
  0
SPLINE
  5
483
100
AcDbEntity
  8
0
100
AcDbSpline
 62
7
  6
CONTINUOUS
 70
0
 71
3
 72
11
 73
7
 74
0
 42
0.0000001
 43
0.0000001
 44
0.0000000001
 40
0.0
 40
0.0
 40
0.0
 40
0.0
 40
0.2512322293
 40
0.5
 40
0.7487677707
 40
1.0
 40
1.0
 40
1.0
 40
1.0
 10
294.9280635376
 20
315.0101374636
 30
0.0
 10
294.7655088379
 20
315.0101374636
 30
0.0
 10
294.4419157108
 20
314.9894330726
 30
0.0
 10
293.9781783936
 20
314.7390099701
 30
0.0
 10
293.856312301
 20
314.2262598506
 30
0.0
 10
293.9200654591
 20
313.9083342012
 30
0.0
 10
293.9621377113
 20
313.7513184185
 30
0.0
  0
SPLINE
  5
484
100
AcDbEntity
  8
0
100
AcDbSpline
 62
7
  6
CONTINUOUS
 70
0
 71
3
 72
11
 73
7
 74
0
 42
0.0000001
 43
0.0000001
 44
0.0000000001
 40
0.0
 40
0.0
 40
0.0
 40
0.0
 40
0.2503466872
 40
0.5
 40
0.7496533128
 40
1.0
 40
1.0
 40
1.0
 40
1.0
 10
265.020729146
 20
315.0101374636
 30
0.0
 10
265.9032942424
 20
315.0101374636
 30
0.0
 10
267.6796444282
 20
314.832139806
 30
0.0
 10
270.1407506312
 20
313.6826793726
 30
0.0
 10
271.8880253074
 20
311.6029355816
 30
0.0
 10
272.5197111009
 20
309.9331822444
 30
0.0
 10
272.7481357564
 20
309.0806898245
 30
0.0
  0
SPLINE
  5
485
100
AcDbEntity
  8
0
100
AcDbSpline
 62
7
  6
CONTINUOUS
 70
0
 71
3
 72
18
 73
14
 74
0
 42
0.0000001
 43
0.0000001
 44
0.0000000001
 40
0.0
 40
0.0
 40
0.0
 40
0.0
 40
0.222825501
 40
0.4210404538
 40
0.5923010697
 40
0.7350651682
 40
0.8481690306
 40
0.8933363315
 40
0.9307915042
 40
0.9604518782
 40
0.9821117676
 40
0.9954362375
 40
1.0
 40
1.0
 40
1.0
 40
1.0
 10
275.8898808483
 20
310.2738101153
 30
0.0
 10
275.6517884234
 20
310.1962694634
 30
0.0
 10
275.2014606372
 20
310.0510968378
 30
0.0
 10
274.5681757361
 20
309.8462600462
 30
0.0
 10
274.0224977658
 20
309.6627873453
 30
0.0
 10
273.5712627671
 20
309.4992887212
 30
0.0
 10
273.2580902774
 20
309.3701737304
 30
0.0
 10
273.0598250897
 20
309.2757012292
 30
0.0
 10
272.9470593731
 20
309.2172937445
 30
0.0
 10
272.864241119
 20
309.1649852872
 30
0.0
 10
272.7980773652
 20
309.1256675763
 30
0.0
 10
272.7741756764
 20
309.095163806
 30
0.0
 10
272.7468906123
 20
309.0856649174
 30
0.0
 10
272.7481357564
 20
309.0806898245
 30
0.0
  0
SPLINE
  5
486
100
AcDbEntity
  8
0
100
AcDbSpline
 62
7
  6
CONTINUOUS
 70
0
 71
3
 72
12
 73
8
 74
0
 42
0.0000001
 43
0.0000001
 44
0.0000000001
 40
0.0
 40
0.0
 40
0.0
 40
0.0
 40
0.2623473901
 40
0.5297943608
 40
0.7820443974
 40
0.8965928461
 40
1.0
 40
1.0
 40
1.0
 40
1.0
 10
286.8113565379
 20
312.9120236729
 30
0.0
 10
285.8357064831
 20
312.7627762272
 30
0.0
 10
283.8503903994
 20
312.5814338901
 30
0.0
 10
280.9405375454
 20
312.0959776428
 30
0.0
 10
278.6661160631
 20
311.3493804545
 30
0.0
 10
277.0252604382
 20
310.6902398839
 30
0.0
 10
276.2596857675
 20
310.3946156806
 30
0.0
 10
275.8898808483
 20
310.2738101153
 30
0.0
  0
LINE
  5
487
100
AcDbEntity
  8
0
100
AcDbLine
 62
7
  6
CONTINUOUS
 10
293.9621377113
 20
313.7513184185
 11
293.7394358028
 21
313.7418322923
  0
SPLINE
  5
488
100
AcDbEntity
  8
0
100
AcDbSpline
 62
7
  6
CONTINUOUS
 70
0
 71
3
 72
9
 73
5
 74
0
 42
0.0000001
 43
0.0000001
 44
0.0000000001
 40
0.0
 40
0.0
 40
0.0
 40
0.0
 40
0.192271022
 40
1.0
 40
1.0
 40
1.0
 40
1.0
 10
293.3450634902
 20
313.7191553806
 30
0.0
 10
293.2298873382
 20
313.7116803701
 30
0.0
 10
292.6310901621
 20
313.6692353282
 30
0.0
 10
292.0334121021
 20
313.6115732213
 30
0.0
 10
291.5514253991
 20
313.5587557214
 30
0.0
  0
SPLINE
  5
489
100
AcDbEntity
  8
0
100
AcDbSpline
 62
7
  6
CONTINUOUS
 70
0
 71
3
 72
9
 73
5
 74
0
 42
0.0000001
 43
0.0000001
 44
0.0000000001
 40
0.0
 40
0.0
 40
0.0
 40
0.0
 40
0.2113166761
 40
1.0
 40
1.0
 40
1.0
 40
1.0
 10
291.5514253991
 20
313.5587557214
 30
0.0
 10
291.2164367572
 20
313.5220466951
 30
0.0
 10
289.6327507019
 20
313.3340269992
 30
0.0
 10
288.0547898498
 20
313.1011919921
 30
0.0
 10
286.8113565379
 20
312.9120236729
 30
0.0
  0
SPLINE
  5
48A
100
AcDbEntity
  8
0
100
AcDbSpline
 62
7
  6
CONTINUOUS
 70
0
 71
3
 72
12
 73
8
 74
0
 42
0.0000001
 43
0.0000001
 44
0.0000000001
 40
0.0
 40
0.0
 40
0.0
 40
0.0
 40
0.1594335783
 40
0.3660518104
 40
0.5076898593
 40
0.6662763265
 40
1.0
 40
1.0
 40
1.0
 40
1.0
 10
287.4504553978
 20
315.0101374636
 30
0.0
 10
287.3186155799
 20
315.0101552786
 30
0.0
 10
286.9987950262
 20
314.9297179101
 30
0.0
 10
286.7781229726
 20
314.5268945234
 30
0.0
 10
286.7127785008
 20
314.1150006456
 30
0.0
 10
286.7067575037
 20
313.5883129249
 30
0.0
 10
286.7607699054
 20
313.1833124655
 30
0.0
 10
286.8113565379
 20
312.9120236729
 30
0.0
  0
SPLINE
  5
48B
100
AcDbEntity
  8
0
100
AcDbSpline
 62
7
  6
CONTINUOUS
 70
0
 71
3
 72
11
 73
7
 74
0
 42
0.0000001
 43
0.0000001
 44
0.0000000001
 40
0.0
 40
0.0
 40
0.0
 40
0.0
 40
0.2012295486
 40
0.4262692607
 40
0.6895172634
 40
1.0
 40
1.0
 40
1.0
 40
1.0
 10
272.0343573482
 20
315.0101374636
 30
0.0
 10
272.2283509858
 20
315.0101374636
 30
0.0
 10
272.6413655611
 20
314.9585564057
 30
0.0
 10
273.2617856515
 20
314.6980677146
 30
0.0
 10
273.8752176851
 20
314.2205767617
 30
0.0
 10
274.234217464
 20
313.7952867585
 30
0.0
 10
274.4099606671
 20
313.5529940866
 30
0.0
  0
SPLINE
  5
48C
100
AcDbEntity
  8
0
100
AcDbSpline
 62
7
  6
CONTINUOUS
 70
0
 71
3
 72
9
 73
5
 74
0
 42
0.0000001
 43
0.0000001
 44
0.0000000001
 40
0.0
 40
0.0
 40
0.0
 40
0.0
 40
0.4834047591
 40
1.0
 40
1.0
 40
1.0
 40
1.0
 10
274.4099606671
 20
313.5529940866
 30
0.0
 10
274.7515387497
 20
313.0820690956
 30
0.0
 10
275.3238312617
 20
312.0109648052
 30
0.0
 10
275.7177727848
 20
310.8712174393
 30
0.0
 10
275.8898808483
 20
310.2738101153
 30
0.0
  0
SPLINE
  5
48D
100
AcDbEntity
  8
0
100
AcDbSpline
 62
7
  6
CONTINUOUS
 70
0
 71
3
 72
11
 73
7
 74
0
 42
0.0000001
 43
0.0000001
 44
0.0000000001
 40
0.0
 40
0.0
 40
0.0
 40
0.0
 40
0.2462648097
 40
0.4990732184
 40
0.7513245149
 40
1.0
 40
1.0
 40
1.0
 40
1.0
 10
287.4504553978
 20
315.0101374636
 30
0.0
 10
286.1847327436
 20
315.0104058465
 30
0.0
 10
283.621586995
 20
315.1358998717
 30
0.0
 10
279.7593750358
 20
315.1792148192
 30
0.0
 10
275.8865290268
 20
315.0779491518
 30
0.0
 10
273.312470133
 20
315.0101986936
 30
0.0
 10
272.0343573482
 20
315.0101374636
 30
0.0
  0
SPLINE
  5
48E
100
AcDbEntity
  8
0
100
AcDbSpline
 62
2
  6
CONTINUOUS
 70
0
 71
3
 72
195
 73
191
 74
0
 42
0.0000001
 43
0.0000001
 44
0.0000000001
 40
0.0
 40
0.0
 40
0.0
 40
0.0
 40
0.03125
 40
0.046875
 40
0.0625
 40
0.078125
 40
0.0859375
 40
0.09375
 40
0.1015625
 40
0.109375
 40
0.11328125
 40
0.1171875
 40
0.119140625
 40
0.12109375
 40
0.123046875
 40
0.1240234375
 40
0.1245117188
 40
0.125
 40
0.1254882812
 40
0.1259765625
 40
0.126953125
 40
0.12890625
 40
0.130859375
 40
0.1328125
 40
0.13671875
 40
0.140625
 40
0.1484375
 40
0.15625
 40
0.1640625
 40
0.171875
 40
0.1875
 40
0.203125
 40
0.2109375
 40
0.21875
 40
0.2265625
 40
0.234375
 40
0.23828125
 40
0.2421875
 40
0.244140625
 40
0.24609375
 40
0.248046875
 40
0.2490234375
 40
0.2495117188
 40
0.25
 40
0.2504882812
 40
0.2509765625
 40
0.251953125
 40
0.25390625
 40
0.255859375
 40
0.2578125
 40
0.26171875
 40
0.265625
 40
0.2734375
 40
0.28125
 40
0.2890625
 40
0.296875
 40
0.3125
 40
0.328125
 40
0.3359375
 40
0.34375
 40
0.3515625
 40
0.359375
 40
0.36328125
 40
0.3671875
 40
0.369140625
 40
0.37109375
 40
0.373046875
 40
0.3740234375
 40
0.3745117188
 40
0.375
 40
0.3754882812
 40
0.3759765625
 40
0.376953125
 40
0.37890625
 40
0.380859375
 40
0.3828125
 40
0.38671875
 40
0.390625
 40
0.3984375
 40
0.40625
 40
0.4140625
 40
0.421875
 40
0.4375
 40
0.453125
 40
0.4609375
 40
0.46875
 40
0.4765625
 40
0.484375
 40
0.48828125
 40
0.4921875
 40
0.494140625
 40
0.49609375
 40
0.498046875
 40
0.4990234375
 40
0.4995117188
 40
0.5
 40
0.5004882812
 40
0.5009765625
 40
0.501953125
 40
0.50390625
 40
0.505859375
 40
0.5078125
 40
0.51171875
 40
0.515625
 40
0.5234375
 40
0.53125
 40
0.5390625
 40
0.546875
 40
0.5625
 40
0.578125
 40
0.5859375
 40
0.59375
 40
0.6015625
 40
0.609375
 40
0.61328125
 40
0.6171875
 40
0.619140625
 40
0.62109375
 40
0.623046875
 40
0.6240234375
 40
0.6245117188
 40
0.625
 40
0.6254882812
 40
0.6259765625
 40
0.626953125
 40
0.62890625
 40
0.630859375
 40
0.6328125
 40
0.63671875
 40
0.640625
 40
0.6484375
 40
0.65625
 40
0.6640625
 40
0.671875
 40
0.6875
 40
0.703125
 40
0.7109375
 40
0.71875
 40
0.7265625
 40
0.734375
 40
0.73828125
 40
0.7421875
 40
0.744140625
 40
0.74609375
 40
0.748046875
 40
0.7490234375
 40
0.7495117188
 40
0.75
 40
0.7504882812
 40
0.7509765625
 40
0.751953125
 40
0.75390625
 40
0.755859375
 40
0.7578125
 40
0.76171875
 40
0.765625
 40
0.7734375
 40
0.78125
 40
0.7890625
 40
0.796875
 40
0.8125
 40
0.828125
 40
0.8359375
 40
0.84375
 40
0.8515625
 40
0.859375
 40
0.86328125
 40
0.8671875
 40
0.869140625
 40
0.87109375
 40
0.873046875
 40
0.8740234375
 40
0.8745117188
 40
0.875
 40
0.8754882812
 40
0.8759765625
 40
0.876953125
 40
0.87890625
 40
0.880859375
 40
0.8828125
 40
0.88671875
 40
0.890625
 40
0.8984375
 40
0.90625
 40
0.9140625
 40
0.921875
 40
0.9375
 40
0.953125
 40
0.96875
 40
1.0
 40
1.0
 40
1.0
 40
1.0
 10
765.4955335469
 20
314.8467215857
 30
0.0
 10
765.3767701601
 20
314.7903994624
 30
0.0
 10
765.1986250796
 20
314.7059162775
 30
0.0
 10
764.9610983065
 20
314.5932720305
 30
0.0
 10
764.7829532248
 20
314.5087888467
 30
0.0
 10
764.6344989957
 20
314.4383861887
 30
0.0
 10
764.5157356
 20
314.3820640731
 30
0.0
 10
764.426663087
 20
314.3398224571
 30
0.0
 10
764.3375904449
 20
314.2975809526
 30
0.0
 10
764.2633636454
 20
314.2623793519
 30
0.0
 10
764.203981305
 20
314.2342188482
 30
0.0
 10
764.1668693931
 20
314.2166167647
 30
0.0
 10
764.1371751668
 20
314.2025391485
 30
0.0
 10
764.1149173569
 20
314.1919698458
 30
0.0
 10
764.0963282728
 20
314.1831973743
 30
0.0
 10
764.0833961971
 20
314.1769874068
 30
0.0
 10
764.075881084
 20
314.1735469625
 30
0.0
 10
764.0705978778
 20
314.1706620857
 30
0.0
 10
764.0639648349
 20
314.1689413289
 30
0.0
 10
764.0555916158
 20
314.1662409285
 30
0.0
 10
764.0407191101
 20
314.1617044177
 30
0.0
 10
764.0195873638
 20
314.1551247774
 30
0.0
 10
763.9941801771
 20
314.1472715459
 30
0.0
 10
763.9603210746
 20
314.1367857832
 30
0.0
 10
763.9179913256
 20
314.123683643
 30
0.0
 10
763.8502670084
 20
314.1027173888
 30
0.0
 10
763.765610486
 20
314.0765105422
 30
0.0
 10
763.6640231418
 20
314.0450619099
 30
0.0
 10
763.5624356685
 20
314.0136133891
 30
0.0
 10
763.4269857493
 20
313.9716819889
 30
0.0
 10
763.2576733337
 20
313.9192677534
 30
0.0
 10
763.0883609277
 20
313.8668535076
 30
0.0
 10
762.9529109932
 20
313.8249221238
 30
0.0
 10
762.8513235658
 20
313.7934735535
 30
0.0
 10
762.7497360492
 20
313.7620251069
 30
0.0
 10
762.6650800632
 20
313.7358176826
 30
0.0
 10
762.5973546521
 20
313.7148526063
 30
0.0
 10
762.555027687
 20
313.7017474687
 30
0.0
 10
762.5211628702
 20
313.6912678587
 30
0.0
 10
762.4957731414
 20
313.6833958298
 30
0.0
 10
762.4745867735
 20
313.676875002
 30
0.0
 10
762.4598117766
 20
313.6722335009
 30
0.0
 10
762.4512823239
 20
313.6697013215
 30
0.0
 10
762.4451291806
 20
313.6674638436
 30
0.0
 10
762.4380435511
 20
313.6665196855
 30
0.0
 10
762.4289213068
 20
313.6648096837
 30
0.0
 10
762.4128058339
 20
313.6620273676
 30
0.0
 10
762.3898629594
 20
313.6579427422
 30
0.0
 10
762.3622975971
 20
313.6530882273
 30
0.0
 10
762.3255556258
 20
313.6465991123
 30
0.0
 10
762.2796241059
 20
313.6384933437
 30
0.0
 10
762.2061359409
 20
313.6255209699
 30
0.0
 10
762.1142749567
 20
313.6093065815
 30
0.0
 10
762.0040421092
 20
313.589848853
 30
0.0
 10
761.8938091725
 20
313.5703912482
 30
0.0
 10
761.7468319547
 20
313.5444477318
 30
0.0
 10
761.5631104211
 20
313.5120183526
 30
0.0
 10
761.3793888943
 20
313.4795889622
 30
0.0
 10
761.2324116656
 20
313.4536454637
 30
0.0
 10
761.1221787618
 20
313.4341878052
 30
0.0
 10
761.0119457908
 20
313.4147302781
 30
0.0
 10
760.9200851908
 20
313.398515263
 30
0.0
 10
760.8465962423
 20
313.3855441672
 30
0.0
 10
760.8006667161
 20
313.3774351463
 30
0.0
 10
760.7639206525
 20
313.3709527071
 30
0.0
 10
760.7363677927
 20
313.3660777968
 30
0.0
 10
760.7133858012
 20
313.3620569838
 30
0.0
 10
760.6973401586
 20
313.3591607518
 30
0.0
 10
760.6881060285
 20
313.3576332719
 30
0.0
 10
760.6813640762
 20
313.356128465
 30
0.0
 10
760.6739201388
 20
313.3559966909
 30
0.0
 10
760.6642397491
 20
313.3553420629
 30
0.0
 10
760.6471849823
 20
313.3544196059
 30
0.0
 10
760.6228806746
 20
313.352985149
 30
0.0
 10
760.5936899755
 20
313.3513137355
 30
0.0
 10
760.5547779603
 20
313.3490677429
 30
0.0
 10
760.5061348882
 20
313.3462662241
 30
0.0
 10
760.4283076792
 20
313.3417804562
 30
0.0
 10
760.3310230824
 20
313.3361743918
 30
0.0
 10
760.2142818173
 20
313.3294466234
 30
0.0
 10
760.097540485
 20
313.3227189865
 30
0.0
 10
759.9418853988
 20
313.3137487577
 30
0.0
 10
759.7473165331
 20
313.3025359892
 30
0.0
 10
759.5527476695
 20
313.2913232089
 30
0.0
 10
759.39709258
 20
313.2823529989
 30
0.0
 10
759.2803512575
 20
313.2756253056
 30
0.0
 10
759.1636099558
 20
313.2688977487
 30
0.0
 10
759.0663254727
 20
313.2632910263
 30
0.0
 10
758.9884980318
 20
313.2588066001
 30
0.0
 10
758.93985555
 20
313.2560016671
 30
0.0
 10
758.9009423232
 20
313.2537626826
 30
0.0
 10
758.8717553258
 20
313.2520698583
 30
0.0
 10
758.8474394362
 20
313.2507023905
 30
0.0
 10
758.8304053449
 20
313.2496603468
 30
0.0
 10
758.8206918279
 20
313.2491973268
 30
0.0
 10
758.8133496471
 20
313.2484769943
 30
0.0
 10
758.8062255136
 20
313.249182715
 30
0.0
 10
758.7966506116
 20
313.2496262526
 30
0.0
 10
758.7799299695
 20
313.2506342021
 30
0.0
 10
758.7560248114
 20
313.251952964
 30
0.0
 10
758.7273465517
 20
313.2535873411
 30
0.0
 10
758.6891061022
 20
313.2557483959
 30
0.0
 10
758.6413064888
 20
313.258455917
 30
0.0
 10
758.5648265773
 20
313.2627844841
 30
0.0
 10
758.4692268698
 20
313.2681963825
 30
0.0
 10
758.3545071428
 20
313.2746901506
 30
0.0
 10
758.2397874367
 20
313.2811840552
 30
0.0
 10
758.0868278211
 20
313.2898425468
 30
0.0
 10
757.8956283048
 20
313.3006656792
 30
0.0
 10
757.7044287855
 20
313.3114887998
 30
0.0
 10
757.5514691746
 20
313.3201473102
 30
0.0
 10
757.4367494546
 20
313.3266411584
 30
0.0
 10
757.3220297797
 20
313.3331351381
 30
0.0
 10
757.2264299101
 20
313.3385463783
 30
0.0
 10
757.149950329
 20
313.3428762876
 30
0.0
 10
757.1021498748
 20
313.345580393
 30
0.0
 10
757.0639111512
 20
313.3477484589
 30
0.0
 10
757.0352276186
 20
313.3493614162
 30
0.0
 10
757.0113389581
 20
313.3507471955
 30
0.0
 10
756.9945888651
 20
313.3516355077
 30
0.0
 10
756.9850611509
 20
313.3522707344
 30
0.0
 10
756.9777920714
 20
313.3523876475
 30
0.0
 10
756.9709942836
 20
313.3538787785
 30
0.0
 10
756.9617661748
 20
313.3553876105
 30
0.0
 10
756.9456935774
 20
313.3582514012
 30
0.0
 10
756.9226926803
 20
313.3622257689
 30
0.0
 10
756.8951087438
 20
313.3670449879
 30
0.0
 10
756.8583241752
 20
313.373453157
 30
0.0
 10
756.8123455142
 20
313.3814693455
 30
0.0
 10
756.7387785109
 20
313.3942919064
 30
0.0
 10
756.64682015
 20
313.4103212539
 30
0.0
 10
756.5364699483
 20
313.4295559795
 30
0.0
 10
756.4261197918
 20
313.4487908366
 30
0.0
 10
756.2789862338
 20
313.4744372666
 30
0.0
 10
756.0950692928
 20
313.5064953213
 30
0.0
 10
755.9111523459
 20
313.5385533648
 30
0.0
 10
755.7640187973
 20
313.5641998127
 30
0.0
 10
755.6536686127
 20
313.5834346161
 30
0.0
 10
755.5433185165
 20
313.6026695433
 30
0.0
 10
755.4513598274
 20
313.6186982634
 30
0.0
 10
755.3777934932
 20
313.6315221038
 30
0.0
 10
755.3318131295
 20
313.6395350362
 30
0.0
 10
755.2950320559
 20
313.6459498888
 30
0.0
 10
755.2674374416
 20
313.650748689
 30
0.0
 10
755.2444699527
 20
313.6547869424
 30
0.0
 10
755.2283377162
 20
313.6575366864
 30
0.0
 10
755.2192051643
 20
313.6592282499
 30
0.0
 10
755.2121138562
 20
313.6601580884
 30
0.0
 10
755.2059471903
 20
313.6623831226
 30
0.0
 10
755.1974024435
 20
313.6648980561
 30
0.0
 10
755.1825994073
 20
313.6695096818
 30
0.0
 10
755.1613736496
 20
313.6759876708
 30
0.0
 10
755.1359363678
 20
313.6838083616
 30
0.0
 10
755.1020082468
 20
313.6942194969
 30
0.0
 10
755.0596021171
 20
313.7072390493
 30
0.0
 10
754.9917500619
 20
313.7280671847
 30
0.0
 10
754.9069357642
 20
313.7541034343
 30
0.0
 10
754.8051582763
 20
313.7853464708
 30
0.0
 10
754.7033808769
 20
313.8165896311
 30
0.0
 10
754.5676776466
 20
313.8582471348
 30
0.0
 10
754.3980486206
 20
313.9103190306
 30
0.0
 10
754.2284195858
 20
313.9623909158
 30
0.0
 10
754.0927163697
 20
314.0040484366
 30
0.0
 10
753.9909389278
 20
314.0352915455
 30
0.0
 10
753.8891615992
 20
314.0665347748
 30
0.0
 10
753.8043468058
 20
314.0925704243
 30
0.0
 10
753.7364957613
 20
314.1133997835
 30
0.0
 10
753.6940870595
 20
314.1264162215
 30
0.0
 10
753.6601642182
 20
314.1368337496
 30
0.0
 10
753.6347108062
 20
314.1446349096
 30
0.0
 10
753.6135355161
 20
314.1511740059
 30
0.0
 10
753.5986423867
 20
314.1556765448
 30
0.0
 10
753.5902419919
 20
314.1583662628
 30
0.0
 10
753.5836319229
 20
314.1600544151
 30
0.0
 10
753.5782059633
 20
314.1630006928
 30
0.0
 10
753.5705583198
 20
314.166490215
 30
0.0
 10
753.5573673823
 20
314.1728013462
 30
0.0
 10
753.5384225769
 20
314.18171035
 30
0.0
 10
753.5157318742
 20
314.1924469103
 30
0.0
 10
753.4854625626
 20
314.2067463426
 30
0.0
 10
753.4476310734
 20
314.2246261049
 30
0.0
 10
753.3870978121
 20
314.2532306664
 30
0.0
 10
753.3114322232
 20
314.2889874176
 30
0.0
 10
753.2206330932
 20
314.3318950692
 30
0.0
 10
753.1298340764
 20
314.3748028412
 30
0.0
 10
753.0087686811
 20
314.4320131618
 30
0.0
 10
752.8574369506
 20
314.5035260769
 30
0.0
 10
752.6758388682
 20
314.589341569
 30
0.0
 10
752.4337080936
 20
314.7037622272
 30
0.0
 10
752.2521100123
 20
314.7895777203
 30
0.0
 10
752.1310446248
 20
314.8467880492
 30
0.0
  0
SPLINE
  5
48F
100
AcDbEntity
  8
0
100
AcDbSpline
 62
2
  6
CONTINUOUS
 70
0
 71
3
 72
66
 73
62
 74
0
 42
0.0000001
 43
0.0000001
 44
0.0000000001
 40
0.0
 40
0.0
 40
0.0
 40
0.0
 40
0.0625
 40
0.09375
 40
0.125
 40
0.140625
 40
0.15625
 40
0.1640625
 40
0.16796875
 40
0.171875
 40
0.1796875
 40
0.1875
 40
0.21875
 40
0.25
 40
0.28125
 40
0.3125
 40
0.3203125
 40
0.328125
 40
0.33203125
 40
0.3359375
 40
0.34375
 40
0.359375
 40
0.375
 40
0.40625
 40
0.4375
 40
0.453125
 40
0.46875
 40
0.484375
 40
0.4921875
 40
0.49609375
 40
0.5
 40
0.50390625
 40
0.5078125
 40
0.515625
 40
0.53125
 40
0.546875
 40
0.5625
 40
0.59375
 40
0.625
 40
0.640625
 40
0.65625
 40
0.6640625
 40
0.66796875
 40
0.671875
 40
0.6796875
 40
0.6875
 40
0.71875
 40
0.75
 40
0.78125
 40
0.796875
 40
0.8125
 40
0.8203125
 40
0.828125
 40
0.83203125
 40
0.8359375
 40
0.84375
 40
0.859375
 40
0.875
 40
0.90625
 40
0.9375
 40
1.0
 40
1.0
 40
1.0
 40
1.0
 10
752.1310442757
 20
314.8467882507
 30
0.0
 10
752.0829787604
 20
314.8762373569
 30
0.0
 10
752.0108820084
 20
314.9204117958
 30
0.0
 10
751.9147469215
 20
314.9793079289
 30
0.0
 10
751.854675168
 20
315.0161245094
 30
0.0
 10
751.8065888642
 20
315.0455629601
 30
0.0
 10
751.7766008388
 20
315.0639957772
 30
0.0
 10
751.7554771228
 20
315.0768310403
 30
0.0
 10
751.7436131077
 20
315.0842714132
 30
0.0
 10
751.7325275505
 20
315.092110798
 30
0.0
 10
751.718404522
 20
315.1017736386
 30
0.0
 10
751.6847282666
 20
315.1250767676
 30
0.0
 10
751.6341216741
 20
315.1599834727
 30
0.0
 10
751.5666999749
 20
315.2065570615
 30
0.0
 10
751.4992599591
 20
315.2531077646
 30
0.0
 10
751.448694579
 20
315.2880659624
 30
0.0
 10
751.4149656633
 20
315.3113032952
 30
0.0
 10
751.400938988
 20
315.3210865238
 30
0.0
 10
751.389654619
 20
315.3286775042
 30
0.0
 10
751.3786007333
 20
315.3371300893
 30
0.0
 10
751.3593635181
 20
315.3523224353
 30
0.0
 10
751.3318259279
 20
315.3738169132
 30
0.0
 10
751.287796897
 20
315.4083248398
 30
0.0
 10
751.2327506751
 20
315.4514195283
 30
0.0
 10
751.1777052943
 20
315.4945291429
 30
0.0
 10
751.1336749177
 20
315.5290131878
 30
0.0
 10
751.1006338463
 20
315.5548782064
 30
0.0
 10
751.0731581131
 20
315.5764272915
 30
0.0
 10
751.0538102662
 20
315.5915214864
 30
0.0
 10
751.0429336635
 20
315.6001314093
 30
0.0
 10
751.0342710916
 20
315.6066320351
 30
0.0
 10
751.0275393446
 20
315.6129675921
 30
0.0
 10
751.0178901886
 20
315.6214725796
 30
0.0
 10
751.0013179574
 20
315.6363294781
 30
0.0
 10
750.9774792984
 20
315.6575676683
 30
0.0
 10
750.9489430755
 20
315.6830473833
 30
0.0
 10
750.910870508
 20
315.7170229688
 30
0.0
 10
750.8632864063
 20
315.7594879928
 30
0.0
 10
750.8157062116
 20
315.8019675577
 30
0.0
 10
750.777627393
 20
315.8359198779
 30
0.0
 10
750.7538628348
 20
315.8572111369
 30
0.0
 10
750.7371579744
 20
315.8719726483
 30
0.0
 10
750.7277213626
 20
315.8806305427
 30
0.0
 10
750.7186953884
 20
315.8901274023
 30
0.0
 10
750.7072725655
 20
315.901711715
 30
0.0
 10
750.6799732872
 20
315.9297500826
 30
0.0
 10
750.6389761804
 20
315.9717085203
 30
0.0
 10
750.5843393879
 20
316.027709676
 30
0.0
 10
750.5388076757
 20
316.0743649341
 30
0.0
 10
750.502371822
 20
316.1116905465
 30
0.0
 10
750.4796261491
 20
316.1350217254
 30
0.0
 10
750.4613680661
 20
316.1536799061
 30
0.0
 10
750.4500972582
 20
316.1653568396
 30
0.0
 10
750.4407588125
 20
316.1746627077
 30
0.0
 10
750.4325951691
 20
316.1840988343
 30
0.0
 10
750.4188545388
 20
316.2006725669
 30
0.0
 10
750.3989403239
 20
316.2243177561
 30
0.0
 10
750.3672367111
 20
316.2621677029
 30
0.0
 10
750.3275526851
 20
316.3094740925
 30
0.0
 10
750.2640888455
 20
316.3851677089
 30
0.0
 10
750.2164840803
 20
316.4419371578
 30
0.0
 10
750.1847491003
 20
316.4797836267
 30
0.0
  0
SPLINE
  5
490
100
AcDbEntity
  8
0
100
AcDbSpline
 62
2
  6
CONTINUOUS
 70
0
 71
3
 72
73
 73
69
 74
0
 42
0.0000001
 43
0.0000001
 44
0.0000000001
 40
0.0
 40
0.0
 40
0.0
 40
0.0
 40
0.0625
 40
0.09375
 40
0.125
 40
0.140625
 40
0.15625
 40
0.1640625
 40
0.16796875
 40
0.171875
 40
0.1796875
 40
0.1875
 40
0.21875
 40
0.25
 40
0.28125
 40
0.296875
 40
0.3125
 40
0.3203125
 40
0.328125
 40
0.33203125
 40
0.333984375
 40
0.3359375
 40
0.33984375
 40
0.34375
 40
0.359375
 40
0.375
 40
0.390625
 40
0.40625
 40
0.4375
 40
0.453125
 40
0.46875
 40
0.484375
 40
0.4921875
 40
0.49609375
 40
0.5
 40
0.50390625
 40
0.5078125
 40
0.515625
 40
0.53125
 40
0.546875
 40
0.5625
 40
0.59375
 40
0.609375
 40
0.625
 40
0.640625
 40
0.65625
 40
0.66015625
 40
0.6640625
 40
0.666015625
 40
0.66796875
 40
0.671875
 40
0.6796875
 40
0.6875
 40
0.703125
 40
0.71875
 40
0.75
 40
0.78125
 40
0.8125
 40
0.8203125
 40
0.828125
 40
0.83203125
 40
0.8359375
 40
0.84375
 40
0.859375
 40
0.875
 40
0.90625
 40
0.9375
 40
1.0
 40
1.0
 40
1.0
 40
1.0
 10
767.4428097979
 20
316.4809029774
 30
0.0
 10
767.4123580353
 20
316.4444580695
 30
0.0
 10
767.3666785865
 20
316.389791249
 30
0.0
 10
767.3057798747
 20
316.3168999895
 30
0.0
 10
767.2677031381
 20
316.2713474639
 30
0.0
 10
767.2372760441
 20
316.2348951569
 30
0.0
 10
767.2181808929
 20
316.2121359255
 30
0.0
 10
767.2049710415
 20
316.1961574467
 30
0.0
 10
767.1971772984
 20
316.1871004496
 30
0.0
 10
767.1884597987
 20
316.1783205243
 30
0.0
 10
767.177878667
 20
316.1672509132
 30
0.0
 10
767.1522240886
 20
316.1407617944
 30
0.0
 10
767.1138512416
 20
316.1009953521
 30
0.0
 10
767.0626257269
 20
316.047992275
 30
0.0
 10
767.0199497125
 20
316.0038184716
 30
0.0
 10
766.9858111654
 20
315.9684809799
 30
0.0
 10
766.9644629553
 20
315.9463934563
 30
0.0
 10
766.9474117046
 20
315.9287268688
 30
0.0
 10
766.9366921885
 20
315.9176774688
 30
0.0
 10
766.929313769
 20
315.909958482
 30
0.0
 10
766.9249015743
 20
315.9055232361
 30
0.0
 10
766.9197513167
 20
315.900996102
 30
0.0
 10
766.9135657678
 20
315.895368592
 30
0.0
 10
766.8985128179
 20
315.8818367184
 30
0.0
 10
766.8760206021
 20
315.8615497625
 30
0.0
 10
766.8459811308
 20
315.8344942962
 30
0.0
 10
766.8159550147
 20
315.8074404405
 30
0.0
 10
766.7759154328
 20
315.771368299
 30
0.0
 10
766.7358777025
 20
315.73529494
 30
0.0
 10
766.6958379878
 20
315.6992254837
 30
0.0
 10
766.6658123034
 20
315.6721629009
 30
0.0
 10
766.6407780547
 20
315.6496440909
 30
0.0
 10
766.6232792606
 20
315.6338154948
 30
0.0
 10
766.6132406375
 20
315.6248727442
 30
0.0
 10
766.6058224122
 20
315.6178778908
 30
0.0
 10
766.5979808752
 20
315.6119831184
 30
0.0
 10
766.5876731485
 20
315.6037397012
 30
0.0
 10
766.5695658305
 20
315.5894925038
 30
0.0
 10
766.5437342048
 20
315.5690458943
 30
0.0
 10
766.5127208397
 20
315.5445499748
 30
0.0
 10
766.4713751565
 20
315.5118747555
 30
0.0
 10
766.4300274803
 20
315.4792034717
 30
0.0
 10
766.3886816805
 20
315.4465308764
 30
0.0
 10
766.3576686945
 20
315.4220264289
 30
0.0
 10
766.3266693147
 20
315.3975226413
 30
0.0
 10
766.3033816884
 20
315.3791428217
 30
0.0
 10
766.2879158381
 20
315.3668927005
 30
0.0
 10
766.2813835916
 20
315.36178388
 30
0.0
 10
766.2763634123
 20
315.3577075625
 30
0.0
 10
766.270591275
 20
315.353591972
 30
0.0
 10
766.2601406577
 20
315.3463714413
 30
0.0
 10
766.2453934903
 20
315.3360659192
 30
0.0
 10
766.2216961613
 20
315.3195717554
 30
0.0
 10
766.1921093148
 20
315.2989559264
 30
0.0
 10
766.144751268
 20
315.2659692523
 30
0.0
 10
766.0855576446
 20
315.2247385151
 30
0.0
 10
766.0145350463
 20
315.1752511455
 30
0.0
 10
765.9612341259
 20
315.1381639468
 30
0.0
 10
765.9257537517
 20
315.1133952101
 30
0.0
 10
765.9108904111
 20
315.1031402634
 30
0.0
 10
765.8991860246
 20
315.0947838352
 30
0.0
 10
765.8868003752
 20
315.0869850023
 30
0.0
 10
765.8648089578
 20
315.0735961167
 30
0.0
 10
765.8335577974
 20
315.0543339663
 30
0.0
 10
765.7834636453
 20
315.0235900671
 30
0.0
 10
765.7208775708
 20
314.9851343165
 30
0.0
 10
765.6207221025
 20
314.9236196428
 30
0.0
 10
765.5456094949
 20
314.8774803688
 30
0.0
 10
765.4955335356
 20
314.8467215792
 30
0.0
  0
SPLINE
  5
491
100
AcDbEntity
  8
AXES_REF
100
AcDbSpline
 62
7
  6
CONTINUOUS
 70
0
 71
3
 72
11
 73
7
 74
0
 42
0.0000001
 43
0.0000001
 44
0.0000000001
 40
0.0
 40
0.0
 40
0.0
 40
0.0
 40
0.2335308528
 40
0.4823157891
 40
0.7401441124
 40
1.0
 40
1.0
 40
1.0
 40
1.0
 10
750.3620203029
 20
323.9923953378
 30
0.0
 10
751.117679979
 20
323.6458817227
 30
0.0
 10
752.7385487912
 20
323.0577105986
 30
0.0
 10
755.3200109002
 20
322.498337097
 30
0.0
 10
758.0433544988
 20
322.2489470024
 30
0.0
 10
759.8906074709
 20
322.2966549034
 30
0.0
 10
760.8122480508
 20
322.3757895132
 30
0.0
  0
SPLINE
  5
492
100
AcDbEntity
  8
AXES_REF
100
AcDbSpline
 62
7
  6
CONTINUOUS
 70
0
 71
3
 72
9
 73
5
 74
0
 42
0.0000001
 43
0.0000001
 44
0.0000000001
 40
0.0
 40
0.0
 40
0.0
 40
0.0
 40
0.5140043955
 40
1.0
 40
1.0
 40
1.0
 40
1.0
 10
743.7560699747
 20
329.4392610912
 30
0.0
 10
744.4395820967
 20
328.6500170256
 30
0.0
 10
745.8209445423
 20
327.1580783103
 30
0.0
 10
747.3675106874
 20
325.8271744245
 30
0.0
 10
748.1728693808
 20
325.2562736192
 30
0.0
  0
SPLINE
  5
493
100
AcDbEntity
  8
0
100
AcDbSpline
 62
7
  6
CONTINUOUS
 70
0
 71
3
 72
15
 73
11
 74
0
 42
0.0000001
 43
0.0000001
 44
0.0000000001
 40
0.0
 40
0.0
 40
0.0
 40
0.0
 40
0.117698766
 40
0.2429153332
 40
0.3735207185
 40
0.5064959057
 40
0.6384724772
 40
0.7662305408
 40
0.8872041447
 40
1.0
 40
1.0
 40
1.0
 40
1.0
 10
745.5426026181
 20
329.4403790835
 30
0.0
 10
746.5453726713
 20
328.8614426205
 30
0.0
 10
748.7285602113
 20
327.8579588358
 30
0.0
 10
752.2698087987
 20
326.8368834055
 30
0.0
 10
756.0630334677
 20
326.2692756534
 30
0.0
 10
759.9628250742
 20
326.171775527
 30
0.0
 10
763.8178362837
 20
326.5469974953
 30
0.0
 10
767.480085325
 20
327.3844612951
 30
0.0
 10
770.812527376
 20
328.6621003536
 30
0.0
 10
772.8081831906
 20
329.8363043996
 30
0.0
 10
773.7003484144
 20
330.4961408065
 30
0.0
  0
SPLINE
  5
494
100
AcDbEntity
  8
0
100
AcDbSpline
 62
7
  6
CONTINUOUS
 70
0
 71
3
 72
9
 73
5
 74
0
 42
0.0000001
 43
0.0000001
 44
0.0000000001
 40
0.0
 40
0.0
 40
0.0
 40
0.0
 40
0.244959808
 40
1.0
 40
1.0
 40
1.0
 40
1.0
 10
743.509192018
 20
330.8157611068
 30
0.0
 10
743.666261852
 20
330.6910590314
 30
0.0
 10
744.3176745693
 20
330.1949046256
 30
0.0
 10
745.0072527811
 20
329.7494564638
 30
0.0
 10
745.5426026181
 20
329.4403790835
 30
0.0
  0
SPLINE
  5
495
100
AcDbEntity
  8
AXES_REF
100
AcDbSpline
 62
7
  6
CONTINUOUS
 70
0
 71
3
 72
10
 73
6
 74
0
 42
0.0000001
 43
0.0000001
 44
0.0000000001
 40
0.0
 40
0.0
 40
0.0
 40
0.0
 40
0.411688279
 40
0.6786905309
 40
1.0
 40
1.0
 40
1.0
 40
1.0
 10
769.8361749999
 20
325.4048372245
 30
0.0
 10
770.1310714733
 20
325.5751002621
 30
0.0
 10
770.5622047534
 20
325.9526221847
 30
0.0
 10
771.069071904
 20
326.6065707186
 30
0.0
 10
771.3234020261
 20
327.0229693405
 30
0.0
 10
771.4527253143
 20
327.2551464497
 30
0.0
  0
SPLINE
  5
496
100
AcDbEntity
  8
AXES_REF
100
AcDbSpline
 62
7
  6
CONTINUOUS
 70
0
 71
3
 72
9
 73
5
 74
0
 42
0.0000001
 43
0.0000001
 44
0.0000000001
 40
0.0
 40
0.0
 40
0.0
 40
0.0
 40
0.4804489009
 40
1.0
 40
1.0
 40
1.0
 40
1.0
 10
768.4220424456
 20
324.5883640704
 30
0.0
 10
767.7350519144
 20
324.1917185799
 30
0.0
 10
766.2281139923
 20
323.4968486468
 30
0.0
 10
764.6390580313
 20
323.0290261082
 30
0.0
 10
763.8026680368
 20
322.8384101856
 30
0.0
  0
SPLINE
  5
497
100
AcDbEntity
  8
AXES_REF
100
AcDbSpline
 62
7
  6
CONTINUOUS
 70
0
 71
3
 72
10
 73
6
 74
0
 42
0.0000001
 43
0.0000001
 44
0.0000000001
 40
0.0
 40
0.0
 40
0.0
 40
0.0
 40
0.4906214266
 40
0.7427504096
 40
1.0
 40
1.0
 40
1.0
 40
1.0
 10
754.778819709
 20
323.0754175343
 30
0.0
 10
755.7419408341
 20
322.8173469941
 30
0.0
 10
757.226014321
 20
322.508590574
 30
0.0
 10
759.2531261619
 20
322.3365578173
 30
0.0
 10
760.2903253775
 20
322.3453060541
 30
0.0
 10
760.8122480508
 20
322.3757895132
 30
0.0
  0
SPLINE
  5
498
100
AcDbEntity
  8
AXES_REF
100
AcDbSpline
 62
7
  6
CONTINUOUS
 70
0
 71
3
 72
9
 73
5
 74
0
 42
0.0000001
 43
0.0000001
 44
0.0000000001
 40
0.0
 40
0.0
 40
0.0
 40
0.0
 40
0.4988119961
 40
1.0
 40
1.0
 40
1.0
 40
1.0
 10
763.8026680368
 20
322.8384101856
 30
0.0
 10
764.5998872441
 20
323.038508797
 30
0.0
 10
766.170340033
 20
323.555288539
 30
0.0
 10
767.669135851
 20
324.2464566366
 30
0.0
 10
768.4040443998
 20
324.6232309312
 30
0.0
  0
SPLINE
  5
499
100
AcDbEntity
  8
AXES_REF
100
AcDbSpline
 62
7
  6
CONTINUOUS
 70
0
 71
3
 72
10
 73
6
 74
0
 42
0.0000001
 43
0.0000001
 44
0.0000000001
 40
0.0
 40
0.0
 40
0.0
 40
0.0
 40
0.2703843353
 40
0.5251053608
 40
1.0
 40
1.0
 40
1.0
 40
1.0
 10
750.3620203029
 20
323.9923953378
 30
0.0
 10
750.7358137908
 20
323.8257594224
 30
0.0
 10
751.4807882969
 20
323.5424274474
 30
0.0
 10
752.9507927889
 20
323.1712914454
 30
0.0
 10
754.0600181437
 20
323.0754069074
 30
0.0
 10
754.778819709
 20
323.0754175343
 30
0.0
  0
SPLINE
  5
49A
100
AcDbEntity
  8
AXES_REF
100
AcDbSpline
 62
7
  6
CONTINUOUS
 70
0
 71
3
 72
14
 73
10
 74
0
 42
0.0000001
 43
0.0000001
 44
0.0000000001
 40
0.0
 40
0.0
 40
0.0
 40
0.0
 40
0.2892801208
 40
0.4225377808
 40
0.5484975589
 40
0.6678950759
 40
0.7818690377
 40
0.891953133
 40
1.0
 40
1.0
 40
1.0
 40
1.0
 10
773.6626508723
 20
330.5441012993
 30
0.0
 10
774.5844464243
 20
331.0762970325
 30
0.0
 10
775.8753589322
 20
331.9650865173
 30
0.0
 10
777.3358501084
 20
333.3629156325
 30
0.0
 10
778.2247680355
 20
334.4403683231
 30
0.0
 10
778.9274672467
 20
335.5652495947
 30
0.0
 10
779.4361482269
 20
336.7275222439
 30
0.0
 10
779.7442947471
 20
337.9153824801
 30
0.0
 10
779.81332427
 20
338.7196023359
 30
0.0
 10
779.813324181
 20
339.1171570582
 30
0.0
  0
SPLINE
  5
49B
100
AcDbEntity
  8
AXES_REF
100
AcDbSpline
 62
7
  6
CONTINUOUS
 70
0
 71
3
 72
9
 73
5
 74
0
 42
0.0000001
 43
0.0000001
 44
0.0000000001
 40
0.0
 40
0.0
 40
0.0
 40
0.0
 40
0.256837046
 40
1.0
 40
1.0
 40
1.0
 40
1.0
 10
769.3166846638
 20
341.0038764689
 30
0.0
 10
769.3634768514
 20
340.9170442353
 30
0.0
 10
769.5349924451
 20
340.5733852056
 30
0.0
 10
769.6611820213
 20
340.2065934411
 30
0.0
 10
769.7232944281
 20
339.9280246923
 30
0.0
  0
SPLINE
  5
49C
100
AcDbEntity
  8
AXES_REF
100
AcDbSpline
 62
7
  6
CONTINUOUS
 70
0
 71
3
 72
9
 73
5
 74
0
 42
0.0000001
 43
0.0000001
 44
0.0000000001
 40
0.0
 40
0.0
 40
0.0
 40
0.0
 40
0.2444949002
 40
1.0
 40
1.0
 40
1.0
 40
1.0
 10
747.9060061944
 20
339.9397268431
 30
0.0
 10
747.9265347911
 20
340.0304554562
 30
0.0
 10
748.0239073413
 20
340.3984516366
 30
0.0
 10
748.1740920231
 20
340.7518799454
 30
0.0
 10
748.3105308415
 20
341.0048792035
 30
0.0
  0
SPLINE
  5
49D
100
AcDbEntity
  8
AXES_REF
100
AcDbSpline
 62
7
  6
CONTINUOUS
 70
0
 71
3
 72
12
 73
8
 74
0
 42
0.0000001
 43
0.0000001
 44
0.0000000001
 40
0.0
 40
0.0
 40
0.0
 40
0.0
 40
0.2808135182
 40
0.5370487291
 40
0.7737446194
 40
0.8875860346
 40
1.0
 40
1.0
 40
1.0
 40
1.0
 10
741.9953225177
 20
348.0107762161
 30
0.0
 10
741.3531096642
 20
347.5149623756
 30
0.0
 10
740.1940717571
 20
346.469220627
 30
0.0
 10
738.8430998394
 20
344.6684686787
 30
0.0
 10
738.1356764812
 20
343.0418930023
 30
0.0
 10
737.8591912564
 20
341.7296022105
 30
0.0
 10
737.8133690348
 20
341.0749529733
 30
0.0
 10
737.8133691074
 20
340.7501620644
 30
0.0
  0
SPLINE
  5
49E
100
AcDbEntity
  8
AXES_REF
100
AcDbSpline
 62
7
  6
CONTINUOUS
 70
0
 71
3
 72
19
 73
15
 74
0
 42
0.0000001
 43
0.0000001
 44
0.0000000001
 40
0.0
 40
0.0
 40
0.0
 40
0.0
 40
0.1286231246
 40
0.2701506582
 40
0.4172400038
 40
0.5615227359
 40
0.6301745409
 40
0.6953141689
 40
0.7563107301
 40
0.8127935727
 40
0.8647361179
 40
0.9125494849
 40
0.9571594403
 40
1.0
 40
1.0
 40
1.0
 40
1.0
 10
766.5915536209
 20
336.2595136787
 30
0.0
 10
765.7773593292
 20
335.7894411912
 30
0.0
 10
763.9338511298
 20
335.0288099606
 30
0.0
 10
760.9291285195
 20
334.4275214347
 30
0.0
 10
757.7515934346
 20
334.3396526956
 30
0.0
 10
755.1307285435
 20
334.7072616882
 30
0.0
 10
753.1748482129
 20
335.2706422836
 30
0.0
 10
751.8515783455
 20
335.803731088
 30
0.0
 10
750.6760004743
 20
336.4430541837
 30
0.0
 10
749.6726538158
 20
337.1761419117
 30
0.0
 10
748.8629169272
 20
337.9891809557
 30
0.0
 10
748.2654507337
 20
338.8678141576
 30
0.0
 10
747.8972112583
 20
339.7946608348
 30
0.0
 10
747.8133776897
 20
340.4365767595
 30
0.0
 10
747.8133594003
 20
340.7497126539
 30
0.0
  0
SPLINE
  5
49F
100
AcDbEntity
  8
AXES_REF
100
AcDbSpline
 62
7
  6
CONTINUOUS
 70
0
 71
3
 72
23
 73
19
 74
0
 42
0.0000001
 43
0.0000001
 44
0.0000000001
 40
0.0
 40
0.0
 40
0.0
 40
0.0
 40
0.0428137123
 40
0.0873950848
 40
0.1351775432
 40
0.1870865574
 40
0.2435331524
 40
0.3044908246
 40
0.3695891684
 40
0.4381977479
 40
0.5094960403
 40
0.582532438
 40
0.6562761585
 40
0.7296653781
 40
0.8016535739
 40
0.8712577082
 40
0.9376062253
 40
1.0
 40
1.0
 40
1.0
 40
1.0
 10
737.8133691074
 20
339.1171572301
 30
0.0
 10
737.8133692412
 20
338.5193407247
 30
0.0
 10
737.973201729
 20
337.2938282941
 30
0.0
 10
738.6760487982
 20
335.5243016825
 30
0.0
 10
739.8165271848
 20
333.8468141183
 30
0.0
 10
741.3623024799
 20
332.2945497375
 30
0.0
 10
743.2777232335
 20
330.8949313887
 30
0.0
 10
745.5220088113
 20
329.6742881437
 30
0.0
 10
748.0481565917
 20
328.6565968712
 30
0.0
 10
750.8030939039
 20
327.8626314028
 30
0.0
 10
753.7285799062
 20
327.3089491689
 30
0.0
 10
756.7624632585
 20
327.0072499044
 30
0.0
 10
759.8400944196
 20
326.9639456433
 30
0.0
 10
762.8958295897
 20
327.1799713464
 30
0.0
 10
765.8644801152
 20
327.6506921267
 30
0.0
 10
768.6830466494
 20
328.3662441768
 30
0.0
 10
771.2912864634
 20
329.3112805586
 30
0.0
 10
772.9081538059
 20
330.1084948151
 30
0.0
 10
773.6626508723
 20
330.5441012993
 30
0.0
  0
SPLINE
  5
4A0
100
AcDbEntity
  8
AXES_REF
100
AcDbSpline
 62
7
  6
CONTINUOUS
 70
0
 71
3
 72
12
 73
8
 74
0
 42
0.0000001
 43
0.0000001
 44
0.0000000001
 40
0.0
 40
0.0
 40
0.0
 40
0.0
 40
0.1081631774
 40
0.2183639227
 40
0.4513678656
 40
0.7104068554
 40
1.0
 40
1.0
 40
1.0
 40
1.0
 10
769.8133338882
 20
340.7506113029
 30
0.0
 10
769.8133460522
 20
340.5423505097
 30
0.0
 10
769.7772043771
 20
340.1210287675
 30
0.0
 10
769.5584135167
 20
339.2763546927
 30
0.0
 10
768.9966333726
 20
338.2406852588
 30
0.0
 10
767.9503208855
 20
337.1415283274
 30
0.0
 10
767.0744429839
 20
336.5383083183
 30
0.0
 10
766.5915536209
 20
336.2595136787
 30
0.0
  0
SPLINE
  5
4A1
100
AcDbEntity
  8
AXES_REF
100
AcDbSpline
 62
7
  6
CONTINUOUS
 70
0
 71
3
 72
12
 73
8
 74
0
 42
0.0000001
 43
0.0000001
 44
0.0000000001
 40
0.0
 40
0.0
 40
0.0
 40
0.0
 40
0.1124138685
 40
0.2262551266
 40
0.462951692
 40
0.7191846106
 40
1.0
 40
1.0
 40
1.0
 40
1.0
 10
779.813324181
 20
340.7501618925
 30
0.0
 10
779.8133241084
 20
341.0749527187
 30
0.0
 10
779.767501752
 20
341.7296014127
 30
0.0
 10
779.4910196448
 20
343.0418955674
 30
0.0
 10
778.7835854681
 20
344.6684599841
 30
0.0
 10
777.432637037
 20
346.4692358346
 30
0.0
 10
776.2735684806
 20
347.5149408024
 30
0.0
 10
775.6313668831
 20
348.0107788752
 30
0.0
  0
SPLINE
  5
4A2
100
AcDbEntity
  8
AXES_REF
100
AcDbSpline
 62
7
  6
CONTINUOUS
 70
0
 71
3
 72
14
 73
10
 74
0
 42
0.0000001
 43
0.0000001
 44
0.0000000001
 40
0.0
 40
0.0
 40
0.0
 40
0.0
 40
0.2892801208
 40
0.4225377808
 40
0.5484975589
 40
0.6678950759
 40
0.7818690377
 40
0.891953133
 40
1.0
 40
1.0
 40
1.0
 40
1.0
 10
773.6626508723
 20
332.1771061335
 30
0.0
 10
774.5844464243
 20
332.7093018668
 30
0.0
 10
775.8753589322
 20
333.5980913516
 30
0.0
 10
777.3358501084
 20
334.9959204667
 30
0.0
 10
778.2247680355
 20
336.0733731574
 30
0.0
 10
778.9274672467
 20
337.1982544289
 30
0.0
 10
779.4361482269
 20
338.3605270782
 30
0.0
 10
779.7442947471
 20
339.5483873143
 30
0.0
 10
779.81332427
 20
340.3526071701
 30
0.0
 10
779.813324181
 20
340.7501618925
 30
0.0
  0
SPLINE
  5
4A3
100
AcDbEntity
  8
AXES_REF
100
AcDbSpline
 62
7
  6
CONTINUOUS
 70
0
 71
3
 72
9
 73
5
 74
0
 42
0.0000001
 43
0.0000001
 44
0.0000000001
 40
0.0
 40
0.0
 40
0.0
 40
0.0
 40
0.5105723102
 40
1.0
 40
1.0
 40
1.0
 40
1.0
 10
769.3166846638
 20
342.6368813032
 30
0.0
 10
769.4753945744
 20
342.3423634201
 30
0.0
 10
769.7253401122
 20
341.7291990913
 30
0.0
 10
769.8133151567
 20
341.0713148701
 30
0.0
 10
769.8133338882
 20
340.7506113029
 30
0.0
  0
SPLINE
  5
4A4
100
AcDbEntity
  8
AXES_REF
100
AcDbSpline
 62
7
  6
CONTINUOUS
 70
0
 71
3
 72
23
 73
19
 74
0
 42
0.0000001
 43
0.0000001
 44
0.0000000001
 40
0.0
 40
0.0
 40
0.0
 40
0.0
 40
0.0428137123
 40
0.0873950848
 40
0.1351775432
 40
0.1870865574
 40
0.2435331524
 40
0.3044908246
 40
0.3695891684
 40
0.4381977479
 40
0.5094960403
 40
0.582532438
 40
0.6562761585
 40
0.7296653781
 40
0.8016535739
 40
0.8712577082
 40
0.9376062253
 40
1.0
 40
1.0
 40
1.0
 40
1.0
 10
737.8133691074
 20
340.7501620644
 30
0.0
 10
737.8133692412
 20
340.152345559
 30
0.0
 10
737.973201729
 20
338.9268331283
 30
0.0
 10
738.6760487982
 20
337.1573065168
 30
0.0
 10
739.8165271848
 20
335.4798189526
 30
0.0
 10
741.3623024799
 20
333.9275545717
 30
0.0
 10
743.2777232335
 20
332.527936223
 30
0.0
 10
745.5220088113
 20
331.3072929779
 30
0.0
 10
748.0481565917
 20
330.2896017055
 30
0.0
 10
750.8030939039
 20
329.495636237
 30
0.0
 10
753.7285799062
 20
328.9419540032
 30
0.0
 10
756.7624632585
 20
328.6402547387
 30
0.0
 10
759.8400944196
 20
328.5969504776
 30
0.0
 10
762.8958295897
 20
328.8129761807
 30
0.0
 10
765.8644801152
 20
329.2836969609
 30
0.0
 10
768.6830466494
 20
329.9992490111
 30
0.0
 10
771.2912864634
 20
330.9442853928
 30
0.0
 10
772.9081538059
 20
331.7414996494
 30
0.0
 10
773.6626508723
 20
332.1771061335
 30
0.0
  0
SPLINE
  5
4A5
100
AcDbEntity
  8
AXES_REF
100
AcDbSpline
 62
7
  6
CONTINUOUS
 70
0
 71
3
 72
9
 73
5
 74
0
 42
0.0000001
 43
0.0000001
 44
0.0000000001
 40
0.0
 40
0.0
 40
0.0
 40
0.0
 40
0.4894151115
 40
1.0
 40
1.0
 40
1.0
 40
1.0
 10
747.8133594003
 20
340.7497126539
 30
0.0
 10
747.81334065
 20
341.0707373106
 30
0.0
 10
747.9012691191
 20
341.7293202427
 30
0.0
 10
748.1515615082
 20
342.3431063209
 30
0.0
 10
748.3105308415
 20
342.6378840378
 30
0.0
  0
SPLINE
  5
4A6
100
AcDbEntity
  8
0
100
AcDbSpline
 62
7
  6
CONTINUOUS
 70
0
 71
3
 72
11
 73
7
 74
0
 42
0.0000001
 43
0.0000001
 44
0.0000000001
 40
0.0
 40
0.0
 40
0.0
 40
0.0
 40
0.2898007708
 40
0.5490506224
 40
0.7822290986
 40
1.0
 40
1.0
 40
1.0
 40
1.0
 10
729.8219833357
 20
355.0389283634
 30
0.0
 10
729.6025098523
 20
355.1656385715
 30
0.0
 10
729.2043986547
 20
355.4396742991
 30
0.0
 10
728.7288350407
 20
355.9397777023
 30
0.0
 10
728.4277934612
 20
356.4927022392
 30
0.0
 10
728.3575025264
 20
356.8897129546
 30
0.0
 10
728.3575025217
 20
357.0801490556
 30
0.0
  0
SPLINE
  5
4A7
100
AcDbEntity
  8
0
100
AcDbSpline
 62
7
  6
CONTINUOUS
 70
0
 71
3
 72
11
 73
7
 74
0
 42
0.0000001
 43
0.0000001
 44
0.0000000001
 40
0.0
 40
0.0
 40
0.0
 40
0.0
 40
0.2372178137
 40
0.4999994738
 40
0.7627814204
 40
1.0
 40
1.0
 40
1.0
 40
1.0
 10
762.3490012528
 20
340.3422781974
 30
0.0
 10
761.8471017211
 20
340.0525080974
 30
0.0
 10
760.6798477364
 20
339.6295950426
 30
0.0
 10
758.8134729056
 20
339.4269671171
 30
0.0
 10
756.9470952586
 20
339.6295865255
 30
0.0
 10
755.7798366827
 20
340.0524937843
 30
0.0
 10
755.277933441
 20
340.3422612006
 30
0.0
  0
SPLINE
  5
4A8
100
AcDbEntity
  8
0
100
AcDbSpline
 62
7
  6
CONTINUOUS
 70
0
 71
3
 72
11
 73
7
 74
0
 42
0.0000001
 43
0.0000001
 44
0.0000000001
 40
0.0
 40
0.0
 40
0.0
 40
0.0
 40
0.236222229
 40
0.4776623484
 40
0.7304042113
 40
1.0
 40
1.0
 40
1.0
 40
1.0
 10
728.3575025217
 20
358.9581046921
 30
0.0
 10
728.3575025217
 20
359.1932954999
 30
0.0
 10
728.4387320038
 20
359.6721832763
 30
0.0
 10
728.7816476625
 20
360.3246623318
 30
0.0
 10
729.304384672
 20
360.8866987882
 30
0.0
 10
729.7344745557
 20
361.1855499008
 30
0.0
 10
729.9669322705
 20
361.3197586238
 30
0.0
  0
SPLINE
  5
4A9
100
AcDbEntity
  8
0
100
AcDbSpline
 62
7
  6
CONTINUOUS
 70
0
 71
3
 72
9
 73
5
 74
0
 42
0.0000001
 43
0.0000001
 44
0.0000000001
 40
0.0
 40
0.0
 40
0.0
 40
0.0
 40
0.4491733718
 40
1.0
 40
1.0
 40
1.0
 40
1.0
 10
791.0502765643
 20
357.0802861126
 30
0.0
 10
791.0502765634
 20
357.0257703138
 30
0.0
 10
791.0026699523
 20
356.9040880529
 30
0.0
 10
790.9031826956
 20
356.8279441338
 30
0.0
 10
790.8452858925
 20
356.7945175984
 30
0.0
  0
SPLINE
  5
4AA
100
AcDbEntity
  8
0
100
AcDbSpline
 62
7
  6
CONTINUOUS
 70
0
 71
3
 72
11
 73
7
 74
0
 42
0.0000001
 43
0.0000001
 44
0.0000000001
 40
0.0
 40
0.0
 40
0.0
 40
0.0
 40
0.2372176268
 40
0.5000005216
 40
0.7627831311
 40
1.0
 40
1.0
 40
1.0
 40
1.0
 10
755.772906127
 20
343.0775393597
 30
0.0
 10
756.2045411807
 20
342.8283403829
 30
0.0
 10
757.2083832182
 20
342.464639633
 30
0.0
 10
758.8134700397
 20
342.2903859743
 30
0.0
 10
760.4185544574
 20
342.4646469471
 30
0.0
 10
761.4223925675
 20
342.8283526837
 30
0.0
 10
761.8540244452
 20
343.0775539769
 30
0.0
  0
SPLINE
  5
4AB
100
AcDbEntity
  8
0
100
AcDbSpline
 62
7
  6
CONTINUOUS
 70
0
 71
3
 72
11
 73
7
 74
0
 42
0.0000001
 43
0.0000001
 44
0.0000000001
 40
0.0
 40
0.0
 40
0.0
 40
0.0
 40
0.2372185797
 40
0.5000005262
 40
0.7627821862
 40
1.0
 40
1.0
 40
1.0
 40
1.0
 10
755.277933441
 20
342.22021676
 30
0.0
 10
755.7798366829
 20
341.9304493436
 30
0.0
 10
756.9470952588
 20
341.5075420849
 30
0.0
 10
758.8134729056
 20
341.3049226765
 30
0.0
 10
760.6798477362
 20
341.507550602
 30
0.0
 10
761.847101721
 20
341.9304636567
 30
0.0
 10
762.3490012528
 20
342.2202337568
 30
0.0
  0
SPLINE
  5
4AC
100
AcDbEntity
  8
0
100
AcDbSpline
 62
7
  6
CONTINUOUS
 70
0
 71
3
 72
15
 73
11
 74
0
 42
0.0000001
 43
0.0000001
 44
0.0000000001
 40
0.0
 40
0.0
 40
0.0
 40
0.0
 40
0.1406182244
 40
0.266918083
 40
0.3819149483
 40
0.491187745
 40
0.6020166991
 40
0.7211907382
 40
0.8532447242
 40
1.0
 40
1.0
 40
1.0
 40
1.0
 10
730.0901336151
 20
361.1435334751
 30
0.0
 10
729.9251533754
 20
361.0321821933
 30
0.0
 10
729.6281666973
 20
360.7943151172
 30
0.0
 10
729.2846379377
 20
360.3704744257
 30
0.0
 10
729.0818403698
 20
359.9097350104
 30
0.0
 10
729.0347952971
 20
359.4290839107
 30
0.0
 10
729.1481667627
 20
358.9540029464
 30
0.0
 10
729.411565527
 20
358.5070599346
 30
0.0
 10
729.8092482293
 20
358.1020215334
 30
0.0
 10
730.1370568292
 20
357.87806902
 30
0.0
 10
730.3169560217
 20
357.7742065225
 30
0.0
  0
SPLINE
  5
4AD
100
AcDbEntity
  8
0
100
AcDbSpline
 62
7
  6
CONTINUOUS
 70
0
 71
3
 72
9
 73
5
 74
0
 42
0.0000001
 43
0.0000001
 44
0.0000000001
 40
0.0
 40
0.0
 40
0.0
 40
0.0
 40
0.5508232972
 40
1.0
 40
1.0
 40
1.0
 40
1.0
 10
730.3169307036
 20
361.2850916285
 30
0.0
 10
730.2590334602
 20
361.3185178614
 30
0.0
 10
730.1433452788
 20
361.3666028704
 30
0.0
 10
730.0141614635
 20
361.3469887025
 30
0.0
 10
729.9669485308
 20
361.3197304601
 30
0.0
  0
SPLINE
  5
4AE
100
AcDbEntity
  8
0
100
AcDbSpline
 62
7
  6
CONTINUOUS
 70
0
 71
3
 72
11
 73
7
 74
0
 42
0.0000001
 43
0.0000001
 44
0.0000000001
 40
0.0
 40
0.0
 40
0.0
 40
0.0
 40
0.2372460005
 40
0.4999983822
 40
0.7627516439
 40
1.0
 40
1.0
 40
1.0
 40
1.0
 10
730.3169560217
 20
357.7742065225
 30
0.0
 10
730.246681848
 20
357.7336339515
 30
0.0
 10
730.1136892312
 20
357.6217226514
 30
0.0
 10
729.9585267919
 20
357.4095994422
 30
0.0
 10
729.8524048528
 20
357.1691619284
 30
0.0
 10
729.8219833357
 20
356.9980302336
 30
0.0
 10
729.8219833357
 20
356.9168839228
 30
0.0
  0
SPLINE
  5
4AF
100
AcDbEntity
  8
0
100
AcDbSpline
 62
7
  6
CONTINUOUS
 70
0
 71
3
 72
11
 73
7
 74
0
 42
0.0000001
 43
0.0000001
 44
0.0000000001
 40
0.0
 40
0.0
 40
0.0
 40
0.0
 40
0.2372460004
 40
0.4999983823
 40
0.7627516442
 40
1.0
 40
1.0
 40
1.0
 40
1.0
 10
755.772906127
 20
343.0775393597
 30
0.0
 10
755.7026319533
 20
343.0369667888
 30
0.0
 10
755.5696393366
 20
342.9250554887
 30
0.0
 10
755.414476897
 20
342.7129322796
 30
0.0
 10
755.3083549587
 20
342.4724947657
 30
0.0
 10
755.2779334402
 20
342.3013630712
 30
0.0
 10
755.2779334402
 20
342.2202167605
 30
0.0
  0
SPLINE
  5
4B0
100
AcDbEntity
  8
0
100
AcDbSpline
 62
7
  6
CONTINUOUS
 70
0
 71
3
 72
11
 73
7
 74
0
 42
0.0000001
 43
0.0000001
 44
0.0000000001
 40
0.0
 40
0.0
 40
0.0
 40
0.0
 40
0.2372465045
 40
0.4999989083
 40
0.7627519059
 40
1.0
 40
1.0
 40
1.0
 40
1.0
 10
761.8540244452
 20
343.0775539769
 30
0.0
 10
761.9242991007
 20
343.0369818035
 30
0.0
 10
762.0572927587
 20
342.9250712805
 30
0.0
 10
762.2124565902
 20
342.712948748
 30
0.0
 10
762.3185794853
 20
342.4725116425
 30
0.0
 10
762.3490012528
 20
342.3013800242
 30
0.0
 10
762.3490012528
 20
342.2202337568
 30
0.0
  0
SPLINE
  5
4B1
100
AcDbEntity
  8
0
100
AcDbSpline
 62
7
  6
CONTINUOUS
 70
0
 71
3
 72
11
 73
7
 74
0
 42
0.0000001
 43
0.0000001
 44
0.0000000001
 40
0.0
 40
0.0
 40
0.0
 40
0.0
 40
0.2372282353
 40
0.4999860075
 40
0.7627448872
 40
1.0
 40
1.0
 40
1.0
 40
1.0
 10
790.3503090849
 20
359.529793378
 30
0.0
 10
790.4205783193
 20
359.4892243344
 30
0.0
 10
790.5535685634
 20
359.3773174671
 30
0.0
 10
790.7087356438
 20
359.1652001702
 30
0.0
 10
790.8148623037
 20
358.9247577059
 30
0.0
 10
790.8452858925
 20
358.7536218146
 30
0.0
 10
790.8452858925
 20
358.6724731578
 30
0.0
  0
SPLINE
  5
4B2
100
AcDbEntity
  8
0
100
AcDbSpline
 62
7
  6
CONTINUOUS
 70
0
 71
3
 72
9
 73
5
 74
0
 42
0.0000001
 43
0.0000001
 44
0.0000000001
 40
0.0
 40
0.0
 40
0.0
 40
0.0
 40
0.5508128174
 40
1.0
 40
1.0
 40
1.0
 40
1.0
 10
790.8452858925
 20
358.6724731578
 30
0.0
 10
790.9031506041
 20
358.7058811652
 30
0.0
 10
791.0025801537
 20
358.7819764081
 30
0.0
 10
791.0502310778
 20
358.903550894
 30
0.0
 10
791.0502768292
 20
358.9580394976
 30
0.0
  0
SPLINE
  5
4B3
100
AcDbEntity
  8
0
100
AcDbSpline
 62
7
  6
CONTINUOUS
 70
0
 71
3
 72
9
 73
5
 74
0
 42
0.0000001
 43
0.0000001
 44
0.0000000001
 40
0.0
 40
0.0
 40
0.0
 40
0.0
 40
0.4491760912
 40
1.0
 40
1.0
 40
1.0
 40
1.0
 10
790.7002868864
 20
359.5644347333
 30
0.0
 10
790.6530743743
 20
359.5916922817
 30
0.0
 10
790.5238918639
 20
359.6113050953
 30
0.0
 10
790.408205475
 20
359.5632196748
 30
0.0
 10
790.3503090849
 20
359.529793378
 30
0.0
  0
SPLINE
  5
4B4
100
AcDbEntity
  8
0
100
AcDbSpline
 62
7
  6
CONTINUOUS
 70
0
 71
3
 72
11
 73
7
 74
0
 42
0.0000001
 43
0.0000001
 44
0.0000000001
 40
0.0
 40
0.0
 40
0.0
 40
0.0
 40
0.2177709011
 40
0.4509493768
 40
0.7101992283
 40
1.0
 40
1.0
 40
1.0
 40
1.0
 10
728.3575025217
 20
358.9581046921
 30
0.0
 10
728.3575025176
 20
358.7676685858
 30
0.0
 10
728.4277934383
 20
358.3706578559
 30
0.0
 10
728.7288350131
 20
357.8177332956
 30
0.0
 10
729.204398636
 20
357.3176298721
 30
0.0
 10
729.6025098453
 20
357.0435941349
 30
0.0
 10
729.8219833357
 20
356.9168839228
 30
0.0
  0
SPLINE
  5
4B5
100
AcDbEntity
  8
0
100
AcDbSpline
 62
7
  6
CONTINUOUS
 70
0
 71
3
 72
11
 73
7
 74
0
 42
0.0000001
 43
0.0000001
 44
0.0000000001
 40
0.0
 40
0.0
 40
0.0
 40
0.0
 40
0.2358317475
 40
0.5001016408
 40
0.7642608222
 40
1.0
 40
1.0
 40
1.0
 40
1.0
 10
761.6448141912
 20
526.9146727919
 30
0.0
 10
761.2402036642
 20
526.6810721896
 30
0.0
 10
760.3328018077
 20
526.2627571199
 30
0.0
 10
758.8141503259
 20
526.0097195419
 30
0.0
 10
757.2955502075
 20
526.262030249
 30
0.0
 10
756.3884220117
 20
526.6800419958
 30
0.0
 10
755.9839686202
 20
526.9135479877
 30
0.0
  0
SPLINE
  5
4B6
100
AcDbEntity
  8
0
100
AcDbSpline
 62
7
  6
CONTINUOUS
 70
0
 71
3
 72
9
 73
5
 74
0
 42
0.0000001
 43
0.0000001
 44
0.0000000001
 40
0.0
 40
0.0
 40
0.0
 40
0.0
 40
0.4496343037
 40
1.0
 40
1.0
 40
1.0
 40
1.0
 10
781.1504919941
 20
538.3381779749
 30
0.0
 10
781.1491855269
 20
538.2843645888
 30
0.0
 10
781.1003632478
 20
538.1655492142
 30
0.0
 10
781.0023405035
 20
538.0906791101
 30
0.0
 10
780.9452792299
 20
538.0577349623
 30
0.0
  0
SPLINE
  5
4B7
100
AcDbEntity
  8
0
100
AcDbSpline
 62
7
  6
CONTINUOUS
 70
0
 71
3
 72
19
 73
15
 74
0
 42
0.0000001
 43
0.0000001
 44
0.0000000001
 40
0.0
 40
0.0
 40
0.0
 40
0.0
 40
0.1419640545
 40
0.2741261082
 40
0.3354385407
 40
0.393034213
 40
0.4471098413
 40
0.4989262855
 40
0.5508138148
 40
0.6050809214
 40
0.6629445302
 40
0.7245651688
 40
0.8573854831
 40
1.0
 40
1.0
 40
1.0
 40
1.0
 10
719.796096062
 20
520.2094379088
 30
0.0
 10
719.9517873748
 20
520.1195512771
 30
0.0
 10
720.259104102
 20
519.957306375
 30
0.0
 10
720.6574467243
 20
519.8037034231
 30
0.0
 10
720.9691805177
 20
519.7373608744
 30
0.0
 10
721.1887824235
 20
519.7229587662
 30
0.0
 10
721.3958043666
 20
519.7502577473
 30
0.0
 10
721.5831542129
 20
519.8268418818
 30
0.0
 10
721.7414128751
 20
519.9533803607
 30
0.0
 10
721.8666620952
 20
520.1212707588
 30
0.0
 10
721.9620254428
 20
520.3206708146
 30
0.0
 10
722.0576940241
 20
520.6263142329
 30
0.0
 10
722.1203534211
 20
521.0506603348
 30
0.0
 10
722.1308282384
 20
521.3996714285
 30
0.0
 10
722.1294693039
 20
521.5802659756
 30
0.0
  0
SPLINE
  5
4B8
100
AcDbEntity
  8
0
100
AcDbSpline
 62
7
  6
CONTINUOUS
 70
0
 71
3
 72
9
 73
5
 74
0
 42
0.0000001
 43
0.0000001
 44
0.0000000001
 40
0.0
 40
0.0
 40
0.0
 40
0.0
 40
0.452824142
 40
1.0
 40
1.0
 40
1.0
 40
1.0
 10
758.6325008636
 20
569.2006745095
 30
0.0
 10
758.6778590299
 20
569.222035189
 30
0.0
 10
758.7946841872
 20
569.2344528913
 30
0.0
 10
758.9003063815
 20
569.1927252845
 30
0.0
 10
758.9533889959
 20
569.1635275642
 30
0.0
  0
SPLINE
  5
4B9
100
AcDbEntity
  8
0
100
AcDbSpline
 62
7
  6
CONTINUOUS
 70
0
 71
3
 72
11
 73
7
 74
0
 42
0.0000001
 43
0.0000001
 44
0.0000000001
 40
0.0
 40
0.0
 40
0.0
 40
0.0
 40
0.1849846132
 40
0.4011546602
 40
0.6691351856
 40
1.0
 40
1.0
 40
1.0
 40
1.0
 10
722.4188694152
 20
519.5119859205
 30
0.0
 10
722.5404757232
 20
519.582243887
 30
0.0
 10
722.7689751648
 20
519.7993875666
 30
0.0
 10
722.9840356868
 20
520.2678132109
 30
0.0
 10
723.1035653393
 20
520.8783845288
 30
0.0
 10
723.1212901334
 20
521.3340770483
 30
0.0
 10
723.1193999455
 20
521.5852675534
 30
0.0
  0
SPLINE
  5
4BA
100
AcDbEntity
  8
0
100
AcDbSpline
 62
7
  6
CONTINUOUS
 70
0
 71
3
 72
9
 73
5
 74
0
 42
0.0000001
 43
0.0000001
 44
0.0000000001
 40
0.0
 40
0.0
 40
0.0
 40
0.0
 40
0.4498047272
 40
1.0
 40
1.0
 40
1.0
 40
1.0
 10
700.5483118952
 20
535.2680693086
 30
0.0
 10
700.5478949332
 20
535.2128057333
 30
0.0
 10
700.5949472741
 20
535.0892198295
 30
0.0
 10
700.6949992435
 20
535.0112240462
 30
0.0
 10
700.7532865644
 20
534.9769852487
 30
0.0
  0
LINE
  5
4BB
100
AcDbEntity
  8
0
100
AcDbLine
 62
7
  6
CONTINUOUS
 10
759.2062218893
 20
569.0241496939
 11
758.9533962993
 21
569.1635317808
  0
SPLINE
  5
4BC
100
AcDbEntity
  8
0
100
AcDbSpline
 62
7
  6
CONTINUOUS
 70
0
 71
3
 72
11
 73
7
 74
0
 42
0.0000001
 43
0.0000001
 44
0.0000000001
 40
0.0
 40
0.0
 40
0.0
 40
0.0
 40
0.1849838148
 40
0.4011469834
 40
0.6691259465
 40
1.0
 40
1.0
 40
1.0
 40
1.0
 10
747.3369381653
 20
533.8983536975
 30
0.0
 10
747.4585750949
 20
533.9685870505
 30
0.0
 10
747.6871472092
 20
534.1857013198
 30
0.0
 10
747.902277175
 20
534.654153034
 30
0.0
 10
748.0218415991
 20
535.2647862645
 30
0.0
 10
748.0395711189
 20
535.7205331123
 30
0.0
 10
748.0376807001
 20
535.9717571253
 30
0.0
  0
SPLINE
  5
4BD
100
AcDbEntity
  8
0
100
AcDbSpline
 62
7
  6
CONTINUOUS
 70
0
 71
3
 72
13
 73
9
 74
0
 42
0.0000001
 43
0.0000001
 44
0.0000000001
 40
0.0
 40
0.0
 40
0.0
 40
0.0
 40
0.234926488
 40
0.3638071188
 40
0.4993318902
 40
0.6349786761
 40
0.7641732495
 40
1.0
 40
1.0
 40
1.0
 40
1.0
 10
700.7453097979
 20
533.9261369219
 30
0.0
 10
700.7423692087
 20
533.5387446946
 30
0.0
 10
700.7883838359
 20
532.9350174386
 30
0.0
 10
701.0031448746
 20
532.1374040399
 30
0.0
 10
701.2784700227
 20
531.5338009479
 30
0.0
 10
701.6611499406
 20
530.9912453544
 30
0.0
 10
702.2427815605
 20
530.4016464098
 30
0.0
 10
702.7418940528
 20
530.0554627474
 30
0.0
 10
703.0786830398
 20
529.8610224693
 30
0.0
  0
SPLINE
  5
4BE
100
AcDbEntity
  8
0
100
AcDbSpline
 62
7
  6
CONTINUOUS
 70
0
 71
3
 72
9
 73
5
 74
0
 42
0.0000001
 43
0.0000001
 44
0.0000000001
 40
0.0
 40
0.0
 40
0.0
 40
0.0
 40
0.4449890932
 40
1.0
 40
1.0
 40
1.0
 40
1.0
 10
780.694936623
 20
556.8480635575
 30
0.0
 10
780.6486623959
 20
556.8760093217
 30
0.0
 10
780.5193431103
 20
556.894899124
 30
0.0
 10
780.402031383
 20
556.849306328
 30
0.0
 10
780.3449883755
 20
556.8133613021
 30
0.0
  0
SPLINE
  5
4BF
100
AcDbEntity
  8
0
100
AcDbSpline
 62
7
  6
CONTINUOUS
 70
0
 71
3
 72
19
 73
15
 74
0
 42
0.0000001
 43
0.0000001
 44
0.0000000001
 40
0.0
 40
0.0
 40
0.0
 40
0.0
 40
0.1419646589
 40
0.2724596244
 40
0.3327994975
 40
0.3898880668
 40
0.4443587127
 40
0.4974048478
 40
0.5505938795
 40
0.6054676594
 40
0.6631581885
 40
0.7242297651
 40
0.8563678541
 40
1.0
 40
1.0
 40
1.0
 40
1.0
 10
761.5798335371
 20
528.6257193793
 30
0.0
 10
761.545840979
 20
529.6000570291
 30
0.0
 10
761.392314772
 20
531.4686528112
 30
0.0
 10
760.8641104737
 20
533.7093870955
 30
0.0
 10
760.1748194774
 20
535.2718361629
 30
0.0
 10
759.5369653916
 20
536.2717852007
 30
0.0
 10
758.7597646724
 20
537.1028725189
 30
0.0
 10
757.8464099224
 20
537.7380250057
 30
0.0
 10
756.8133666446
 20
538.1580736948
 30
0.0
 10
755.6857594301
 20
538.3601334457
 30
0.0
 10
754.4879577224
 20
538.3562417861
 30
0.0
 10
752.7799021566
 20
538.0945317252
 30
0.0
 10
750.5773827349
 20
537.336571261
 30
0.0
 10
748.8919747647
 20
536.4648399078
 30
0.0
 10
748.0376807001
 20
535.9717571253
 30
0.0
  0
SPLINE
  5
4C0
100
AcDbEntity
  8
0
100
AcDbSpline
 62
7
  6
CONTINUOUS
 70
0
 71
3
 72
13
 73
9
 74
0
 42
0.0000001
 43
0.0000001
 44
0.0000000001
 40
0.0
 40
0.0
 40
0.0
 40
0.0
 40
0.2831477059
 40
0.5460372872
 40
0.6683239688
 40
0.7840240618
 40
0.8938941306
 40
1.0
 40
1.0
 40
1.0
 40
1.0
 10
755.9244421927
 20
528.4968342868
 30
0.0
 10
755.8973187865
 20
529.2540540223
 30
0.0
 10
755.7834790216
 20
530.7130350662
 30
0.0
 10
755.411042394
 20
532.4727522319
 30
0.0
 10
754.9212409968
 20
533.7239670701
 30
0.0
 10
754.4614129191
 20
534.5378798119
 30
0.0
 10
753.8919686673
 20
535.2257561474
 30
0.0
 10
753.4321787578
 20
535.5854553668
 30
0.0
 10
753.1897127713
 20
535.7332126713
 30
0.0
  0
SPLINE
  5
4C1
100
AcDbEntity
  8
0
100
AcDbSpline
 62
7
  6
CONTINUOUS
 70
0
 71
3
 72
11
 73
7
 74
0
 42
0.0000001
 43
0.0000001
 44
0.0000000001
 40
0.0
 40
0.0
 40
0.0
 40
0.0
 40
0.2342167061
 40
0.4970682685
 40
0.7617823629
 40
1.0
 40
1.0
 40
1.0
 40
1.0
 10
755.9244386451
 20
528.496832128
 30
0.0
 10
756.3285218021
 20
528.2674830096
 30
0.0
 10
757.2364084188
 20
527.8600894144
 30
0.0
 10
758.7583781858
 20
527.6370612905
 30
0.0
 10
760.2754656479
 20
527.9320803636
 30
0.0
 10
761.1770133446
 20
528.3786188978
 30
0.0
 10
761.5798335371
 20
528.6257193793
 30
0.0
  0
SPLINE
  5
4C2
100
AcDbEntity
  8
0
100
AcDbSpline
 62
7
  6
CONTINUOUS
 70
0
 71
3
 72
9
 73
5
 74
0
 42
0.0000001
 43
0.0000001
 44
0.0000000001
 40
0.0
 40
0.0
 40
0.0
 40
0.0
 40
0.5501180311
 40
1.0
 40
1.0
 40
1.0
 40
1.0
 10
700.7453097979
 20
533.9261369219
 30
0.0
 10
700.6870476423
 20
533.9603609408
 30
0.0
 10
700.5870546202
 20
534.0383368707
 30
0.0
 10
700.5399072945
 20
534.1618427924
 30
0.0
 10
700.5403018111
 20
534.2170999173
 30
0.0
  0
SPLINE
  5
4C3
100
AcDbEntity
  8
0
100
AcDbSpline
 62
7
  6
CONTINUOUS
 70
0
 71
3
 72
9
 73
5
 74
0
 42
0.0000001
 43
0.0000001
 44
0.0000000001
 40
0.0
 40
0.0
 40
0.0
 40
0.0
 40
0.55075071
 40
1.0
 40
1.0
 40
1.0
 40
1.0
 10
703.0786830398
 20
529.8610224693
 30
0.0
 10
703.0786830398
 20
529.7941752837
 30
0.0
 10
703.0949035647
 20
529.6699566581
 30
0.0
 10
703.176435334
 20
529.5678390799
 30
0.0
 10
703.223657183
 20
529.5405747531
 30
0.0
  0
SPLINE
  5
4C4
100
AcDbEntity
  8
0
100
AcDbSpline
 62
7
  6
CONTINUOUS
 70
0
 71
3
 72
9
 73
5
 74
0
 42
0.0000001
 43
0.0000001
 44
0.0000000001
 40
0.0
 40
0.0
 40
0.0
 40
0.0
 40
0.5507260637
 40
1.0
 40
1.0
 40
1.0
 40
1.0
 10
719.796096062
 20
520.2094379088
 30
0.0
 10
719.7960960588
 20
520.1426477823
 30
0.0
 10
719.8122951781
 20
520.0185411431
 30
0.0
 10
719.8936530645
 20
519.9164514972
 30
0.0
 10
719.940802897
 20
519.8891447654
 30
0.0
  0
SPLINE
  5
4C5
100
AcDbEntity
  8
0
100
AcDbSpline
 62
7
  6
CONTINUOUS
 70
0
 71
3
 72
11
 73
7
 74
0
 42
0.0000001
 43
0.0000001
 44
0.0000000001
 40
0.0
 40
0.0
 40
0.0
 40
0.0
 40
0.2366898452
 40
0.4994483419
 40
0.7625068893
 40
1.0
 40
1.0
 40
1.0
 40
1.0
 10
722.1294693039
 20
521.5802659756
 30
0.0
 10
722.199842006
 20
521.5403463384
 30
0.0
 10
722.3634124356
 20
521.4824955285
 30
0.0
 10
722.6245839621
 20
521.4557497187
 30
0.0
 10
722.8857422101
 20
521.4852003612
 30
0.0
 10
723.0490947945
 20
521.5446764441
 30
0.0
 10
723.1193999504
 20
521.5852669025
 30
0.0
  0
SPLINE
  5
4C6
100
AcDbEntity
  8
0
100
AcDbSpline
 62
7
  6
CONTINUOUS
 70
0
 71
3
 72
9
 73
5
 74
0
 42
0.0000001
 43
0.0000001
 44
0.0000000001
 40
0.0
 40
0.0
 40
0.0
 40
0.0
 40
0.547139763
 40
1.0
 40
1.0
 40
1.0
 40
1.0
 10
758.9533889959
 20
569.1635275642
 30
0.0
 10
759.0097636724
 20
569.1983049425
 30
0.0
 10
759.1268785745
 20
569.2431922532
 30
0.0
 10
759.2548664819
 20
569.2249441584
 30
0.0
 10
759.302883195
 20
569.1984835021
 30
0.0
  0
SPLINE
  5
4C7
100
AcDbEntity
  8
0
100
AcDbSpline
 62
7
  6
CONTINUOUS
 70
0
 71
3
 72
9
 73
5
 74
0
 42
0.0000001
 43
0.0000001
 44
0.0000000001
 40
0.0
 40
0.0
 40
0.0
 40
0.0
 40
0.5488057131
 40
1.0
 40
1.0
 40
1.0
 40
1.0
 10
701.2365625472
 20
535.8409011865
 30
0.0
 10
701.1803320182
 20
535.8718303951
 30
0.0
 10
701.0679463391
 20
535.9156892189
 30
0.0
 10
700.9441563132
 20
535.8953931052
 30
0.0
 10
700.898444934
 20
535.8690453523
 30
0.0
  0
SPLINE
  5
4C8
100
AcDbEntity
  8
0
100
AcDbSpline
 62
7
  6
CONTINUOUS
 70
0
 71
3
 72
11
 73
7
 74
0
 42
0.0000001
 43
0.0000001
 44
0.0000000001
 40
0.0
 40
0.0
 40
0.0
 40
0.0
 40
0.2386439825
 40
0.5014665135
 40
0.7634828855
 40
1.0
 40
1.0
 40
1.0
 40
1.0
 10
700.7532865644
 20
534.9769852487
 30
0.0
 10
700.7516329453
 20
535.0587203866
 30
0.0
 10
700.7786694912
 20
535.2312519654
 30
0.0
 10
700.8811377855
 20
535.4741014534
 30
0.0
 10
701.0339389097
 20
535.6879772804
 30
0.0
 10
701.1663942356
 20
535.8003897348
 30
0.0
 10
701.2365625472
 20
535.8409011865
 30
0.0
  0
SPLINE
  5
4C9
100
AcDbEntity
  8
0
100
AcDbSpline
 62
7
  6
CONTINUOUS
 70
0
 71
3
 72
11
 73
7
 74
0
 42
0.0000001
 43
0.0000001
 44
0.0000000001
 40
0.0
 40
0.0
 40
0.0
 40
0.0
 40
0.2367278527
 40
0.4994705083
 40
0.762507669
 40
1.0
 40
1.0
 40
1.0
 40
1.0
 10
722.1214925374
 20
522.6403248706
 30
0.0
 10
722.1918763343
 20
522.6003989397
 30
0.0
 10
722.3554533732
 20
522.542534763
 30
0.0
 10
722.6166281054
 20
522.515846853
 30
0.0
 10
722.8777756047
 20
522.5452488492
 30
0.0
 10
723.0411184642
 20
522.6047355909
 30
0.0
 10
723.1114231838
 20
522.6453257975
 30
0.0
  0
SPLINE
  5
4CA
100
AcDbEntity
  8
0
100
AcDbSpline
 62
7
  6
CONTINUOUS
 70
0
 71
3
 72
11
 73
7
 74
0
 42
0.0000001
 43
0.0000001
 44
0.0000000001
 40
0.0
 40
0.0
 40
0.0
 40
0.0
 40
0.2379652248
 40
0.5014747511
 40
0.7641770414
 40
1.0
 40
1.0
 40
1.0
 40
1.0
 10
722.6281619267
 20
523.4907349244
 30
0.0
 10
722.5577913351
 20
523.4501066869
 30
0.0
 10
722.4242596929
 20
523.3387203147
 30
0.0
 10
722.2667380171
 20
523.1284018168
 30
0.0
 10
722.1569772037
 20
522.8904668555
 30
0.0
 10
722.1231602908
 20
522.720832928
 30
0.0
 10
722.1214925374
 20
522.6403248706
 30
0.0
  0
SPLINE
  5
4CB
100
AcDbEntity
  8
0
100
AcDbSpline
 62
7
  6
CONTINUOUS
 70
0
 71
3
 72
11
 73
7
 74
0
 42
0.0000001
 43
0.0000001
 44
0.0000000001
 40
0.0
 40
0.0
 40
0.0
 40
0.0
 40
0.237089571
 40
0.4990770405
 40
0.7615646213
 40
1.0
 40
1.0
 40
1.0
 40
1.0
 10
723.1114231838
 20
522.6453257975
 30
0.0
 10
723.1108239305
 20
522.7249625583
 30
0.0
 10
723.0806261592
 20
522.8925151444
 30
0.0
 10
722.9771117177
 20
523.128446125
 30
0.0
 10
722.8260243339
 20
523.3376953715
 30
0.0
 10
722.696699021
 20
523.4492952437
 30
0.0
 10
722.6281619267
 20
523.4907349244
 30
0.0
  0
SPLINE
  5
4CC
100
AcDbEntity
  8
0
100
AcDbSpline
 62
7
  6
CONTINUOUS
 70
0
 71
3
 72
11
 73
7
 74
0
 42
0.0000001
 43
0.0000001
 44
0.0000000001
 40
0.0
 40
0.0
 40
0.0
 40
0.0
 40
0.2384436155
 40
0.5009429447
 40
0.7629375438
 40
1.0
 40
1.0
 40
1.0
 40
1.0
 10
780.3449883755
 20
556.8133613021
 30
0.0
 10
780.4135278233
 20
556.7719201984
 30
0.0
 10
780.5428582429
 20
556.6603155605
 30
0.0
 10
780.6939472624
 20
556.4510560311
 30
0.0
 10
780.797456186
 20
556.2151255825
 30
0.0
 10
780.8276504479
 20
556.0475798121
 30
0.0
 10
780.8282496326
 20
555.9679521752
 30
0.0
  0
SPLINE
  5
4CD
100
AcDbEntity
  8
0
100
AcDbSpline
 62
7
  6
CONTINUOUS
 70
0
 71
3
 72
9
 73
5
 74
0
 42
0.0000001
 43
0.0000001
 44
0.0000000001
 40
0.0
 40
0.0
 40
0.0
 40
0.0
 40
0.5496482188
 40
1.0
 40
1.0
 40
1.0
 40
1.0
 10
780.8282496326
 20
555.9679521752
 30
0.0
 10
780.8879020383
 20
556.0048469766
 30
0.0
 10
780.9897904079
 20
556.0885081813
 30
0.0
 10
781.035003687
 20
556.2183421784
 30
0.0
 10
781.0327676311
 20
556.2757676474
 30
0.0
  0
SPLINE
  5
4CE
100
AcDbEntity
  8
03___PRT_ALL_CURVES
100
AcDbSpline
 62
40
  6
CONTINUOUS
 70
0
 71
3
 72
66
 73
62
 74
0
 42
0.0000001
 43
0.0000001
 44
0.0000000001
 40
0.0
 40
0.0
 40
0.0
 40
0.0
 40
0.125
 40
0.15625
 40
0.1875
 40
0.25
 40
0.3125
 40
0.375
 40
0.40625
 40
0.4375
 40
0.5
 40
0.5625
 40
0.59375
 40
0.625
 40
0.65625
 40
0.6875
 40
0.703125
 40
0.71875
 40
0.734375
 40
0.7421875
 40
0.75
 40
0.7578125
 40
0.765625
 40
0.7734375
 40
0.77734375
 40
0.78125
 40
0.78515625
 40
0.7890625
 40
0.79296875
 40
0.794921875
 40
0.796875
 40
0.7978515625
 40
0.7983398438
 40
0.798828125
 40
0.7993164062
 40
0.7995605469
 40
0.7998046875
 40
0.8000488281
 40
0.8001708984
 40
0.8002929688
 40
0.80078125
 40
0.8017578125
 40
0.802734375
 40
0.8037109375
 40
0.8046875
 40
0.806640625
 40
0.80859375
 40
0.810546875
 40
0.8125
 40
0.81640625
 40
0.8203125
 40
0.828125
 40
0.84375
 40
0.859375
 40
0.875
 40
0.890625
 40
0.90625
 40
0.921875
 40
0.9375
 40
0.96875
 40
1.0
 40
1.0
 40
1.0
 40
1.0
 10
763.989384121
 20
554.6563017954
 30
0.0
 10
763.6602400548
 20
554.849436064
 30
0.0
 10
763.2488102283
 20
555.0908997899
 30
0.0
 10
762.7550936676
 20
555.3805185905
 30
0.0
 10
762.4259509342
 20
555.5738914879
 30
0.0
 10
762.0145105992
 20
555.8134737175
 30
0.0
 10
761.5207837534
 20
556.1012530724
 30
0.0
 10
761.1093443373
 20
556.3409951565
 30
0.0
 10
760.7801929334
 20
556.532826192
 30
0.0
 10
760.4510372633
 20
556.7229772764
 30
0.0
 10
760.0395941179
 20
556.9612961986
 30
0.0
 10
759.6281505367
 20
557.199194793
 30
0.0
 10
759.2989955639
 20
557.390018402
 30
0.0
 10
759.0521299191
 20
557.531874105
 30
0.0
 10
758.8052642703
 20
557.6737479582
 30
0.0
 10
758.5995428973
 20
557.7919720264
 30
0.0
 10
758.4349657987
 20
557.8865521484
 30
0.0
 10
758.3115329747
 20
557.9574871234
 30
0.0
 10
758.2086722881
 20
558.0165996292
 30
0.0
 10
758.1263837388
 20
558.0638896283
 30
0.0
 10
758.0646673268
 20
558.0993571284
 30
0.0
 10
758.0029509149
 20
558.1348246282
 30
0.0
 10
757.9412345028
 20
558.1702921281
 30
0.0
 10
757.8898041597
 20
558.1998483779
 30
0.0
 10
757.8486598847
 20
558.2234933781
 30
0.0
 10
757.8178016797
 20
558.2412271274
 30
0.0
 10
757.78694347
 20
558.2589608795
 30
0.0
 10
757.7560852779
 20
558.2766946216
 30
0.0
 10
757.7303700631
 20
558.2914727708
 30
0.0
 10
757.7097980137
 20
558.3032952214
 30
0.0
 10
757.6969402041
 20
558.3106844095
 30
0.0
 10
757.687940296
 20
558.3158565276
 30
0.0
 10
757.6827966173
 20
558.3188125143
 30
0.0
 10
757.6789413209
 20
558.3210281219
 30
0.0
 10
757.6757207294
 20
558.3228788652
 30
0.0
 10
757.6731618516
 20
558.3243495824
 30
0.0
 10
757.671194614
 20
558.3254796104
 30
0.0
 10
757.6697081819
 20
558.3263354491
 30
0.0
 10
757.6673845446
 20
558.3276569863
 30
0.0
 10
757.6641905743
 20
558.3294756617
 30
0.0
 10
757.6570999462
 20
558.3335117591
 30
0.0
 10
757.6463064047
 20
558.3396565168
 30
0.0
 10
757.6333048076
 20
558.3470579279
 30
0.0
 10
757.6203164121
 20
558.3544519281
 30
0.0
 10
757.6029939398
 20
558.3643131838
 30
0.0
 10
757.5813424319
 20
558.3766388651
 30
0.0
 10
757.5553599441
 20
558.3914300635
 30
0.0
 10
757.5293776378
 20
558.40622116
 30
0.0
 10
757.4947344993
 20
558.4259426576
 30
0.0
 10
757.4514305978
 20
558.4505945174
 30
0.0
 10
757.3821443435
 20
558.4900374999
 30
0.0
 10
757.2608934039
 20
558.559062716
 30
0.0
 10
757.087677773
 20
558.6576701694
 30
0.0
 10
756.8798190173
 20
558.7759991126
 30
0.0
 10
756.6719602611
 20
558.8943280561
 30
0.0
 10
756.4641015051
 20
559.0126569995
 30
0.0
 10
756.2562427491
 20
559.130985943
 30
0.0
 10
756.048383993
 20
559.2493148864
 30
0.0
 10
755.7712389849
 20
559.407086811
 30
0.0
 10
755.4248077249
 20
559.6043017167
 30
0.0
 10
755.1476627168
 20
559.7620736412
 30
0.0
 10
755.0090902128
 20
559.8409596035
 30
0.0
  0
SPLINE
  5
4CF
100
AcDbEntity
  8
03___PRT_ALL_CURVES
100
AcDbSpline
 62
40
  6
CONTINUOUS
 70
0
 71
3
 72
66
 73
62
 74
0
 42
0.0000001
 43
0.0000001
 44
0.0000000001
 40
0.0
 40
0.0
 40
0.0
 40
0.0
 40
0.125
 40
0.15625
 40
0.1875
 40
0.25
 40
0.3125
 40
0.375
 40
0.40625
 40
0.4375
 40
0.5
 40
0.5625
 40
0.59375
 40
0.625
 40
0.65625
 40
0.6875
 40
0.703125
 40
0.71875
 40
0.734375
 40
0.7421875
 40
0.75
 40
0.7578125
 40
0.765625
 40
0.7734375
 40
0.77734375
 40
0.78125
 40
0.78515625
 40
0.7890625
 40
0.79296875
 40
0.794921875
 40
0.796875
 40
0.7978515625
 40
0.7983398438
 40
0.798828125
 40
0.7993164062
 40
0.7995605469
 40
0.7998046875
 40
0.8000488281
 40
0.8001708984
 40
0.8002929688
 40
0.80078125
 40
0.8017578125
 40
0.802734375
 40
0.8037109375
 40
0.8046875
 40
0.806640625
 40
0.80859375
 40
0.810546875
 40
0.8125
 40
0.81640625
 40
0.8203125
 40
0.828125
 40
0.84375
 40
0.859375
 40
0.875
 40
0.890625
 40
0.90625
 40
0.921875
 40
0.9375
 40
0.96875
 40
1.0
 40
1.0
 40
1.0
 40
1.0
 10
753.6373091675
 20
559.0489657193
 30
0.0
 10
753.9664532337
 20
558.8620457554
 30
0.0
 10
754.3778830601
 20
558.6284419866
 30
0.0
 10
754.8715996208
 20
558.3479789058
 30
0.0
 10
755.2007423543
 20
558.1612991096
 30
0.0
 10
755.6121826893
 20
557.9258017106
 30
0.0
 10
756.1059095351
 20
557.6434873081
 30
0.0
 10
756.5173489512
 20
557.4081508246
 30
0.0
 10
756.8465003551
 20
557.219919155
 30
0.0
 10
757.1756560251
 20
557.0300026083
 30
0.0
 10
757.5870991706
 20
556.7932386568
 30
0.0
 10
757.9985427518
 20
556.5560538742
 30
0.0
 10
758.3276977246
 20
556.3668106572
 30
0.0
 10
758.5745633694
 20
556.2236169159
 30
0.0
 10
758.8214290181
 20
556.0804413202
 30
0.0
 10
759.0271503912
 20
555.9611241822
 30
0.0
 10
759.1917274898
 20
555.8656713388
 30
0.0
 10
759.3151603138
 20
555.79408159
 30
0.0
 10
759.4180210004
 20
555.7344234925
 30
0.0
 10
759.5003095497
 20
555.686697009
 30
0.0
 10
759.5620259617
 20
555.650902147
 30
0.0
 10
759.6237423736
 20
555.6151072849
 30
0.0
 10
759.6854587856
 20
555.5793124228
 30
0.0
 10
759.7368891288
 20
555.5494833712
 30
0.0
 10
759.7780334038
 20
555.5256201296
 30
0.0
 10
759.8088916088
 20
555.5077226992
 30
0.0
 10
759.8397498185
 20
555.4898252659
 30
0.0
 10
759.8706080106
 20
555.4719278431
 30
0.0
 10
759.8963232254
 20
555.4570132917
 30
0.0
 10
759.9168952747
 20
555.4450817232
 30
0.0
 10
759.9297530844
 20
555.4376243274
 30
0.0
 10
759.9387529925
 20
555.4324044819
 30
0.0
 10
759.9438966712
 20
555.4294211944
 30
0.0
 10
759.9477519676
 20
555.4271851899
 30
0.0
 10
759.950972559
 20
555.4253171986
 30
0.0
 10
759.9535314369
 20
555.423833245
 30
0.0
 10
759.9554986745
 20
555.4226917541
 30
0.0
 10
759.9569851066
 20
555.4218312476
 30
0.0
 10
759.9593087439
 20
555.4204697404
 30
0.0
 10
759.9625027142
 20
555.41860042
 30
0.0
 10
759.9695933423
 20
555.4144491505
 30
0.0
 10
759.9803868838
 20
555.4081308819
 30
0.0
 10
759.9933884808
 20
555.4005196816
 30
0.0
 10
760.0063768764
 20
555.3929163137
 30
0.0
 10
760.0236993487
 20
555.3827757539
 30
0.0
 10
760.0453508566
 20
555.370100993
 30
0.0
 10
760.0713333444
 20
555.3548908774
 30
0.0
 10
760.0973156507
 20
555.3396808695
 30
0.0
 10
760.1319587892
 20
555.3194008214
 30
0.0
 10
760.1752626906
 20
555.2940507741
 30
0.0
 10
760.244548945
 20
555.2534906912
 30
0.0
 10
760.3657998846
 20
555.1825105496
 30
0.0
 10
760.5390155154
 20
555.0811103454
 30
0.0
 10
760.7468742712
 20
554.9594301012
 30
0.0
 10
760.9547330273
 20
554.8377498568
 30
0.0
 10
761.1625917834
 20
554.7160696125
 30
0.0
 10
761.3704505394
 20
554.5943893681
 30
0.0
 10
761.5783092955
 20
554.4727091238
 30
0.0
 10
761.8554543035
 20
554.310468798
 30
0.0
 10
762.2018855636
 20
554.1076683907
 30
0.0
 10
762.4790305717
 20
553.9454280649
 30
0.0
 10
762.6176030757
 20
553.864307902
 30
0.0
  0
SPLINE
  5
4D0
100
AcDbEntity
  8
0
100
AcDbSpline
 62
7
  6
CONTINUOUS
 70
0
 71
3
 72
11
 73
7
 74
0
 42
0.0000001
 43
0.0000001
 44
0.0000000001
 40
0.0
 40
0.0
 40
0.0
 40
0.0
 40
0.2372144762
 40
0.4999965646
 40
0.762768133
 40
1.0
 40
1.0
 40
1.0
 40
1.0
 10
765.1773867992
 20
315.0305270637
 30
0.0
 10
764.2739829449
 20
314.5089316551
 30
0.0
 10
762.1729548394
 20
313.7476032031
 30
0.0
 10
758.8135089466
 20
313.3829095108
 30
0.0
 10
755.4539960287
 20
313.7475569484
 30
0.0
 10
753.3528937683
 20
314.5087857294
 30
0.0
 10
752.4494121093
 20
315.0303993311
 30
0.0
  0
SPLINE
  5
4D1
100
AcDbEntity
  8
0
100
AcDbSpline
 62
7
  6
CONTINUOUS
 70
0
 71
3
 72
11
 73
7
 74
0
 42
0.0000001
 43
0.0000001
 44
0.0000000001
 40
0.0
 40
0.0
 40
0.0
 40
0.0
 40
0.2897444835
 40
0.5490743183
 40
0.7822176076
 40
1.0
 40
1.0
 40
1.0
 40
1.0
 10
751.3885658801
 20
315.6428966962
 30
0.0
 10
750.9277912047
 20
315.9089328173
 30
0.0
 10
750.0918932019
 20
316.4845366197
 30
0.0
 10
749.0930428774
 20
317.53451994
 30
0.0
 10
748.4611959493
 20
318.6958431846
 30
0.0
 10
748.3133171366
 20
319.5294297958
 30
0.0
 10
748.3133871473
 20
319.9293457314
 30
0.0
  0
SPLINE
  5
4D2
100
AcDbEntity
  8
0
100
AcDbSpline
 62
7
  6
CONTINUOUS
 70
0
 71
3
 72
11
 73
7
 74
0
 42
0.0000001
 43
0.0000001
 44
0.0000000001
 40
0.0
 40
0.0
 40
0.0
 40
0.0
 40
0.2177699416
 40
0.4509501356
 40
0.7102020171
 40
1.0
 40
1.0
 40
1.0
 40
1.0
 10
769.3133061412
 20
319.9293549524
 30
0.0
 10
769.3132361334
 20
319.5294558196
 30
0.0
 10
769.1657932989
 20
318.6957547497
 30
0.0
 10
768.5335715734
 20
317.5346458918
 30
0.0
 10
767.5349240376
 20
316.4844843727
 30
0.0
 10
766.6989263631
 20
315.9090245574
 30
0.0
 10
766.2380595559
 20
315.6429353995
 30
0.0
  0
SPLINE
  5
4D3
100
AcDbEntity
  8
0
100
AcDbSpline
 62
7
  6
CONTINUOUS
 70
0
 71
3
 72
11
 73
7
 74
0
 42
0.0000001
 43
0.0000001
 44
0.0000000001
 40
0.0
 40
0.0
 40
0.0
 40
0.0
 40
0.2372465442
 40
0.4999994739
 40
0.7627526898
 40
1.0
 40
1.0
 40
1.0
 40
1.0
 10
761.6418562
 20
348.0989356536
 30
0.0
 10
761.2402890465
 20
347.8670921334
 30
0.0
 10
760.3064917834
 20
347.5286977378
 30
0.0
 10
758.8134335217
 20
347.3669045915
 30
0.0
 10
757.3203730085
 20
347.5286909242
 30
0.0
 10
756.3865720725
 20
347.8670806832
 30
0.0
 10
755.9850019506
 20
348.0989220562
 30
0.0
  0
SPLINE
  5
4D4
100
AcDbEntity
  8
0
100
AcDbSpline
 62
7
  6
CONTINUOUS
 70
0
 71
3
 72
10
 73
6
 74
0
 42
0.0000001
 43
0.0000001
 44
0.0000000001
 40
0.0
 40
0.0
 40
0.0
 40
0.0
 40
0.5477436924
 40
0.7815920287
 40
1.0
 40
1.0
 40
1.0
 40
1.0
 10
739.0143685471
 20
357.8967001647
 30
0.0
 10
738.6835236266
 20
358.0877092474
 30
0.0
 10
738.2369558588
 20
358.4394016125
 30
0.0
 10
737.8989218872
 20
359.0596410682
 30
0.0
 10
737.8429697256
 20
359.3773478979
 30
0.0
 10
737.842969728
 20
359.5296768601
 30
0.0
  0
SPLINE
  5
4D5
100
AcDbEntity
  8
0
100
AcDbSpline
 62
7
  6
CONTINUOUS
 70
0
 71
3
 72
8
 73
4
 74
0
 42
0.0000001
 43
0.0000001
 44
0.0000000001
 40
0.0
 40
0.0
 40
0.0
 40
0.0
 40
1.0
 40
1.0
 40
1.0
 40
1.0
 10
780.9457868344
 20
537.8130674245
 30
0.0
 10
780.9672008975
 20
537.800704289
 30
0.0
 10
780.9879548841
 20
537.7870827439
 30
0.0
 10
781.0076473962
 20
537.7721290091
 30
0.0
  0
SPLINE
  5
4D6
100
AcDbEntity
  8
0
100
AcDbSpline
 62
7
  6
CONTINUOUS
 70
0
 71
3
 72
9
 73
5
 74
0
 42
0.0000001
 43
0.0000001
 44
0.0000000001
 40
0.0
 40
0.0
 40
0.0
 40
0.0
 40
0.2860102163
 40
1.0
 40
1.0
 40
1.0
 40
1.0
 10
781.0076473962
 20
537.7721290091
 30
0.0
 10
781.0295928761
 20
537.7554644571
 30
0.0
 10
781.1019071908
 20
537.6926501267
 30
0.0
 10
781.15081414
 20
537.596085783
 30
0.0
 10
781.1508141484
 20
537.5272965597
 30
0.0
  0
SPLINE
  5
4D7
100
AcDbEntity
  8
02___PRT_ALL_AXES
100
AcDbSpline
 62
7
  6
CONTINUOUS
 70
0
 71
3
 72
13
 73
9
 74
0
 42
0.0000001
 43
0.0000001
 44
0.0000000001
 40
0.0
 40
0.0
 40
0.0
 40
0.0
 40
0.3319913819
 40
0.6072281439
 40
0.7226341321
 40
0.8243589679
 40
0.9152503104
 40
1.0
 40
1.0
 40
1.0
 40
1.0
 10
675.4790573477
 20
446.5775162513
 30
0.0
 10
676.2038271027
 20
446.6189362499
 30
0.0
 10
677.5266012307
 20
446.7752141429
 30
0.0
 10
679.055050199
 20
447.2334768868
 30
0.0
 10
679.9999505916
 20
447.7586588228
 30
0.0
 10
680.5235337305
 20
448.1899326146
 30
0.0
 10
680.8940971664
 20
448.6783430175
 30
0.0
 10
681.031608155
 20
449.0443636111
 30
0.0
 10
681.0688039317
 20
449.2259111881
 30
0.0
  0
SPLINE
  5
4D8
100
AcDbEntity
  8
0
100
AcDbSpline
 62
7
  6
CONTINUOUS
 70
0
 71
3
 72
9
 73
5
 74
0
 42
0.0000001
 43
0.0000001
 44
0.0000000001
 40
0.0
 40
0.0
 40
0.0
 40
0.0
 40
0.4492483314
 40
1.0
 40
1.0
 40
1.0
 40
1.0
 10
781.1508141484
 20
359.5297696254
 30
0.0
 10
781.150814155
 20
359.4752435308
 30
0.0
 10
781.103145461
 20
359.353578378
 30
0.0
 10
781.0036811522
 20
359.2774237752
 30
0.0
 10
780.945790956
 20
359.2440010543
 30
0.0
  0
SPLINE
  5
4D9
100
AcDbEntity
  8
0
100
AcDbSpline
 62
7
  6
CONTINUOUS
 70
0
 71
3
 72
10
 73
6
 74
0
 42
0.0000001
 43
0.0000001
 44
0.0000000001
 40
0.0
 40
0.0
 40
0.0
 40
0.0
 40
0.240409487
 40
0.4835492569
 40
1.0
 40
1.0
 40
1.0
 40
1.0
 10
671.8597456242
 20
444.4939201482
 30
0.0
 10
671.6893930509
 20
444.3955676313
 30
0.0
 10
671.3108080043
 20
444.254147956
 30
0.0
 10
670.4833239379
 20
444.2181614777
 30
0.0
 10
669.8757156226
 20
444.4460682458
 30
0.0
 10
669.5097605164
 20
444.6573477451
 30
0.0
  0
SPLINE
  5
4DA
100
AcDbEntity
  8
0
100
AcDbSpline
 62
7
  6
CONTINUOUS
 70
0
 71
3
 72
9
 73
5
 74
0
 42
0.0000001
 43
0.0000001
 44
0.0000000001
 40
0.0
 40
0.0
 40
0.0
 40
0.0
 40
0.2445034783
 40
1.0
 40
1.0
 40
1.0
 40
1.0
 10
652.243176231
 20
454.6440119601
 30
0.0
 10
652.1945716424
 20
454.6780178239
 30
0.0
 10
651.9986537355
 20
454.8211787556
 30
0.0
 10
651.8141165275
 20
454.9797487138
 30
0.0
 10
651.6814820687
 20
455.106256779
 30
0.0
  0
SPLINE
  5
4DB
100
AcDbEntity
  8
0
100
AcDbSpline
 62
7
  6
CONTINUOUS
 70
0
 71
3
 72
9
 73
5
 74
0
 42
0.0000001
 43
0.0000001
 44
0.0000000001
 40
0.0
 40
0.0
 40
0.0
 40
0.0
 40
0.5034934631
 40
1.0
 40
1.0
 40
1.0
 40
1.0
 10
651.6814820687
 20
455.106256779
 30
0.0
 10
651.2221901301
 20
455.5443339959
 30
0.0
 10
650.4601009645
 20
456.5757133326
 30
0.0
 10
650.0184966412
 20
457.7822804925
 30
0.0
 10
649.9160489269
 20
458.3997445516
 30
0.0
  0
SPLINE
  5
4DC
100
AcDbEntity
  8
0
100
AcDbSpline
 62
7
  6
CONTINUOUS
 70
0
 71
3
 72
9
 73
5
 74
0
 42
0.0000001
 43
0.0000001
 44
0.0000000001
 40
0.0
 40
0.0
 40
0.0
 40
0.0
 40
0.485315671
 40
1.0
 40
1.0
 40
1.0
 40
1.0
 10
650.8891301282
 20
467.9968818881
 30
0.0
 10
650.5923214287
 20
467.8255203284
 30
0.0
 10
650.0827281848
 20
467.2778356647
 30
0.0
 10
649.903921221
 20
466.5716817181
 30
0.0
 10
649.8705065025
 20
466.2097564699
 30
0.0
  0
SPLINE
  5
4DD
100
AcDbEntity
  8
0
100
AcDbSpline
 62
7
  6
CONTINUOUS
 70
0
 71
3
 72
11
 73
7
 74
0
 42
0.0000001
 43
0.0000001
 44
0.0000000001
 40
0.0
 40
0.0
 40
0.0
 40
0.0
 40
0.2508795293
 40
0.5181050789
 40
0.7762586912
 40
1.0
 40
1.0
 40
1.0
 40
1.0
 10
737.5268446517
 20
528.234222765
 30
0.0
 10
737.2082601072
 20
526.5486787743
 30
0.0
 10
736.1246720098
 20
523.1433616186
 30
0.0
 10
733.577615623
 20
518.4537951549
 30
0.0
 10
730.3276297623
 20
514.458707804
 30
0.0
 10
727.7326936977
 20
512.3622691748
 30
0.0
 10
726.4078199426
 20
511.5973575215
 30
0.0
  0
SPLINE
  5
4DE
100
AcDbEntity
  8
0
100
AcDbSpline
 62
7
  6
CONTINUOUS
 70
0
 71
3
 72
11
 73
7
 74
0
 42
0.0000001
 43
0.0000001
 44
0.0000000001
 40
0.0
 40
0.0
 40
0.0
 40
0.0
 40
0.1468422871
 40
0.3498723983
 40
0.6343843967
 40
1.0
 40
1.0
 40
1.0
 40
1.0
 10
752.8783171397
 20
489.0354111662
 30
0.0
 10
752.6327174809
 20
489.1772049874
 30
0.0
 10
751.9799404114
 20
489.4026406521
 30
0.0
 10
750.7378026145
 20
489.405977177
 30
0.0
 10
749.1280440081
 20
488.9967050325
 30
0.0
 10
747.9899397631
 20
488.4474458607
 30
0.0
 10
747.3784354386
 20
488.0943957817
 30
0.0
  0
SPLINE
  5
4DF
100
AcDbEntity
  8
0
100
AcDbSpline
 62
7
  6
CONTINUOUS
 70
0
 71
3
 72
9
 73
5
 74
0
 42
0.0000001
 43
0.0000001
 44
0.0000000001
 40
0.0
 40
0.0
 40
0.0
 40
0.0
 40
0.5000005448
 40
1.0
 40
1.0
 40
1.0
 40
1.0
 10
671.6982439849
 20
453.1020315974
 30
0.0
 10
671.8451608767
 20
453.0172110092
 30
0.0
 10
672.1932192144
 20
452.9501144316
 30
0.0
 10
672.5412775185
 20
453.0172125047
 30
0.0
 10
672.6881934785
 20
453.1020339674
 30
0.0
  0
SPLINE
  5
4E0
100
AcDbEntity
  8
0
100
AcDbSpline
 62
7
  6
CONTINUOUS
 70
0
 71
3
 72
9
 73
5
 74
0
 42
0.0000001
 43
0.0000001
 44
0.0000000001
 40
0.0
 40
0.0
 40
0.0
 40
0.0
 40
0.5000016722
 40
1.0
 40
1.0
 40
1.0
 40
1.0
 10
669.3647818919
 20
457.1436840638
 30
0.0
 10
669.3647818919
 20
457.3133286599
 30
0.0
 10
669.4807005545
 20
457.6483060017
 30
0.0
 10
669.7128388115
 20
457.9161853126
 30
0.0
 10
669.8597545779
 20
458.0010066635
 30
0.0
  0
SPLINE
  5
4E1
100
AcDbEntity
  8
0
100
AcDbSpline
 62
7
  6
CONTINUOUS
 70
0
 71
3
 72
15
 73
11
 74
0
 42
0.0000001
 43
0.0000001
 44
0.0000000001
 40
0.0
 40
0.0
 40
0.0
 40
0.0
 40
0.1448963428
 40
0.2745208976
 40
0.3911104459
 40
0.4999970554
 40
0.6088842038
 40
0.7254751644
 40
0.855101622
 40
1.0
 40
1.0
 40
1.0
 40
1.0
 10
748.206883293
 20
489.9255395482
 30
0.0
 10
749.040859525
 20
490.4070330762
 30
0.0
 10
750.6992114459
 20
491.1964061614
 30
0.0
 10
753.2480599097
 20
491.8114883215
 30
0.0
 10
755.6412728777
 20
491.7506654288
 30
0.0
 10
757.7713429858
 20
490.9782044918
 30
0.0
 10
759.5053182132
 20
489.5196903607
 30
0.0
 10
760.7545732892
 20
487.477474706
 30
0.0
 10
761.4963035606
 20
484.9625251245
 30
0.0
 10
761.6418562
 20
483.1316374392
 30
0.0
 10
761.6418562
 20
482.1686325463
 30
0.0
  0
SPLINE
  5
4E2
100
AcDbEntity
  8
0
100
AcDbSpline
 62
7
  6
CONTINUOUS
 70
0
 71
3
 72
9
 73
5
 74
0
 42
0.0000001
 43
0.0000001
 44
0.0000000001
 40
0.0
 40
0.0
 40
0.0
 40
0.0
 40
0.2447057332
 40
1.0
 40
1.0
 40
1.0
 40
1.0
 10
766.2380595559
 20
315.6429353995
 30
0.0
 10
766.162725103
 20
315.5994397933
 30
0.0
 10
765.8525380975
 20
315.4257464515
 30
0.0
 10
765.5334793828
 20
315.2680013308
 30
0.0
 10
765.2888442101
 20
315.1573494349
 30
0.0
  0
SPLINE
  5
4E3
100
AcDbEntity
  8
0
100
AcDbSpline
 62
7
  6
CONTINUOUS
 70
0
 71
3
 72
11
 73
7
 74
0
 42
0.0000001
 43
0.0000001
 44
0.0000000001
 40
0.0
 40
0.0
 40
0.0
 40
0.0
 40
0.2438704081
 40
0.5019673145
 40
0.7590199129
 40
1.0
 40
1.0
 40
1.0
 40
1.0
 10
764.6026464804
 20
314.8720036869
 30
0.0
 10
763.6781514894
 20
314.5193149273
 30
0.0
 10
761.6908030462
 20
314.0065315485
 30
0.0
 10
758.6052070398
 20
313.7794207791
 30
0.0
 10
755.5372601459
 20
314.0758781271
 30
0.0
 10
753.5783713797
 20
314.6353137381
 30
0.0
 10
752.6756407376
 20
315.0109297585
 30
0.0
  0
SPLINE
  5
4E4
100
AcDbEntity
  8
0
100
AcDbSpline
 62
7
  6
CONTINUOUS
 70
0
 71
3
 72
11
 73
7
 74
0
 42
0.0000001
 43
0.0000001
 44
0.0000000001
 40
0.0
 40
0.0
 40
0.0
 40
0.0
 40
0.2372182624
 40
0.5000016236
 40
0.7627841042
 40
1.0
 40
1.0
 40
1.0
 40
1.0
 10
761.6418562
 20
519.9726944594
 30
0.0
 10
761.6418562
 20
517.7704250784
 30
0.0
 10
760.8158559815
 20
513.1255495796
 30
0.0
 10
757.9365751796
 20
506.5984685695
 30
0.0
 10
753.7236406637
 20
500.8413935987
 30
0.0
 10
750.1140883416
 20
497.8036283858
 30
0.0
 10
748.206883293
 20
496.7025096104
 30
0.0
  0
SPLINE
  5
4E5
100
AcDbEntity
  8
0
100
AcDbSpline
 62
7
  6
CONTINUOUS
 70
0
 71
3
 72
11
 73
7
 74
0
 42
0.0000001
 43
0.0000001
 44
0.0000000001
 40
0.0
 40
0.0
 40
0.0
 40
0.0
 40
0.2926394051
 40
0.5413838306
 40
0.7657612613
 40
1.0
 40
1.0
 40
1.0
 40
1.0
 10
652.3941484884
 20
466.9414621723
 30
0.0
 10
652.1870405525
 20
467.0610332898
 30
0.0
 10
651.7759831699
 20
467.2411509351
 30
0.0
 10
651.1344363656
 20
467.2907636514
 30
0.0
 10
650.5795397288
 20
467.0541336811
 30
0.0
 10
650.3448322038
 20
466.7410923728
 30
0.0
 10
650.2602862641
 20
466.5693542548
 30
0.0
  0
SPLINE
  5
4E6
100
AcDbEntity
  8
0
100
AcDbSpline
 62
7
  6
CONTINUOUS
 70
0
 71
3
 72
9
 73
5
 74
0
 42
0.0000001
 43
0.0000001
 44
0.0000000001
 40
0.0
 40
0.0
 40
0.0
 40
0.0
 40
0.2339290647
 40
1.0
 40
1.0
 40
1.0
 40
1.0
 10
650.2602862641
 20
466.5693542548
 30
0.0
 10
650.2352671105
 20
466.5185328627
 30
0.0
 10
650.1401888884
 20
466.2954237234
 30
0.0
 10
650.0915941599
 20
466.0543007881
 30
0.0
 10
650.0736887124
 20
465.8696625495
 30
0.0
  0
SPLINE
  5
4E7
100
AcDbEntity
  8
0
100
AcDbSpline
 62
7
  6
CONTINUOUS
 70
0
 71
3
 72
11
 73
7
 74
0
 42
0.0000001
 43
0.0000001
 44
0.0000000001
 40
0.0
 40
0.0
 40
0.0
 40
0.0
 40
0.2372196275
 40
0.5000016181
 40
0.762782728
 40
1.0
 40
1.0
 40
1.0
 40
1.0
 10
755.9850019506
 20
519.972680862
 30
0.0
 10
755.9850019509
 20
518.2340371329
 30
0.0
 10
755.3328934888
 20
514.567030054
 30
0.0
 10
753.0597780884
 20
509.4140827742
 30
0.0
 10
749.7337865251
 20
504.8690300807
 30
0.0
 10
746.8841413259
 20
502.4707916371
 30
0.0
 10
745.3784443924
 20
501.601482297
 30
0.0
  0
SPLINE
  5
4E8
100
AcDbEntity
  8
0
100
AcDbSpline
 62
7
  6
CONTINUOUS
 70
0
 71
3
 72
11
 73
7
 74
0
 42
0.0000001
 43
0.0000001
 44
0.0000000001
 40
0.0
 40
0.0
 40
0.0
 40
0.0
 40
0.2405935239
 40
0.5034009548
 40
0.7643744029
 40
1.0
 40
1.0
 40
1.0
 40
1.0
 10
738.9980808226
 20
529.0837544533
 30
0.0
 10
738.9182372694
 20
527.3767727649
 30
0.0
 10
738.1730325327
 20
523.828341185
 30
0.0
 10
735.8720110277
 20
518.8692369694
 30
0.0
 10
732.6113134381
 20
514.5253918608
 30
0.0
 10
729.8571609013
 20
512.2360379723
 30
0.0
 10
728.4078109888
 20
511.3992604055
 30
0.0
  0
SPLINE
  5
4E9
100
AcDbEntity
  8
0
100
AcDbSpline
 62
7
  6
CONTINUOUS
 70
0
 71
3
 72
11
 73
7
 74
0
 42
0.0000001
 43
0.0000001
 44
0.0000000001
 40
0.0
 40
0.0
 40
0.0
 40
0.0
 40
0.2372378415
 40
0.5000011043
 40
0.7627637314
 40
1.0
 40
1.0
 40
1.0
 40
1.0
 10
671.6982439849
 20
453.1020315974
 30
0.0
 10
671.6982439849
 20
453.4845616573
 30
0.0
 10
671.5548241636
 20
454.2913223944
 30
0.0
 10
671.0545441092
 20
455.4248370001
 30
0.0
 10
670.3230286811
 20
456.4248441773
 30
0.0
 10
669.6960623186
 20
456.9524235472
 30
0.0
 10
669.3647818919
 20
457.1436840638
 30
0.0
  0
SPLINE
  5
4EA
100
AcDbEntity
  8
0
100
AcDbSpline
 62
7
  6
CONTINUOUS
 70
0
 71
3
 72
11
 73
7
 74
0
 42
0.0000001
 43
0.0000001
 44
0.0000000001
 40
0.0
 40
0.0
 40
0.0
 40
0.0
 40
0.2372383315
 40
0.500001092
 40
0.7627632577
 40
1.0
 40
1.0
 40
1.0
 40
1.0
 10
672.6881934785
 20
453.1020339769
 30
0.0
 10
672.6881934791
 20
453.5657090017
 30
0.0
 10
672.5142790512
 20
454.5435758913
 30
0.0
 10
671.9081221319
 20
455.917654369
 30
0.0
 10
671.0212100801
 20
457.1296343654
 30
0.0
 10
670.2613085092
 20
457.769174637
 30
0.0
 10
669.8597545779
 20
458.0010066635
 30
0.0
  0
SPLINE
  5
4EB
100
AcDbEntity
  8
0
100
AcDbSpline
 62
7
  6
CONTINUOUS
 70
0
 71
3
 72
11
 73
7
 74
0
 42
0.0000001
 43
0.0000001
 44
0.0000000001
 40
0.0
 40
0.0
 40
0.0
 40
0.0
 40
0.2372383316
 40
0.5000010919
 40
0.7627632579
 40
1.0
 40
1.0
 40
1.0
 40
1.0
 10
748.206883293
 20
496.7025096104
 30
0.0
 10
748.206883293
 20
497.1661846355
 30
0.0
 10
748.0329688658
 20
498.1440515249
 30
0.0
 10
747.426811946
 20
499.518130003
 30
0.0
 10
746.5398998943
 20
500.7301099987
 30
0.0
 10
745.7799983237
 20
501.3696502714
 30
0.0
 10
745.3784443924
 20
501.601482297
 30
0.0
  0
SPLINE
  5
4EC
100
AcDbEntity
  8
0
100
AcDbSpline
 62
7
  6
CONTINUOUS
 70
0
 71
3
 72
11
 73
7
 74
0
 42
0.0000001
 43
0.0000001
 44
0.0000000001
 40
0.0
 40
0.0
 40
0.0
 40
0.0
 40
0.2372367818
 40
0.4999994736
 40
0.7627624518
 40
1.0
 40
1.0
 40
1.0
 40
1.0
 10
761.6418562
 20
519.9726944594
 30
0.0
 10
761.2403045754
 20
519.7408599047
 30
0.0
 10
760.3064937466
 20
519.4025451493
 30
0.0
 10
758.8134335227
 20
519.2404510913
 30
0.0
 10
757.3203710429
 20
519.4025383321
 30
0.0
 10
756.3865565442
 20
519.7408484601
 30
0.0
 10
755.9850019506
 20
519.972680868
 30
0.0
  0
SPLINE
  5
4ED
100
AcDbEntity
  8
0
100
AcDbSpline
 62
7
  6
CONTINUOUS
 70
0
 71
3
 72
11
 73
7
 74
0
 42
0.0000001
 43
0.0000001
 44
0.0000000001
 40
0.0
 40
0.0
 40
0.0
 40
0.0
 40
0.2372465442
 40
0.4999994739
 40
0.7627526898
 40
1.0
 40
1.0
 40
1.0
 40
1.0
 10
761.6418562
 20
526.0964625879
 30
0.0
 10
761.2402890465
 20
525.8646190676
 30
0.0
 10
760.3064917834
 20
525.526224672
 30
0.0
 10
758.8134335217
 20
525.3644315258
 30
0.0
 10
757.3203730085
 20
525.5262178585
 30
0.0
 10
756.3865720725
 20
525.8646076175
 30
0.0
 10
755.9850019506
 20
526.0964489905
 30
0.0
  0
SPLINE
  5
4EE
100
AcDbEntity
  8
0
100
AcDbSpline
 62
7
  6
CONTINUOUS
 70
0
 71
3
 72
9
 73
5
 74
0
 42
0.0000001
 43
0.0000001
 44
0.0000000001
 40
0.0
 40
0.0
 40
0.0
 40
0.0
 40
0.2610633127
 40
1.0
 40
1.0
 40
1.0
 40
1.0
 10
669.6103801886
 20
444.8510849498
 30
0.0
 10
669.6497184409
 20
444.8332009644
 30
0.0
 10
669.8020228973
 20
444.7684116183
 30
0.0
 10
669.9611723592
 20
444.7189668634
 30
0.0
 10
670.0809847413
 20
444.6943608605
 30
0.0
  0
SPLINE
  5
4EF
100
AcDbEntity
  8
0
100
AcDbSpline
 62
7
  6
CONTINUOUS
 70
0
 71
3
 72
9
 73
5
 74
0
 42
0.0000001
 43
0.0000001
 44
0.0000000001
 40
0.0
 40
0.0
 40
0.0
 40
0.0
 40
0.5220257766
 40
1.0
 40
1.0
 40
1.0
 40
1.0
 10
670.0809847413
 20
444.6943608605
 30
0.0
 10
670.2944517891
 20
444.6505208941
 30
0.0
 10
670.7296985293
 20
444.6369968676
 30
0.0
 10
671.1130373434
 20
444.8572472309
 30
0.0
 10
671.2532274645
 20
444.999233308
 30
0.0
  0
SPLINE
  5
4F0
100
AcDbEntity
  8
0
100
AcDbSpline
 62
7
  6
CONTINUOUS
 70
0
 71
3
 72
9
 73
5
 74
0
 42
0.0000001
 43
0.0000001
 44
0.0000000001
 40
0.0
 40
0.0
 40
0.0
 40
0.0
 40
0.2215378678
 40
1.0
 40
1.0
 40
1.0
 40
1.0
 10
671.2532274645
 20
444.999233308
 30
0.0
 10
671.3269038852
 20
445.073853587
 30
0.0
 10
671.6142508267
 20
445.4566116255
 30
0.0
 10
671.6982439849
 20
445.9565807854
 30
0.0
 10
671.6982439849
 20
446.3250615352
 30
0.0
  0
SPLINE
  5
4F1
100
AcDbEntity
  8
0
100
AcDbSpline
 62
7
  6
CONTINUOUS
 70
0
 71
3
 72
11
 73
7
 74
0
 42
0.0000001
 43
0.0000001
 44
0.0000000001
 40
0.0
 40
0.0
 40
0.0
 40
0.0
 40
0.2372367819
 40
0.4999994738
 40
0.7627624522
 40
1.0
 40
1.0
 40
1.0
 40
1.0
 10
761.6418562
 20
482.1686325463
 30
0.0
 10
761.2403045754
 20
481.9367979916
 30
0.0
 10
760.3064937467
 20
481.5984832365
 30
0.0
 10
758.8134335223
 20
481.4363891771
 30
0.0
 10
757.320371045
 20
481.598476423
 30
0.0
 10
756.3865565435
 20
481.9367865414
 30
0.0
 10
755.9850019506
 20
482.1686189489
 30
0.0
  0
SPLINE
  5
4F2
100
AcDbEntity
  8
0
100
AcDbSpline
 62
7
  6
CONTINUOUS
 70
0
 71
3
 72
9
 73
5
 74
0
 42
0.0000001
 43
0.0000001
 44
0.0000000001
 40
0.0
 40
0.0
 40
0.0
 40
0.0
 40
0.4492483314
 40
1.0
 40
1.0
 40
1.0
 40
1.0
 10
781.1508141484
 20
537.5272965597
 30
0.0
 10
781.150814155
 20
537.472770465
 30
0.0
 10
781.103145461
 20
537.3511053123
 30
0.0
 10
781.0036811522
 20
537.2749507094
 30
0.0
 10
780.945790956
 20
537.2415279886
 30
0.0
  0
SPLINE
  5
4F3
100
AcDbEntity
  8
0
100
AcDbSpline
 62
7
  6
CONTINUOUS
 70
0
 71
3
 72
10
 73
6
 74
0
 42
0.0000001
 43
0.0000001
 44
0.0000000001
 40
0.0
 40
0.0
 40
0.0
 40
0.0
 40
0.5477124765
 40
0.7815514916
 40
1.0
 40
1.0
 40
1.0
 40
1.0
 10
748.206883293
 20
489.9255395482
 30
0.0
 10
748.206883293
 20
489.5435273086
 30
0.0
 10
748.1256365811
 20
488.9808864194
 30
0.0
 10
747.7573365928
 20
488.3781892857
 30
0.0
 10
747.5103841132
 20
488.1705759123
 30
0.0
 10
747.3784354386
 20
488.0943957817
 30
0.0
  0
SPLINE
  5
4F4
100
AcDbEntity
  8
0
100
AcDbSpline
 62
7
  6
CONTINUOUS
 70
0
 71
3
 72
10
 73
6
 74
0
 42
0.0000001
 43
0.0000001
 44
0.0000000001
 40
0.0
 40
0.0
 40
0.0
 40
0.0
 40
0.547711141
 40
0.7815505461
 40
1.0
 40
1.0
 40
1.0
 40
1.0
 10
652.8891211744
 20
467.798784772
 30
0.0
 10
652.5582966324
 20
467.98978209
 30
0.0
 10
652.0304249784
 20
468.2007295378
 30
0.0
 10
651.3243431622
 20
468.1831177544
 30
0.0
 10
651.0210758538
 20
468.0730603158
 30
0.0
 10
650.8891301282
 20
467.9968818881
 30
0.0
  0
SPLINE
  5
4F5
100
AcDbEntity
  8
0
100
AcDbSpline
 62
7
  6
CONTINUOUS
 70
0
 71
3
 72
10
 73
6
 74
0
 42
0.0000001
 43
0.0000001
 44
0.0000000001
 40
0.0
 40
0.0
 40
0.0
 40
0.0
 40
0.5477111413
 40
0.7815505464
 40
1.0
 40
1.0
 40
1.0
 40
1.0
 10
728.4078109888
 20
511.3992604055
 30
0.0
 10
728.0769864464
 20
511.5902577232
 30
0.0
 10
727.5491147924
 20
511.8012051713
 30
0.0
 10
726.8430329762
 20
511.7835933879
 30
0.0
 10
726.539765668
 20
511.6735359494
 30
0.0
 10
726.4078199426
 20
511.5973575215
 30
0.0
  0
SPLINE
  5
4F6
100
AcDbEntity
  8
0
100
AcDbSpline
 62
7
  6
CONTINUOUS
 70
0
 71
3
 72
11
 73
7
 74
0
 42
0.0000001
 43
0.0000001
 44
0.0000000001
 40
0.0
 40
0.0
 40
0.0
 40
0.0
 40
0.2435846054
 40
0.5063262796
 40
0.7657027411
 40
1.0
 40
1.0
 40
1.0
 40
1.0
 10
650.0737459642
 20
458.5260955167
 30
0.0
 10
650.1058997115
 20
458.1581744571
 30
0.0
 10
650.2862770972
 20
457.40222217
 30
0.0
 10
650.7966211339
 20
456.3509341429
 30
0.0
 10
651.4997919799
 20
455.4353238808
 30
0.0
 10
652.0864982354
 20
454.9531940952
 30
0.0
 10
652.3941484884
 20
454.7755761571
 30
0.0
  0
SPLINE
  5
4F7
100
AcDbEntity
  8
0
100
AcDbSpline
 62
7
  6
CONTINUOUS
 70
0
 71
3
 72
10
 73
6
 74
0
 42
0.0000001
 43
0.0000001
 44
0.0000000001
 40
0.0
 40
0.0
 40
0.0
 40
0.0
 40
0.2184485082
 40
0.4522875235
 40
1.0
 40
1.0
 40
1.0
 40
1.0
 10
671.8597456242
 20
444.4939201482
 30
0.0
 10
671.9916942987
 20
444.5701002787
 30
0.0
 10
672.2386467783
 20
444.7777136521
 30
0.0
 10
672.6069467664
 20
445.3804107859
 30
0.0
 10
672.688193479
 20
445.9430516751
 30
0.0
 10
672.6881934785
 20
446.3250639147
 30
0.0
  0
SPLINE
  5
4F8
100
AcDbEntity
  8
0
100
AcDbSpline
 62
7
  6
CONTINUOUS
 70
0
 71
3
 72
9
 73
5
 74
0
 42
0.0000001
 43
0.0000001
 44
0.0000000001
 40
0.0
 40
0.0
 40
0.0
 40
0.0
 40
0.5000016711
 40
1.0
 40
1.0
 40
1.0
 40
1.0
 10
652.3941484884
 20
466.9414621723
 30
0.0
 10
652.3941484884
 20
467.1111067684
 30
0.0
 10
652.5100671479
 20
467.446084114
 30
0.0
 10
652.7422054156
 20
467.7139634159
 30
0.0
 10
652.8891211826
 20
467.7987847672
 30
0.0
  0
SPLINE
  5
4F9
100
AcDbEntity
  8
0
100
AcDbSpline
 62
7
  6
CONTINUOUS
 70
0
 71
3
 72
9
 73
5
 74
0
 42
0.0000001
 43
0.0000001
 44
0.0000000001
 40
0.0
 40
0.0
 40
0.0
 40
0.0
 40
0.5507523773
 40
1.0
 40
1.0
 40
1.0
 40
1.0
 10
650.0606863954
 20
465.5941986857
 30
0.0
 10
650.0027951512
 20
465.627621455
 30
0.0
 10
649.9033289912
 20
465.703776271
 30
0.0
 10
649.855659078
 20
465.8254428949
 30
0.0
 10
649.8556590814
 20
465.8799695934
 30
0.0
  0
SPLINE
  5
4FA
100
AcDbEntity
  8
0
100
AcDbSpline
 62
7
  6
CONTINUOUS
 70
0
 71
3
 72
11
 73
7
 74
0
 42
0.0000001
 43
0.0000001
 44
0.0000000001
 40
0.0
 40
0.0
 40
0.0
 40
0.0
 40
0.2177717092
 40
0.4509506013
 40
0.7102002267
 40
1.0
 40
1.0
 40
1.0
 40
1.0
 10
752.8783171397
 20
489.0354111662
 30
0.0
 10
753.3731013096
 20
488.7497538994
 30
0.0
 10
754.2991623894
 20
487.971606064
 30
0.0
 10
755.2841856024
 20
486.3600613506
 30
0.0
 10
755.8701848705
 20
484.3743165765
 30
0.0
 10
755.9850019507
 20
482.92890894
 30
0.0
 10
755.9850019506
 20
482.1686189489
 30
0.0
  0
SPLINE
  5
4FB
100
AcDbEntity
  8
0
100
AcDbSpline
 62
7
  6
CONTINUOUS
 70
0
 71
3
 72
9
 73
5
 74
0
 42
0.0000001
 43
0.0000001
 44
0.0000000001
 40
0.0
 40
0.0
 40
0.0
 40
0.0
 40
0.5507523695
 40
1.0
 40
1.0
 40
1.0
 40
1.0
 10
650.0606863954
 20
458.8172286235
 30
0.0
 10
650.002795152
 20
458.8506513923
 30
0.0
 10
649.9033289918
 20
458.9268062078
 30
0.0
 10
649.855659078
 20
459.0484728318
 30
0.0
 10
649.8556590814
 20
459.1029995312
 30
0.0
  0
SPLINE
  5
4FC
100
AcDbEntity
  8
0
100
AcDbSpline
 62
7
  6
CONTINUOUS
 70
0
 71
3
 72
9
 73
5
 74
0
 42
0.0000001
 43
0.0000001
 44
0.0000000001
 40
0.0
 40
0.0
 40
0.0
 40
0.0
 40
0.5507511219
 40
1.0
 40
1.0
 40
1.0
 40
1.0
 10
652.3941484884
 20
454.7755761571
 30
0.0
 10
652.3941484884
 20
454.7087280154
 30
0.0
 10
652.410369372
 20
454.5845075127
 30
0.0
 10
652.4919040571
 20
454.4823894684
 30
0.0
 10
652.5391271129
 20
454.4551258536
 30
0.0
  0
SPLINE
  5
4FD
100
AcDbEntity
  8
0
100
AcDbSpline
 62
7
  6
CONTINUOUS
 70
0
 71
3
 72
9
 73
5
 74
0
 42
0.0000001
 43
0.0000001
 44
0.0000000001
 40
0.0
 40
0.0
 40
0.0
 40
0.0
 40
0.5507511141
 40
1.0
 40
1.0
 40
1.0
 40
1.0
 10
669.3647818919
 20
444.9777980486
 30
0.0
 10
669.3647818919
 20
444.9109499079
 30
0.0
 10
669.3810027748
 20
444.7867294053
 30
0.0
 10
669.4625374598
 20
444.6846113604
 30
0.0
 10
669.5097605164
 20
444.6573477451
 30
0.0
  0
SPLINE
  5
4FE
100
AcDbEntity
  8
0
100
AcDbSpline
 62
7
  6
CONTINUOUS
 70
0
 71
3
 72
9
 73
5
 74
0
 42
0.0000001
 43
0.0000001
 44
0.0000000001
 40
0.0
 40
0.0
 40
0.0
 40
0.0
 40
0.5000005438
 40
1.0
 40
1.0
 40
1.0
 40
1.0
 10
671.6982439849
 20
446.3250615352
 30
0.0
 10
671.8451608767
 20
446.240240947
 30
0.0
 10
672.1932192163
 20
446.1731443648
 30
0.0
 10
672.5412775179
 20
446.2402424516
 30
0.0
 10
672.6881934785
 20
446.3250639147
 30
0.0
  0
SPLINE
  5
4FF
100
AcDbEntity
  8
0
100
AcDbSpline
 62
7
  6
CONTINUOUS
 70
0
 71
3
 72
8
 73
4
 74
0
 42
0.0000001
 43
0.0000001
 44
0.0000000001
 40
0.0
 40
0.0
 40
0.0
 40
0.0
 40
1.0
 40
1.0
 40
1.0
 40
1.0
 10
170.5308061482
 20
506.7690878551
 30
0.0
 10
170.7968775829
 20
506.7690878551
 30
0.0
 10
171.0635378114
 20
506.7559285305
 30
0.0
 10
171.3277987642
 20
506.7249421277
 30
0.0
  0
SPLINE
  5
500
100
AcDbEntity
  8
02___PRT_ALL_AXES
100
AcDbSpline
 62
7
  6
CONTINUOUS
 70
0
 71
3
 72
24
 73
20
 74
0
 42
0.0000001
 43
0.0000001
 44
0.0000000001
 40
0.0
 40
0.0
 40
0.0
 40
0.0
 40
0.0012443403
 40
0.0048721588
 40
0.0108893539
 40
0.0192868305
 40
0.0300499813
 40
0.0431485213
 40
0.0585481893
 40
0.0762146443
 40
0.1181818686
 40
0.1686323104
 40
0.2270935656
 40
0.292989656
 40
0.3656975831
 40
0.4445096741
 40
0.6173728029
 40
0.804938764
 40
1.0
 40
1.0
 40
1.0
 40
1.0
 10
142.3290818835
 20
495.2690878551
 30
0.0
 10
142.3309487384
 20
495.2690879472
 30
0.0
 10
142.3295977025
 20
495.257709412
 30
0.0
 10
142.3331972734
 20
495.2453531056
 30
0.0
 10
142.3335130814
 20
495.2161077319
 30
0.0
 10
142.3358542761
 20
495.1793540359
 30
0.0
 10
142.3375700852
 20
495.1306148749
 30
0.0
 10
142.3397203177
 20
495.0718847969
 30
0.0
 10
142.3418873091
 20
495.0026133298
 30
0.0
 10
142.3451575873
 20
494.8901092708
 30
0.0
 10
142.3493700779
 20
494.7249942025
 30
0.0
 10
142.3544461204
 20
494.4986954439
 30
0.0
 10
142.3596356654
 20
494.2364848684
 30
0.0
 10
142.3648013489
 20
493.9408778139
 30
0.0
 10
142.3697921708
 20
493.6147312434
 30
0.0
 10
142.3762262598
 20
493.1281090369
 30
0.0
 10
142.3828672061
 20
492.4691570944
 30
0.0
 10
142.3879253976
 20
491.6357811347
 30
0.0
 10
142.3890889194
 20
491.0617337007
 30
0.0
 10
142.3890889194
 20
490.7690878551
 30
0.0
  0
SPLINE
  5
501
100
AcDbEntity
  8
0
100
AcDbSpline
 62
7
  6
CONTINUOUS
 70
0
 71
3
 72
8
 73
4
 74
0
 42
0.0000001
 43
0.0000001
 44
0.0000000001
 40
0.0
 40
0.0
 40
0.0
 40
0.0
 40
1.0
 40
1.0
 40
1.0
 40
1.0
 10
171.2707235575
 20
474.8068163859
 30
0.0
 10
171.0251774286
 20
474.7804322541
 30
0.0
 10
170.7777657073
 20
474.7690878551
 30
0.0
 10
170.5308061482
 20
474.7690878551
 30
0.0
  0
SPLINE
  5
502
100
AcDbEntity
  8
02___PRT_ALL_AXES
100
AcDbSpline
 62
7
  6
CONTINUOUS
 70
0
 71
3
 72
9
 73
5
 74
0
 42
0.0000001
 43
0.0000001
 44
0.0000000001
 40
0.0
 40
0.0
 40
0.0
 40
0.0
 40
0.1915779352
 40
1.0
 40
1.0
 40
1.0
 40
1.0
 10
142.3239776829
 20
486.6237962983
 30
0.0
 10
142.323978365
 20
486.693755275
 30
0.0
 10
142.324671451
 20
487.0589274995
 30
0.0
 10
142.326614186
 20
487.424095364
 30
0.0
 10
142.3280278614
 20
487.7193054149
 30
0.0
  0
SPLINE
  5
503
100
AcDbEntity
  8
02___PRT_ALL_AXES
100
AcDbSpline
 62
7
  6
CONTINUOUS
 70
0
 71
3
 72
9
 73
5
 74
0
 42
0.0000001
 43
0.0000001
 44
0.0000000001
 40
0.0
 40
0.0
 40
0.0
 40
0.0
 40
0.3055714685
 40
1.0
 40
1.0
 40
1.0
 40
1.0
 10
142.3280278469
 20
493.8188733699
 30
0.0
 10
142.327493495
 20
493.9304592226
 30
0.0
 10
142.3257859844
 20
494.2956300292
 30
0.0
 10
142.323980085
 20
494.6608032185
 30
0.0
 10
142.3239776826
 20
494.9143913193
 30
0.0
  0
SPLINE
  5
504
100
AcDbEntity
  8
02___PRT_ALL_AXES
100
AcDbSpline
 62
7
  6
CONTINUOUS
 70
0
 71
3
 72
24
 73
20
 74
0
 42
0.0000001
 43
0.0000001
 44
0.0000000001
 40
0.0
 40
0.0
 40
0.0
 40
0.0
 40
0.1950608502
 40
0.3826266767
 40
0.5554897853
 40
0.6343018678
 40
0.7070098042
 40
0.7729059208
 40
0.8313672074
 40
0.8818176984
 40
0.9237849819
 40
0.9414514643
 40
0.9568511816
 40
0.9699497734
 40
0.9807129587
 40
0.9891104741
 40
0.9951277319
 40
0.9987556154
 40
1.0
 40
1.0
 40
1.0
 40
1.0
 10
142.3890889194
 20
490.7690878551
 30
0.0
 10
142.3890889194
 20
490.4764425889
 30
0.0
 10
142.3879254037
 20
489.9023959367
 30
0.0
 10
142.3828672213
 20
489.0690207896
 30
0.0
 10
142.3762262899
 20
488.410069093
 30
0.0
 10
142.3697922038
 20
487.9234469164
 30
0.0
 10
142.3648013899
 20
487.597300306
 30
0.0
 10
142.3596357067
 20
487.3016931517
 30
0.0
 10
142.3544461673
 20
487.0394824166
 30
0.0
 10
142.3493701228
 20
486.8131834479
 30
0.0
 10
142.3451576344
 20
486.6480681774
 30
0.0
 10
142.3418873563
 20
486.5355639123
 30
0.0
 10
142.3397203626
 20
486.4662922576
 30
0.0
 10
142.3375701244
 20
486.4075619616
 30
0.0
 10
142.3358543228
 20
486.3588226539
 30
0.0
 10
142.3335131059
 20
486.3220686507
 30
0.0
 10
142.3331973467
 20
486.2928232459
 30
0.0
 10
142.3295976503
 20
486.2804663322
 30
0.0
 10
142.3309488357
 20
486.2690879503
 30
0.0
 10
142.3290819143
 20
486.2690878552
 30
0.0
  0
SPLINE
  5
505
100
AcDbEntity
  8
0
100
AcDbSpline
 62
7
  6
CONTINUOUS
 70
0
 71
3
 72
10
 73
6
 74
0
 42
0.0000001
 43
0.0000001
 44
0.0000000001
 40
0.0
 40
0.0
 40
0.0
 40
0.0
 40
0.1204340354
 40
0.3157297453
 40
1.0
 40
1.0
 40
1.0
 40
1.0
 10
142.3239819817
 20
505.9704426401
 30
0.0
 10
142.3241496376
 20
505.9618039487
 30
0.0
 10
142.3386751807
 20
505.9411159253
 30
0.0
 10
142.4017741378
 20
505.9074469663
 30
0.0
 10
142.4635005786
 20
505.8903710886
 30
0.0
 10
142.5111672354
 20
505.8786286115
 30
0.0
  0
SPLINE
  5
506
100
AcDbEntity
  8
0
100
AcDbSpline
 62
7
  6
CONTINUOUS
 70
0
 71
3
 72
15
 73
11
 74
0
 42
0.0000001
 43
0.0000001
 44
0.0000000001
 40
0.0
 40
0.0
 40
0.0
 40
0.0
 40
0.0091709511
 40
0.026440793
 40
0.0872505763
 40
0.1817138731
 40
0.3060845679
 40
0.4559100795
 40
0.6258358397
 40
1.0
 40
1.0
 40
1.0
 40
1.0
 10
142.5111675974
 20
505.8786282935
 30
0.0
 10
142.5122267005
 20
505.8804900279
 30
0.0
 10
142.5188960334
 20
505.8826404685
 30
0.0
 10
142.5384707834
 20
505.8843378026
 30
0.0
 10
142.5794651095
 20
505.8847192117
 30
0.0
 10
142.6443521882
 20
505.8874309285
 30
0.0
 10
142.7305510086
 20
505.8904361422
 30
0.0
 10
142.8341934707
 20
505.893187687
 30
0.0
 10
142.9962694213
 20
505.8945534836
 30
0.0
 10
143.1234233681
 20
505.89143709
 30
0.0
 10
143.210730821
 20
505.8951698611
 30
0.0
  0
SPLINE
  5
507
100
AcDbEntity
  8
0
100
AcDbSpline
 62
7
  6
CONTINUOUS
 70
0
 71
3
 72
14
 73
10
 74
0
 42
0.0000001
 43
0.0000001
 44
0.0000000001
 40
0.0
 40
0.0
 40
0.0
 40
0.0
 40
0.3713561629
 40
0.5402344841
 40
0.6896436086
 40
0.8143045754
 40
0.9095998922
 40
0.9722023848
 40
1.0
 40
1.0
 40
1.0
 40
1.0
 10
224.8349893969
 20
505.8951698611
 30
0.0
 10
224.9215886997
 20
505.8951698611
 30
0.0
 10
225.0475798396
 20
505.8946623965
 30
0.0
 10
225.2083716985
 20
505.8927079486
 30
0.0
 10
225.3116998013
 20
505.8909537958
 30
0.0
 10
225.397665448
 20
505.8883889721
 30
0.0
 10
225.463863783
 20
505.8866576152
 30
0.0
 10
225.5063949564
 20
505.8825143507
 30
0.0
 10
225.5282477685
 20
505.8822084161
 30
0.0
 10
225.5341140344
 20
505.879450236
 30
0.0
  0
SPLINE
  5
508
100
AcDbEntity
  8
0
100
AcDbSpline
 62
7
  6
CONTINUOUS
 70
0
 71
3
 72
9
 73
5
 74
0
 42
0.0000001
 43
0.0000001
 44
0.0000000001
 40
0.0
 40
0.0
 40
0.0
 40
0.0
 40
0.6244634775
 40
1.0
 40
1.0
 40
1.0
 40
1.0
 10
225.5341140344
 20
505.879450236
 30
0.0
 10
225.534347618
 20
505.8793404105
 30
0.0
 10
225.5347151634
 20
505.8791611779
 30
0.0
 10
225.5349893969
 20
505.8787835168
 30
0.0
 10
225.5349893969
 20
505.8786282935
 30
0.0
  0
SPLINE
  5
509
100
AcDbEntity
  8
0
100
AcDbSpline
 62
7
  6
CONTINUOUS
 70
0
 71
3
 72
11
 73
7
 74
0
 42
0.0000001
 43
0.0000001
 44
0.0000000001
 40
0.0
 40
0.0
 40
0.0
 40
0.0
 40
0.0676181953
 40
0.2579587671
 40
0.5704187269
 40
1.0
 40
1.0
 40
1.0
 40
1.0
 10
225.5349893969
 20
475.6595474167
 30
0.0
 10
225.5349893969
 20
475.6574684497
 30
0.0
 10
225.5230492429
 20
475.6575828129
 30
0.0
 10
225.509446837
 20
475.6542663543
 30
0.0
 10
225.4786485278
 20
475.6532575362
 30
0.0
 10
225.4565679678
 20
475.6519138295
 30
0.0
 10
225.4433715761
 20
475.6513658027
 30
0.0
  0
SPLINE
  5
50A
100
AcDbEntity
  8
0
100
AcDbSpline
 62
7
  6
CONTINUOUS
 70
0
 71
3
 72
9
 73
5
 74
0
 42
0.0000001
 43
0.0000001
 44
0.0000000001
 40
0.0
 40
0.0
 40
0.0
 40
0.0
 40
0.1827115143
 40
1.0
 40
1.0
 40
1.0
 40
1.0
 10
225.4433715761
 20
475.6513658027
 30
0.0
 10
225.4063459304
 20
475.6498281822
 30
0.0
 10
225.203594148
 20
475.6441554418
 30
0.0
 10
225.0007518929
 20
475.6430058492
 30
0.0
 10
224.8349893969
 20
475.6430058492
 30
0.0
  0
SPLINE
  5
50B
100
AcDbEntity
  8
0
100
AcDbSpline
 62
7
  6
CONTINUOUS
 70
0
 71
3
 72
16
 73
12
 74
0
 42
0.0000001
 43
0.0000001
 44
0.0000000001
 40
0.0
 40
0.0
 40
0.0
 40
0.0
 40
0.3744754371
 40
0.5445571175
 40
0.6944814824
 40
0.8189120497
 40
0.9135206517
 40
0.9484724221
 40
0.9747409441
 40
0.9919991373
 40
1.0
 40
1.0
 40
1.0
 40
1.0
 10
143.210730821
 20
475.6430058492
 30
0.0
 10
143.1233937546
 20
475.6400458154
 30
0.0
 10
142.9962440139
 20
475.6437866476
 30
0.0
 10
142.8342320417
 20
475.6465131281
 30
0.0
 10
142.7305093
 20
475.6478814938
 30
0.0
 10
142.6444643969
 20
475.6494567631
 30
0.0
 10
142.5851380719
 20
475.6518994804
 30
0.0
 10
142.5490411878
 20
475.6553818147
 30
0.0
 10
142.5307174984
 20
475.6580992848
 30
0.0
 10
142.5191488332
 20
475.6591568594
 30
0.0
 10
142.5128280679
 20
475.6604011149
 30
0.0
 10
142.5111675974
 20
475.6595474167
 30
0.0
  0
SPLINE
  5
50C
100
AcDbEntity
  8
0
100
AcDbSpline
 62
7
  6
CONTINUOUS
 70
0
 71
3
 72
8
 73
4
 74
0
 42
0.0000001
 43
0.0000001
 44
0.0000000001
 40
0.0
 40
0.0
 40
0.0
 40
0.0
 40
1.0
 40
1.0
 40
1.0
 40
1.0
 10
171.2532677816
 20
474.8161269309
 30
0.0
 10
171.0376158225
 20
474.7961784064
 30
0.0
 10
170.8207483848
 20
474.7875564839
 30
0.0
 10
170.6041757465
 20
474.7876150075
 30
0.0
  0
SPLINE
  5
50D
100
AcDbEntity
  8
0
100
AcDbSpline
 62
7
  6
CONTINUOUS
 70
0
 71
3
 72
14
 73
10
 74
0
 42
0.0000001
 43
0.0000001
 44
0.0000000001
 40
0.0
 40
0.0
 40
0.0
 40
0.0
 40
0.3782215513
 40
0.4950200808
 40
0.5707602618
 40
0.6282819622
 40
0.7080242833
 40
0.8300331009
 40
1.0
 40
1.0
 40
1.0
 40
1.0
 10
143.2107286891
 20
474.9595740706
 30
0.0
 10
143.1664791357
 20
474.9486478966
 30
0.0
 10
143.107646086
 20
474.9329865206
 30
0.0
 10
143.0474608806
 20
474.9017731154
 30
0.0
 10
143.0230373033
 20
474.8801990973
 30
0.0
 10
143.0248861045
 20
474.8514080321
 30
0.0
 10
143.0509883351
 20
474.830813908
 30
0.0
 10
143.0904550612
 20
474.8109239851
 30
0.0
 10
143.124083156
 20
474.799499843
 30
0.0
 10
143.143655235
 20
474.7934617907
 30
0.0
  0
SPLINE
  5
50E
100
AcDbEntity
  8
0
100
AcDbSpline
 62
7
  6
CONTINUOUS
 70
0
 71
3
 72
9
 73
5
 74
0
 42
0.0000001
 43
0.0000001
 44
0.0000000001
 40
0.0
 40
0.0
 40
0.0
 40
0.0
 40
0.2252532893
 40
1.0
 40
1.0
 40
1.0
 40
1.0
 10
143.143655235
 20
474.7934617907
 30
0.0
 10
143.150488614
 20
474.7913536703
 30
0.0
 10
143.1809384831
 20
474.7823623381
 30
0.0
 10
143.2117527572
 20
474.7746438576
 30
0.0
 10
143.2357130898
 20
474.7690878551
 30
0.0
  0
SPLINE
  5
50F
100
AcDbEntity
  8
0
100
AcDbSpline
 62
7
  6
CONTINUOUS
 70
0
 71
3
 72
9
 73
5
 74
0
 42
0.0000001
 43
0.0000001
 44
0.0000000001
 40
0.0
 40
0.0
 40
0.0
 40
0.0
 40
0.2317320867
 40
1.0
 40
1.0
 40
1.0
 40
1.0
 10
170.6041757465
 20
474.7876150075
 30
0.0
 10
170.5985492829
 20
474.7860294145
 30
0.0
 10
170.5742159125
 20
474.7793763649
 30
0.0
 10
170.5496983506
 20
474.7734091997
 30
0.0
 10
170.5308061482
 20
474.7690878551
 30
0.0
  0
SPLINE
  5
510
100
AcDbEntity
  8
0
100
AcDbSpline
 62
7
  6
CONTINUOUS
 70
0
 71
3
 72
11
 73
7
 74
0
 42
0.0000001
 43
0.0000001
 44
0.0000000001
 40
0.0
 40
0.0
 40
0.0
 40
0.0
 40
0.3078089622
 40
0.5987199295
 40
0.8400777507
 40
1.0
 40
1.0
 40
1.0
 40
1.0
 10
189.5950720916
 20
474.9482932661
 30
0.0
 10
187.8070570757
 20
474.94829112
 30
0.0
 10
184.3291867472
 20
474.9458437514
 30
0.0
 10
179.4493062189
 20
474.9323221234
 30
0.0
 10
175.4285719757
 20
474.9066666339
 30
0.0
 10
173.0976934106
 20
474.879106532
 30
0.0
 10
172.1689478726
 20
474.8589703188
 30
0.0
  0
LINE
  5
511
100
AcDbEntity
  8
0
100
AcDbLine
 62
7
  6
CONTINUOUS
 10
172.1689478726
 20
474.8589703188
 11
172.05019301
 21
474.8563279418
  0
SPLINE
  5
512
100
AcDbEntity
  8
0
100
AcDbSpline
 62
7
  6
CONTINUOUS
 70
0
 71
3
 72
11
 73
7
 74
0
 42
0.0000001
 43
0.0000001
 44
0.0000000001
 40
0.0
 40
0.0
 40
0.0
 40
0.0
 40
0.4105585949
 40
0.7066409326
 40
0.8993670336
 40
1.0
 40
1.0
 40
1.0
 40
1.0
 10
171.4260154421
 20
474.839445592
 30
0.0
 10
171.3133087361
 20
474.8357700315
 30
0.0
 10
171.1194182357
 20
474.8285335262
 30
0.0
 10
170.8724543346
 20
474.8167276618
 30
0.0
 10
170.7114349546
 20
474.8036164063
 30
0.0
 10
170.6307891033
 20
474.7950799792
 30
0.0
 10
170.6041757465
 20
474.7876150075
 30
0.0
  0
SPLINE
  5
513
100
AcDbEntity
  8
0
100
AcDbSpline
 62
7
  6
CONTINUOUS
 70
0
 71
3
 72
11
 73
7
 74
0
 42
0.0000001
 43
0.0000001
 44
0.0000000001
 40
0.0
 40
0.0
 40
0.0
 40
0.0
 40
0.100635497
 40
0.2933666098
 40
0.5894492234
 40
1.0
 40
1.0
 40
1.0
 40
1.0
 10
170.6041757465
 20
506.7505607028
 30
0.0
 10
170.6307830219
 20
506.7430963819
 30
0.0
 10
170.7114115045
 20
506.734561637
 30
0.0
 10
170.872393557
 20
506.7214518521
 30
0.0
 10
171.1192966895
 20
506.7096475656
 30
0.0
 10
171.313137872
 20
506.7024118094
 30
0.0
 10
171.4258149881
 20
506.6987366666
 30
0.0
  0
LINE
  5
514
100
AcDbEntity
  8
0
100
AcDbLine
 62
7
  6
CONTINUOUS
 10
172.0498858825
 20
506.6818547898
 11
172.1689376015
 21
506.6792056203
  0
SPLINE
  5
515
100
AcDbEntity
  8
0
100
AcDbSpline
 62
7
  6
CONTINUOUS
 70
0
 71
3
 72
11
 73
7
 74
0
 42
0.0000001
 43
0.0000001
 44
0.0000000001
 40
0.0
 40
0.0
 40
0.0
 40
0.0
 40
0.1599219699
 40
0.4012796489
 40
0.6921907687
 40
1.0
 40
1.0
 40
1.0
 40
1.0
 10
172.1689376015
 20
506.6792056203
 30
0.0
 10
173.0976820629
 20
506.6590693515
 30
0.0
 10
175.4285595531
 20
506.6315091906
 30
0.0
 10
179.449294603
 20
506.6058536157
 30
0.0
 10
184.3291796312
 20
506.5923319355
 30
0.0
 10
187.8070544587
 20
506.589884658
 30
0.0
 10
189.5950720916
 20
506.5898824441
 30
0.0
  0
SPLINE
  5
516
100
AcDbEntity
  8
0
100
AcDbSpline
 62
7
  6
CONTINUOUS
 70
0
 71
3
 72
9
 73
5
 74
0
 42
0.0000001
 43
0.0000001
 44
0.0000000001
 40
0.0
 40
0.0
 40
0.0
 40
0.0
 40
0.268324618
 40
1.0
 40
1.0
 40
1.0
 40
1.0
 10
170.5308061482
 20
506.7690878551
 30
0.0
 10
170.5374043862
 20
506.7675785943
 30
0.0
 10
170.5619658582
 20
506.7618298013
 30
0.0
 10
170.5864107409
 20
506.7555670569
 30
0.0
 10
170.6041757465
 20
506.7505607028
 30
0.0
  0
SPLINE
  5
517
100
AcDbEntity
  8
0
100
AcDbSpline
 62
7
  6
CONTINUOUS
 70
0
 71
3
 72
14
 73
10
 74
0
 42
0.0000001
 43
0.0000001
 44
0.0000000001
 40
0.0
 40
0.0
 40
0.0
 40
0.0
 40
0.3792217176
 40
0.4946165146
 40
0.5675263821
 40
0.622245753
 40
0.7018655633
 40
0.8259749744
 40
1.0
 40
1.0
 40
1.0
 40
1.0
 10
143.2357130898
 20
506.7690878551
 30
0.0
 10
143.1853628584
 20
506.7574124802
 30
0.0
 10
143.1184162208
 20
506.7407287273
 30
0.0
 10
143.0503564281
 20
506.7073509856
 30
0.0
 10
143.0223819261
 20
506.6841321869
 30
0.0
 10
143.0259474336
 20
506.6522723426
 30
0.0
 10
143.0567570154
 20
506.6309269822
 30
0.0
 10
143.1026709536
 20
506.6094439853
 30
0.0
 10
143.1418819625
 20
506.5973219447
 30
0.0
 10
143.1646987194
 20
506.590842944
 30
0.0
  0
SPLINE
  5
518
100
AcDbEntity
  8
0
100
AcDbSpline
 62
7
  6
CONTINUOUS
 70
0
 71
3
 72
8
 73
4
 74
0
 42
0.0000001
 43
0.0000001
 44
0.0000000001
 40
0.0
 40
0.0
 40
0.0
 40
0.0
 40
1.0
 40
1.0
 40
1.0
 40
1.0
 10
171.2532683532
 20
506.7220499059
 30
0.0
 10
171.037616186
 20
506.7419980686
 30
0.0
 10
170.8207485586
 20
506.7506196122
 30
0.0
 10
170.6041757465
 20
506.7505607027
 30
0.0
  0
SPLINE
  5
519
100
AcDbEntity
  8
02___PRT_ALL_AXES
100
AcDbSpline
 62
7
  6
CONTINUOUS
 70
0
 71
3
 72
14
 73
10
 74
0
 42
0.0000001
 43
0.0000001
 44
0.0000000001
 40
0.0
 40
0.0
 40
0.0
 40
0.0
 40
0.4339296235
 40
0.605838935
 40
0.7471006197
 40
0.8573008002
 40
0.9362335982
 40
0.983776595
 40
1.0
 40
1.0
 40
1.0
 40
1.0
 10
142.3239776826
 20
494.9143913193
 30
0.0
 10
142.3239771963
 20
494.9657232586
 30
0.0
 10
142.3240124975
 20
495.0374783875
 30
0.0
 10
142.3246484368
 20
495.1256638935
 30
0.0
 10
142.3249239265
 20
495.1761422002
 30
0.0
 10
142.3262074791
 20
495.214191189
 30
0.0
 10
142.325601886
 20
495.2445174948
 30
0.0
 10
142.3289405604
 20
495.2572506189
 30
0.0
 10
142.327162727
 20
495.2690877604
 30
0.0
 10
142.3290818835
 20
495.2690878551
 30
0.0
  0
SPLINE
  5
51A
100
AcDbEntity
  8
0
100
AcDbSpline
 62
7
  6
CONTINUOUS
 70
0
 71
3
 72
10
 73
6
 74
0
 42
0.0000001
 43
0.0000001
 44
0.0000000001
 40
0.0
 40
0.0
 40
0.0
 40
0.0
 40
0.684268876
 40
0.8795645824
 40
1.0
 40
1.0
 40
1.0
 40
1.0
 10
142.5111551014
 20
475.6595443475
 30
0.0
 10
142.4634911465
 20
475.6478023458
 30
0.0
 10
142.4017685114
 20
475.6307262925
 30
0.0
 10
142.3386732309
 20
475.5970582303
 30
0.0
 10
142.3241492361
 20
475.5763705358
 30
0.0
 10
142.3239819564
 20
475.5677322024
 30
0.0
  0
SPLINE
  5
51B
100
AcDbEntity
  8
0
100
AcDbSpline
 62
7
  6
CONTINUOUS
 70
0
 71
3
 72
8
 73
4
 74
0
 42
0.0000001
 43
0.0000001
 44
0.0000000001
 40
0.0
 40
0.0
 40
0.0
 40
0.0
 40
1.0
 40
1.0
 40
1.0
 40
1.0
 10
142.5111672354
 20
505.8786286115
 30
0.0
 10
142.5196023377
 20
495.8056040552
 30
0.0
 10
142.5195903819
 20
485.7325689036
 30
0.0
 10
142.5111551014
 20
475.6595443475
 30
0.0
  0
ENDSEC
  0
SECTION
  2
OBJECTS
  0
DICTIONARY
  5
C
100
AcDbDictionary
280
0
281
1
  3
ACAD_GROUP
350
D
  3
ACAD_MLINESTYLE
350
17
  3
ACAD_LAYOUT
350
1A
  3
ACAD_PLOTSETTINGS
350
19
  3
ACAD_PLOTSTYLENAME
350
E
  0
DICTIONARY
  5
D
102
{ACAD_REACTORS
330
C
102
}
100
AcDbDictionary
280
0
281
1
  0
ACDBDICTIONARYWDFLT
  5
E
102
{ACAD_REACTORS
330
C
102
}
100
AcDbDictionary
281
1
  3
Normal
350
F
100
AcDbDictionaryWithDefault
340
F
  0
DICTIONARY
  5
17
102
{ACAD_REACTORS
330
C
102
}
100
AcDbDictionary
280
0
281
1
  3
Standard
350
18
  0
DICTIONARY
  5
19
102
{ACAD_REACTORS
330
C
102
}
100
AcDbDictionary
281
1
  0
DICTIONARY
  5
1A
102
{ACAD_REACTORS
330
C
102
}
100
AcDbDictionary
281
1
  3
Model
350
51C
  3
Layout1
350
51D
  0
ACDBPLACEHOLDER
  5
F
102
{ACAD_REACTORS
330
E
102
}
  0
MLINESTYLE
  5
18
102
{ACAD_REACTORS
330
17
102
}
100
AcDbMlineStyle
  2
STANDARD
 70
0
  3

 62
256
 51
90.0
 52
90.0
 71
2
 49
0.5
 62
256
  6
BYLAYER
 49
-0.5
 62
256
  6
BYLAYER
  0
LAYOUT
  5
51C
102
{ACAD_REACTORS
330
1A
102
}
100
AcDbPlotSettings
  1

  2
none_device
  4
ISO_A1_(594.00_x_841.00_MM)
  6

 40
0.0
 41
0.0
 42
0.0
 43
0.0
 44
841.0
 45
594.0
 46
0.0
 47
0.0
 48
0.0
 49
0.0
140
0.0
141
0.0
142
1.0
143
1.0
 70
1024
 72
1
 73
0
 74
0
  7

 75
0
147
1.0
148
0.0
149
0.0
100
AcDbLayout
  1
Model
 70
0
 71
0
 10
0.0
 20
0.0
 11
841.0
 21
594.0
 12
0.0
 22
0.0
 32
0.0
 14
0.0
 24
0.0
 34
0.0
 15
0.0
 25
0.0
 35
0.0
146
0.0
 13
0.0
 23
0.0
 33
0.0
 16
1.0
 26
0.0
 36
0.0
 17
0.0
 27
1.0
 37
0.0
 76
0
330
22B
345
0
346
0
  0
LAYOUT
  5
51D
102
{ACAD_REACTORS
330
1A
102
}
100
AcDbPlotSettings
  1

  2
none_device
  4
ISO_A1_(594.00_x_841.00_MM)
  6

 40
0.0
 41
0.0
 42
0.0
 43
0.0
 44
841.0
 45
594.0
 46
0.0
 47
0.0
 48
0.0
 49
0.0
140
0.0
141
0.0
142
1.0
143
1.0
 70
0
 72
1
 73
0
 74
0
  7

 75
0
147
1.0
148
0.0
149
0.0
100
AcDbLayout
  1
Layout1
 70
0
 71
1
 10
0.0
 20
0.0
 11
841.0
 21
594.0
 12
0.0
 22
0.0
 32
0.0
 14
0.0
 24
0.0
 34
0.0
 15
0.0
 25
0.0
 35
0.0
146
0.0
 13
0.0
 23
0.0
 33
0.0
 16
1.0
 26
0.0
 36
0.0
 17
0.0
 27
1.0
 37
0.0
 76
0
330
22C
345
0
346
0
  0
ENDSEC
  0
EOF
