  0
SECTION
  2
HEADER
  9
$ACADVER
  1
AC1009
  9
$INSBASE
 10
3435.0552597431710637
 20
221.2120029174949138
 30
0.0
  9
$EXTMIN
 10
3417.3387243101210515
 20
220.1096407127949135
 30
0.0
  9
$EXTMAX
 10
3452.771795176221076
 20
221.2513729961949025
 30
0.0
  9
$LIMMIN
 10
0.0
 20
0.0
  9
$LIMMAX
 10
11.6929133858000007
 20
8.2677165353999982
  9
$ORTHOMODE
 70
     0
  9
$REGENMODE
 70
     1
  9
$FILLMODE
 70
     1
  9
$QTEXTMODE
 70
     0
  9
$MIRRTEXT
 70
     0
  9
$DRAGMODE
 70
     2
  9
$LTSCALE
 40
0.6431102362
  9
$OSMODE
 70
  4095
  9
$ATTMODE
 70
     1
  9
$TEXTSIZE
 40
0.2
  9
$TRACEWID
 40
0.05
  9
$TEXTSTYLE
  7
STANDARD
  9
$CLAYER
  8
0
  9
$CELTYPE
  6
BYLAYER
  9
$CECOLOR
 62
   256
  9
$DIMSCALE
 40
1.0
  9
$DIMASZ
 40
0.1875
  9
$DIMEXO
 40
0.0625
  9
$DIMDLI
 40
0.4443307087
  9
$DIMRND
 40
0.0
  9
$DIMDLE
 40
0.0
  9
$DIMEXE
 40
0.125
  9
$DIMTP
 40
0.01
  9
$DIMTM
 40
0.01
  9
$DIMTXT
 40
2.0
  9
$DIMCEN
 40
0.1052362205
  9
$DIMTSZ
 40
0.0
  9
$DIMTOL
 70
     1
  9
$DIMLIM
 70
     0
  9
$DIMTIH
 70
     1
  9
$DIMTOH
 70
     1
  9
$DIMSE1
 70
     0
  9
$DIMSE2
 70
     0
  9
$DIMTAD
 70
     0
  9
$DIMZIN
 70
     0
  9
$DIMBLK
  1

  9
$DIMASO
 70
     1
  9
$DIMSHO
 70
     1
  9
$DIMPOST
  1
\X
  9
$DIMAPOST
  1

  9
$DIMALT
 70
     1
  9
$DIMALTD
 70
     2
  9
$DIMALTF
 40
25.3999999999999986
  9
$DIMLFAC
 40
1.0
  9
$DIMTOFL
 70
     0
  9
$DIMTVP
 40
0.0
  9
$DIMTIX
 70
     0
  9
$DIMSOXD
 70
     0
  9
$DIMSAH
 70
     0
  9
$DIMBLK1
  1

  9
$DIMBLK2
  1

  9
$DIMSTYLE
  2
STANDARD
  9
$DIMCLRD
 70
     0
  9
$DIMCLRE
 70
     0
  9
$DIMCLRT
 70
     0
  9
$DIMTFAC
 40
1.0
  9
$DIMGAP
 40
0.09
  9
$LUNITS
 70
     2
  9
$LUPREC
 70
     4
  9
$SKETCHINC
 40
0.1
  9
$FILLETRAD
 40
0.0
  9
$AUNITS
 70
     0
  9
$AUPREC
 70
     0
  9
$MENU
  1
.
  9
$ELEVATION
 40
0.0
  9
$PELEVATION
 40
0.0
  9
$THICKNESS
 40
0.0
  9
$LIMCHECK
 70
     0
  9
$BLIPMODE
 70
     0
  9
$CHAMFERA
 40
0.0
  9
$CHAMFERB
 40
0.0
  9
$SKPOLY
 70
     0
  9
$TDCREATE
 40
2458060.468368056230247
  9
$TDUPDATE
 40
2459431.741377315018326
  9
$TDINDWG
 40
0.7252385417
  9
$TDUSRTIMER
 40
0.7252385417
  9
$USRTIMER
 70
     1
  9
$ANGBASE
 50
0.0
  9
$ANGDIR
 70
     0
  9
$PDMODE
 70
     0
  9
$PDSIZE
 40
0.3125
  9
$PLINEWID
 40
0.0
  9
$COORDS
 70
     1
  9
$SPLFRAME
 70
     0
  9
$SPLINETYPE
 70
     6
  9
$SPLINESEGS
 70
     8
  9
$ATTDIA
 70
     1
  9
$ATTREQ
 70
     1
  9
$HANDLING
 70
     1
  9
$HANDSEED
  5
3C00B
  9
$SURFTAB1
 70
     6
  9
$SURFTAB2
 70
     6
  9
$SURFTYPE
 70
     6
  9
$SURFU
 70
     6
  9
$SURFV
 70
     6
  9
$UCSNAME
  2

  9
$UCSORG
 10
0.0
 20
0.0
 30
0.0
  9
$UCSXDIR
 10
1.0
 20
0.0
 30
0.0
  9
$UCSYDIR
 10
0.0
 20
1.0
 30
0.0
  9
$PUCSNAME
  2

  9
$PUCSORG
 10
0.0
 20
0.0
 30
0.0
  9
$PUCSXDIR
 10
1.0
 20
0.0
 30
0.0
  9
$PUCSYDIR
 10
0.0
 20
1.0
 30
0.0
  9
$USERI1
 70
     0
  9
$USERI2
 70
     0
  9
$USERI3
 70
     0
  9
$USERI4
 70
     0
  9
$USERI5
 70
     0
  9
$USERR1
 40
0.0
  9
$USERR2
 40
0.0
  9
$USERR3
 40
0.0
  9
$USERR4
 40
0.0
  9
$USERR5
 40
0.0
  9
$WORLDVIEW
 70
     1
  9
$SHADEDGE
 70
     3
  9
$SHADEDIF
 70
    70
  9
$TILEMODE
 70
     1
  9
$MAXACTVP
 70
    64
  9
$PLIMCHECK
 70
     0
  9
$PEXTMIN
 10
1.0000000000000000E+20
 20
1.0000000000000000E+20
 30
1.0000000000000000E+20
  9
$PEXTMAX
 10
-1.0000000000000000E+20
 20
-1.0000000000000000E+20
 30
-1.0000000000000000E+20
  9
$PLIMMIN
 10
0.0
 20
0.0
  9
$PLIMMAX
 10
12.0
 20
9.0
  9
$UNITMODE
 70
     0
  9
$VISRETAIN
 70
     1
  9
$PLINEGEN
 70
     0
  9
$PSLTSCALE
 70
     1
  0
ENDSEC
  0
SECTION
  2
TABLES
  0
TABLE
  2
VPORT
 70
     1
  0
VPORT
  2
*ACTIVE
 70
     0
 10
0.0
 20
0.0
 11
1.0
 21
1.0
 12
135.1047707036130987
 22
25.4178608876115995
 13
0.0
 23
0.0
 14
1.0
 24
1.0
 15
0.0
 25
0.0
 16
0.0
 26
0.0
 36
96.5995694866707311
 17
3303.693115234375
 27
195.2615115758877096
 37
0.0
 40
15.2273233143417208
 41
2.8440779610194902
 42
50.0
 43
0.0
 44
0.0
 50
0.0
 51
0.0
 71
     0
 72
   100
 73
     1
 74
     1
 75
     0
 76
     0
 77
     0
 78
     0
  0
ENDTAB
  0
TABLE
  2
LTYPE
 70
     2
  0
LTYPE
  2
CONTINUOUS
 70
     0
  3
Solid line
 72
    65
 73
     0
 40
0.0
  0
LTYPE
  2
PHANTOM2
 70
     0
  3
___ _ _ ___ _ _ ___ _ _ ___ _ _
 72
    65
 73
     6
 40
1.25
 49
0.625
 49
-0.125
 49
0.125
 49
-0.125
 49
0.125
 49
-0.125
  0
ENDTAB
  0
TABLE
  2
LAYER
 70
     2
  0
LAYER
  2
0
 70
     0
 62
   255
  6
CONTINUOUS
  0
LAYER
  2
DEFPOINTS
 70
     0
 62
     7
  6
CONTINUOUS
  0
ENDTAB
  0
TABLE
  2
STYLE
 70
     1
  0
STYLE
  2
STANDARD
 70
     0
 40
0.0
 41
0.8
 50
0.0
 71
     0
 42
0.2
  3
txt
  4

  0
ENDTAB
  0
TABLE
  2
VIEW
 70
     0
  0
ENDTAB
  0
TABLE
  2
UCS
 70
     0
  0
ENDTAB
  0
TABLE
  2
APPID
 70
     9
  0
APPID
  2
ACAD
 70
     0
  0
APPID
  2
ACAD_MLEADERVER
 70
     0
  0
APPID
  2
ACAD_EXEMPT_FROM_CAD_STANDARDS
 70
     0
  0
APPID
  2
ACAD_NAV_VCDISPLAY
 70
     0
  0
APPID
  2
ACAECLAYERSTANDARD
 70
     0
  0
APPID
  2
ACCMTRANSPARENCY
 70
     0
  0
APPID
  2
ACAD_DSTYLE_DIMJAG
 70
     0
  0
APPID
  2
ACAD_DSTYLE_DIMTALN
 70
     0
  0
APPID
  2
ACDBATTR
 70
     0
  0
ENDTAB
  0
TABLE
  2
DIMSTYLE
 70
     1
  0
DIMSTYLE
  2
STANDARD
 70
     0
  3

  4

  5

  6

  7

 40
1.0
 41
0.1875
 42
0.0625
 43
0.38
 44
0.125
 45
0.0
 46
0.0
 47
0.01
 48
0.01
140
0.15625
141
0.09
142
0.0
143
25.3999999999999986
144
1.0
145
0.0
146
1.0
147
0.09
 71
     1
 72
     0
 73
     1
 74
     1
 75
     0
 76
     0
 77
     0
 78
     4
170
     0
171
     2
172
     0
173
     0
174
     0
175
     0
176
     0
177
     0
178
     0
  0
ENDTAB
  0
ENDSEC
  0
SECTION
  2
BLOCKS
  0
BLOCK
  8
0
  2
$MODEL_SPACE
 70
     0
 10
0.0
 20
0.0
 30
0.0
  3
$MODEL_SPACE
  1

  0
ENDBLK
  5
21
  8
0
  0
BLOCK
 67
     1
  8
0
  2
$PAPER_SPACE
 70
     0
 10
0.0
 20
0.0
 30
0.0
  3
$PAPER_SPACE
  1

  0
ENDBLK
  5
1D
 67
     1
  8
0
  0
ENDSEC
  0
SECTION
  2
ENTITIES
  0
ATTDEF
  5
340AC
  8
DEFPOINTS
 10
3435.04934376952815
 20
221.2089571853107088
 30
0.0
 40
0.001
  1
K-29156IN
  3

  2
MODELNUMBER
 70
     0
1001
ACDBATTR
1070
     0
1070
     1
  0
ATTDEF
  5
340AD
  8
DEFPOINTS
 10
3435.04934376952815
 20
221.2072905186439868
 30
0.0
 40
0.001
  1

  3

  2
TRADENAME
 70
     0
1001
ACDBATTR
1070
     0
1070
     1
  0
ATTDEF
  5
340AE
  8
DEFPOINTS
 10
3435.04934376952815
 20
221.205623851977407
 30
0.0
 40
0.001
  1
MIRROR
  3

  2
PRODUCT
 70
     0
1001
ACDBATTR
1070
     0
1070
     1
  0
LINE
  5
3BE5E
  8
0
 10
3417.3387243101210515
 20
220.2671210276949125
 30
0.0
 11
3417.3387243101210515
 21
220.1096407127949135
 31
0.0
  0
LINE
  5
3BE5F
  8
0
 10
3417.9292754912198689
 20
221.2513729961949025
 30
0.0
 11
3417.9292754912198689
 21
220.2671210276949125
 31
0.0
  0
LINE
  5
3BE60
  8
0
 10
3418.913527459721081
 20
221.2513729961949025
 30
0.0
 11
3418.913527459721081
 21
220.2671210276949125
 31
0.0
  0
LINE
  5
3BE61
  8
0
 10
3418.9725825778209582
 20
220.6411367757949051
 30
0.0
 11
3418.9725825778209582
 21
220.4442863819949139
 31
0.0
  0
LINE
  5
3BE62
  8
0
 10
3419.1694329715201093
 20
220.4442863820949015
 30
0.0
 11
3419.1694329715201093
 21
220.6411367757949051
 31
0.0
  0
LINE
  5
3BE63
  8
0
 10
3422.8505353337209272
 20
220.2671210276949125
 30
0.0
 11
3422.8505353337209272
 21
220.8576722087948951
 31
0.0
  0
LINE
  5
3BE64
  8
0
 10
3452.771795176221076
 20
220.1096407127949135
 30
0.0
 11
3417.3387243101210515
 21
220.1096407127949135
 31
0.0
  0
LINE
  5
3BE65
  8
0
 10
3452.771795176221076
 20
220.2671210276949125
 30
0.0
 11
3417.3387243101210515
 21
220.2671210276949125
 31
0.0
  0
LINE
  5
3BE66
  8
0
 10
3451.196992026620137
 20
220.3064911064948888
 30
0.0
 11
3447.2599841526212003
 21
220.3064911064948888
 31
0.0
  0
LINE
  5
3BE67
  8
0
 10
3452.1812439951199849
 20
220.3064911064948888
 30
0.0
 11
3452.2599841526198361
 21
220.3064911064948888
 31
0.0
  0
LINE
  5
3BE68
  8
0
 10
3422.8505353337209272
 20
220.8576722087948951
 30
0.0
 11
3418.913527459721081
 21
220.8576722087948951
 31
0.0
  0
LINE
  5
3BE69
  8
0
 10
3447.2599841526212003
 20
220.8576722087948951
 30
0.0
 11
3451.196992026620137
 21
220.8576722087948951
 31
0.0
  0
LINE
  5
3BE6A
  8
0
 10
3451.196992026620137
 20
221.0151525237949102
 30
0.0
 11
3418.913527459721081
 21
221.0151525237949102
 31
0.0
  0
LINE
  5
3BE6B
  8
0
 10
3418.913527459721081
 20
221.2120029174949138
 30
0.0
 11
3451.196992026620137
 21
221.2120029174949138
 31
0.0
  0
LINE
  5
3BE6C
  8
0
 10
3452.1812439951199849
 20
221.2513729961949025
 30
0.0
 11
3451.196992026620137
 21
221.2513729961949025
 31
0.0
  0
LINE
  5
3BE6D
  8
0
 10
3418.913527459721081
 20
221.2513729961949025
 30
0.0
 11
3417.9292754912198689
 21
221.2513729961949025
 31
0.0
  0
LINE
  5
3BE6E
  8
0
 10
3452.1812439951199849
 20
221.2513729961949025
 30
0.0
 11
3452.2599841526198361
 21
221.2513729961949025
 31
0.0
  0
LINE
  5
3BE6F
  8
0
 10
3447.2599841526212003
 20
220.2671210276949125
 30
0.0
 11
3447.2599841526212003
 21
220.8576722087948951
 31
0.0
  0
LINE
  5
3BE70
  8
0
 10
3450.9410865148201992
 20
220.6411367757949051
 30
0.0
 11
3450.9410865148201992
 21
220.4442863819949139
 31
0.0
  0
LINE
  5
3BE71
  8
0
 10
3451.1379369085211692
 20
220.4442863819949139
 30
0.0
 11
3451.1379369085211692
 21
220.6411367757949051
 31
0.0
  0
LINE
  5
3BE72
  8
0
 10
3451.196992026620137
 20
221.2513729961949025
 30
0.0
 11
3451.196992026620137
 21
220.2671210276949125
 31
0.0
  0
LINE
  5
3BE73
  8
0
 10
3452.1812439951199849
 20
221.2513729961949025
 30
0.0
 11
3452.1812439951199849
 21
220.2671210276949125
 31
0.0
  0
LINE
  5
3BE74
  8
0
 10
3452.2599841526198361
 20
220.3064911064948888
 30
0.0
 11
3452.2599841526198361
 21
221.2513729961949025
 31
0.0
  0
LINE
  5
3BE75
  8
0
 10
3452.771795176221076
 20
220.2671210276949125
 30
0.0
 11
3452.771795176221076
 21
220.1096407127949135
 31
0.0
  0
ARC
  5
3BE76
  8
0
 10
3419.0710077746211937
 20
220.4442863820949015
 30
0.0
 40
0.0984251969
 50
180.0000000043999933
 51
359.9999999961992216
  0
ARC
  5
3BE77
  8
0
 10
3419.0710077746211937
 20
220.6411367757949051
 30
0.0
 40
0.0984251969
 50
0.0000000044993908
 51
179.9999999955005876
  0
ARC
  5
3BE78
  8
0
 10
3451.0395117116199799
 20
220.4442863820949015
 30
0.0
 40
0.0984251969
 50
180.0000000043999933
 51
359.999999995500616
  0
ARC
  5
3BE79
  8
0
 10
3451.0395117116199799
 20
220.6411367757949051
 30
0.0
 40
0.0984251969
 50
0.0000000044000557
 51
179.9999999961991932
  0
CIRCLE
  5
3BE7A
  8
0
 10
3419.0710077746211937
 20
220.5820816575948982
 30
0.0
 40
0.0787401575
  0
CIRCLE
  5
3BE7B
  8
0
 10
3451.0395117116199799
 20
220.5820816575948982
 30
0.0
 40
0.0787401575
  0
ARC
  5
3BE7C
  8
0
 10
3452.3338597703927917
 20
221.0408911565648111
 30
0.0
 40
0.0741051396090379
 50
146.8882720491542102
 51
175.4893656037662026
  0
ARC
  5
3BE7D
  8
0
 10
3451.7363840855578019
 20
220.7782332069076006
 30
0.0
 40
0.6152656569420037
 50
330.6259955848510117
 51
29.5180102129542803
  0
ARC
  5
3BE7E
  8
0
 10
3452.3372927644209085
 20
220.5188973516534929
 30
0.0
 40
0.0774232693143369
 50
183.1185789913245969
 51
213.2557337486526023
  0
ENDSEC
  0
EOF
