  0
SECTION
  2
HEADER
  9
$ACADVER
  1
AC1009
  9
$DWGCODEPAGE
  3
ansi_1252
  9
$INSBASE
 10
0.0
 20
0.0
 30
0.0
  9
$EXTMIN
 10
-28.01603325737846
 20
-0.0165
 30
0.0
  9
$EXTMAX
 10
98.98396674262153
 20
116.926086606255
 30
0.0
  9
$LIMMIN
 10
0.0
 20
0.0
  9
$LIMMAX
 10
144.0
 20
108.0
  9
$ORTHOMODE
 70
     1
  9
$REGENMODE
 70
     1
  9
$FILLMODE
 70
     1
  9
$QTEXTMODE
 70
     0
  9
$MIRRTEXT
 70
     1
  9
$DRAGMODE
 70
     2
  9
$LTSCALE
 40
4.0
  9
$OSMODE
 70
    37
  9
$ATTMODE
 70
     1
  9
$TEXTSIZE
 40
0.003
  9
$TRACEWID
 40
0.05
  9
$TEXTSTYLE
  7
STANDARD
  9
$CLAYER
  8
0
  9
$CELTYPE
  6
CONTINUOUS
  9
$CECOLOR
 62
   256
  9
$DIMSCALE
 40
1.0
  9
$DIMASZ
 40
0.18
  9
$DIMEXO
 40
0.0625
  9
$DIMDLI
 40
0.38
  9
$DIMRND
 40
0.0
  9
$DIMDLE
 40
0.0
  9
$DIMEXE
 40
0.18
  9
$DIMTP
 40
0.0
  9
$DIMTM
 40
0.0
  9
$DIMTXT
 40
0.18
  9
$DIMCEN
 40
0.09
  9
$DIMTSZ
 40
0.0
  9
$DIMTOL
 70
     0
  9
$DIMLIM
 70
     0
  9
$DIMTIH
 70
     1
  9
$DIMTOH
 70
     1
  9
$DIMSE1
 70
     0
  9
$DIMSE2
 70
     0
  9
$DIMTAD
 70
     0
  9
$DIMZIN
 70
     0
  9
$DIMBLK
  1

  9
$DIMASO
 70
     1
  9
$DIMSHO
 70
     1
  9
$DIMPOST
  1

  9
$DIMAPOST
  1

  9
$DIMALT
 70
     0
  9
$DIMALTD
 70
     2
  9
$DIMALTF
 40
25.4
  9
$DIMLFAC
 40
1.0
  9
$DIMTOFL
 70
     0
  9
$DIMTVP
 40
0.0
  9
$DIMTIX
 70
     0
  9
$DIMSOXD
 70
     0
  9
$DIMSAH
 70
     0
  9
$DIMBLK1
  1

  9
$DIMBLK2
  1

  9
$DIMSTYLE
  2
STANDARD
  9
$DIMCLRD
 70
     0
  9
$DIMCLRE
 70
     0
  9
$DIMCLRT
 70
     0
  9
$DIMTFAC
 40
1.0
  9
$DIMGAP
 40
0.09
  9
$LUNITS
 70
     2
  9
$LUPREC
 70
     4
  9
$SKETCHINC
 40
0.1
  9
$FILLETRAD
 40
0.0
  9
$AUNITS
 70
     0
  9
$AUPREC
 70
     0
  9
$MENU
  1
acad
  9
$ELEVATION
 40
0.0
  9
$PELEVATION
 40
0.0
  9
$THICKNESS
 40
0.0
  9
$LIMCHECK
 70
     0
  9
$CHAMFERA
 40
0.0
  9
$CHAMFERB
 40
0.0
  9
$SKPOLY
 70
     0
  9
$TDCREATE
 40
2453711.573731597
  9
$TDUPDATE
 40
2453720.492837535
  9
$TDINDWG
 40
0.0109497685
  9
$TDUSRTIMER
 40
0.0109497685
  9
$USRTIMER
 70
     1
  9
$ANGBASE
 50
0.0
  9
$ANGDIR
 70
     0
  9
$PDMODE
 70
     3
  9
$PDSIZE
 40
-2.0
  9
$PLINEWID
 40
0.0
  9
$COORDS
 70
     1
  9
$SPLFRAME
 70
     0
  9
$SPLINETYPE
 70
     6
  9
$SPLINESEGS
 70
     8
  9
$ATTDIA
 70
     0
  9
$ATTREQ
 70
     1
  9
$HANDLING
 70
     1
  9
$HANDSEED
  5
14E
  9
$SURFTAB1
 70
     6
  9
$SURFTAB2
 70
     6
  9
$SURFTYPE
 70
     6
  9
$SURFU
 70
     6
  9
$SURFV
 70
     6
  9
$UCSNAME
  2

  9
$UCSORG
 10
0.0
 20
0.0
 30
0.0
  9
$UCSXDIR
 10
1.0
 20
0.0
 30
0.0
  9
$UCSYDIR
 10
0.0
 20
1.0
 30
0.0
  9
$PUCSNAME
  2

  9
$PUCSORG
 10
0.0
 20
0.0
 30
0.0
  9
$PUCSXDIR
 10
1.0
 20
0.0
 30
0.0
  9
$PUCSYDIR
 10
0.0
 20
1.0
 30
0.0
  9
$USERI1
 70
     0
  9
$USERI2
 70
     0
  9
$USERI3
 70
     0
  9
$USERI4
 70
     0
  9
$USERI5
 70
     0
  9
$USERR1
 40
0.0
  9
$USERR2
 40
0.0
  9
$USERR3
 40
0.0
  9
$USERR4
 40
0.0
  9
$USERR5
 40
0.0
  9
$WORLDVIEW
 70
     1
  9
$SHADEDGE
 70
     3
  9
$SHADEDIF
 70
    70
  9
$TILEMODE
 70
     1
  9
$MAXACTVP
 70
    16
  9
$PLIMCHECK
 70
     0
  9
$PEXTMIN
 10
1.000000000000000E+20
 20
1.000000000000000E+20
 30
1.000000000000000E+20
  9
$PEXTMAX
 10
-1.000000000000000E+20
 20
-1.000000000000000E+20
 30
-1.000000000000000E+20
  9
$PLIMMIN
 10
0.0
 20
0.0
  9
$PLIMMAX
 10
12.0
 20
9.0
  9
$UNITMODE
 70
     0
  9
$VISRETAIN
 70
     0
  9
$PLINEGEN
 70
     1
  9
$PSLTSCALE
 70
     0
  0
ENDSEC
  0
SECTION
  2
TABLES
  0
TABLE
  2
VPORT
 70
     1
  0
VPORT
  2
*ACTIVE
 70
     0
 10
0.0
 20
0.0
 11
1.0
 21
1.0
 12
36.16778568633328
 22
117.273056617999
 13
0.0
 23
0.0
 14
1.0
 24
1.0
 15
0.0
 25
0.0
 16
0.0
 26
0.0
 36
1.0
 17
0.0
 27
0.0
 37
0.0
 40
499.0706058077041
 41
1.583243823845328
 42
50.0
 43
0.0
 44
0.0
 50
0.0
 51
0.0
 71
     0
 72
   100
 73
     1
 74
     1
 75
     0
 76
     0
 77
     0
 78
     0
  0
ENDTAB
  0
TABLE
  2
LTYPE
 70
     1
  0
LTYPE
  2
CONTINUOUS
 70
     0
  3
Solid line
 72
    65
 73
     0
 40
0.0
  0
ENDTAB
  0
TABLE
  2
LAYER
 70
     1
  0
LAYER
  2
0
 70
     0
 62
     7
  6
CONTINUOUS
  0
ENDTAB
  0
TABLE
  2
STYLE
 70
     1
  0
STYLE
  2
STANDARD
 70
     0
 40
0.0
 41
1.0
 50
0.0
 71
     0
 42
0.003
  3
txt
  4

  0
ENDTAB
  0
TABLE
  2
VIEW
 70
     0
  0
ENDTAB
  0
TABLE
  2
UCS
 70
     0
  0
ENDTAB
  0
TABLE
  2
APPID
 70
     1
  0
APPID
  2
ACAD
 70
     0
  0
ENDTAB
  0
TABLE
  2
DIMSTYLE
 70
     1
  0
DIMSTYLE
  2
STANDARD
 70
     0
  3

  4

  5

  6

  7

 40
1.0
 41
0.18
 42
0.0625
 43
0.38
 44
0.18
 45
0.0
 46
0.0
 47
0.0
 48
0.0
140
0.18
141
0.09
142
0.0
143
25.4
144
1.0
145
0.0
146
1.0
147
0.09
 71
     0
 72
     0
 73
     1
 74
     1
 75
     0
 76
     0
 77
     0
 78
     0
170
     0
171
     2
172
     0
173
     0
174
     0
175
     0
176
     0
177
     0
178
     0
  0
ENDTAB
  0
ENDSEC
  0
SECTION
  2
BLOCKS
  0
BLOCK
  8
0
  2
$MODEL_SPACE
 70
     2
 10
0.0
 20
0.0
 30
0.0
  3
$MODEL_SPACE
  1

  0
ENDBLK
  5
B
  8
0
  0
BLOCK
 67
     1
  8
0
  2
$PAPER_SPACE
 70
     0
 10
0.0
 20
0.0
 30
0.0
  3
$PAPER_SPACE
  1

  0
ENDBLK
  5
10
 67
     1
  8
0
  0
ENDSEC
  0
SECTION
  2
ENTITIES
  0
LINE
  5
2A
  8
0
 10
19.98155381944446
 20
59.24037425816471
 30
0.0
 11
16.46083848741321
 21
56.82113514605766
 31
0.0
  0
LINE
  5
2B
  8
0
 10
31.12609320746529
 20
68.18522017830358
 30
0.0
 11
26.70158612840231
 21
64.63401606686918
 31
0.0
  0
LINE
  5
2C
  8
0
 10
22.57080348636804
 20
61.31856147730605
 30
0.0
 11
19.98155381944446
 21
59.24037425816471
 31
0.0
  0
LINE
  5
2D
  8
0
 10
38.7009969075521
 20
77.21877730720985
 30
0.0
 11
31.12609320746529
 21
68.18522017830358
 31
0.0
  0
LINE
  5
2E
  8
0
 10
43.95407850477432
 20
86.53999990920636
 30
0.0
 11
38.7009969075521
 21
77.21877730720985
 31
0.0
  0
LINE
  5
2F
  8
0
 10
48.40686442057292
 20
93.63448504375498
 30
0.0
 11
43.95407850477432
 21
86.53999990920636
 31
0.0
  0
LINE
  5
30
  8
0
 10
51.30281168619793
 20
96.20745460755705
 30
0.0
 11
48.40686442057292
 21
93.63448504375498
 31
0.0
  0
LINE
  5
31
  8
0
 10
56.80807427300348
 20
97.87195249167164
 30
0.0
 11
51.30281168619793
 21
96.20745460755705
 31
0.0
  0
LINE
  5
32
  8
0
 10
65.3381306966146
 20
98.09863977465776
 30
0.0
 11
56.80807427300348
 21
97.87195249167164
 31
0.0
  0
LINE
  5
33
  8
0
 10
70.87853325737848
 20
97.22203522821678
 30
0.0
 11
65.3381306966146
 21
98.09863977465776
 31
0.0
  0
LINE
  5
34
  8
0
 10
75.55318332248265
 20
95.55615930590776
 30
0.0
 11
70.87853325737848
 21
97.22203522821678
 31
0.0
  0
LINE
  5
35
  8
0
 10
79.61529541015625
 20
92.31587474644596
 30
0.0
 11
75.55318332248265
 21
95.55615930590776
 31
0.0
  0
LINE
  5
36
  8
0
 10
82.24562581380209
 20
86.46989221606401
 30
0.0
 11
79.61529541015625
 21
92.31587474644596
 31
0.0
  0
LINE
  5
37
  8
0
 10
83.21438666449654
 20
80.70883128941469
 30
0.0
 11
82.24562581380209
 21
86.46989221606401
 31
0.0
  0
LINE
  5
38
  8
0
 10
83.59954833984375
 20
74.84011112882442
 30
0.0
 11
83.21438666449654
 21
80.70883128941469
 31
0.0
  0
LINE
  5
39
  8
0
 10
83.34151068793403
 20
70.68412018915427
 30
0.0
 11
83.59954833984375
 21
74.84011112882442
 31
0.0
  0
LINE
  5
3A
  8
0
 10
82.05270046657986
 20
70.16959517830358
 30
0.0
 11
83.34151068793403
 21
70.68412018915427
 31
0.0
  0
LINE
  5
3B
  8
0
 10
82.05545654296876
 20
68.89973298212303
 30
0.0
 11
82.05270046657986
 21
70.16959517830358
 31
0.0
  0
LINE
  5
3C
  8
0
 10
83.25882839626738
 20
68.17729645868553
 30
0.0
 11
82.05545654296876
 21
68.89973298212303
 31
0.0
  0
LINE
  5
3D
  8
0
 10
84.68440890842015
 20
54.75623797344247
 30
0.0
 11
83.25882839626738
 21
68.17729645868553
 31
0.0
  0
LINE
  5
3E
  8
0
 10
96.41564805772569
 20
54.78758834236609
 30
0.0
 11
84.68440890842015
 21
54.75623797344247
 31
0.0
  0
LINE
  5
3F
  8
0
 10
97.78369547526043
 20
68.21639829245288
 30
0.0
 11
96.41564805772569
 21
54.78758834236609
 31
0.0
  0
LINE
  5
40
  8
0
 10
98.98396674262153
 20
68.94520824253971
 30
0.0
 11
97.78369547526043
 21
68.21639829245288
 31
0.0
  0
LINE
  5
41
  8
0
 10
98.98121066623264
 20
70.21507043872026
 30
0.0
 11
98.98396674262153
 21
68.94520824253971
 31
0.0
  0
LINE
  5
42
  8
0
 10
97.68792182074654
 20
70.72253300382442
 30
0.0
 11
98.98121066623264
 21
70.21507043872026
 31
0.0
  0
LINE
  5
43
  8
0
 10
97.94630398220485
 20
74.83993887405012
 30
0.0
 11
97.68792182074654
 21
70.72253300382442
 31
0.0
  0
LINE
  5
44
  8
0
 10
97.47053629557291
 20
82.71094853116816
 30
0.0
 11
97.94630398220485
 21
74.83993887405012
 31
0.0
  0
LINE
  5
45
  8
0
 10
96.18207058376737
 20
90.42744565573415
 30
0.0
 11
97.47053629557291
 21
82.71094853116816
 31
0.0
  0
LINE
  5
46
  8
0
 10
92.98261040581596
 20
98.46984881328623
 30
0.0
 11
96.18207058376737
 21
90.42744565573415
 31
0.0
  0
LINE
  5
47
  8
0
 10
86.13789469401041
 20
106.8745037612029
 30
0.0
 11
92.98261040581596
 21
98.46984881328623
 31
0.0
  0
LINE
  5
48
  8
0
 10
76.65389133029515
 20
112.2297324395883
 30
0.0
 11
86.13789469401041
 21
106.8745037612029
 31
0.0
  0
LINE
  5
49
  8
0
 10
66.45640869140627
 20
114.2644058336855
 30
0.0
 11
76.65389133029515
 21
112.2297324395883
 31
0.0
  0
LINE
  5
4A
  8
0
 10
54.55532633463542
 20
113.8060358792585
 30
0.0
 11
66.45640869140627
 21
114.2644058336855
 31
0.0
  0
LINE
  5
4B
  8
0
 10
46.6016343858507
 20
111.7031495945362
 30
0.0
 11
54.55532633463542
 21
113.8060358792585
 31
0.0
  0
LINE
  5
4C
  8
0
 10
37.36292182074654
 20
104.2236750394147
 30
0.0
 11
46.6016343858507
 21
111.7031495945362
 31
0.0
  0
LINE
  5
4D
  8
0
 10
31.70039062500001
 20
94.89538999167164
 30
0.0
 11
37.36292182074654
 21
104.2236750394147
 31
0.0
  0
LINE
  5
4E
  8
0
 10
26.97595893012154
 20
86.6121746596404
 30
0.0
 11
31.70039062500001
 21
94.89538999167164
 31
0.0
  0
LINE
  5
4F
  8
0
 10
22.82909749348958
 20
82.0482844144147
 30
0.0
 11
26.97595893012154
 21
86.6121746596404
 31
0.0
  0
LINE
  5
50
  8
0
 10
20.06940375434029
 20
81.49706913663692
 30
0.0
 11
22.82909749348958
 21
82.0482844144147
 31
0.0
  0
LINE
  5
51
  8
0
 10
16.46083848741321
 20
85.37960049146921
 30
0.0
 11
20.06940375434029
 21
81.49706913663692
 31
0.0
  0
LINE
  5
52
  8
0
 10
16.4608384874132
 20
46.68196768264387
 30
0.0
 11
15.9783669601364
 21
46.33649516733949
 31
0.0
  0
LINE
  5
53
  8
0
 10
16.4608384874132
 20
92.00616066224455
 30
0.0
 11
16.46083848741318
 21
73.67492704079615
 31
0.0
  0
LINE
  5
54
  8
0
 10
16.4608384874132
 20
60.88122819312355
 30
0.0
 11
16.4608384874132
 21
46.68196768264387
 31
0.0
  0
LINE
  5
55
  8
0
 10
13.94988064236112
 20
94.46079119609871
 30
0.0
 11
16.4608384874132
 21
92.00616066224455
 31
0.0
  0
LINE
  5
56
  8
0
 10
2.799829101562509
 20
96.16439091398067
 30
0.0
 11
13.94988064236112
 21
94.46079119609871
 31
0.0
  0
LINE
  5
57
  8
0
 10
2.799829101562509
 20
100.1346912069494
 30
0.0
 11
2.799829101562509
 21
96.16439091398067
 31
0.0
  0
LINE
  5
58
  8
0
 10
6.128308105468761
 20
103.7606542060814
 30
0.0
 11
2.799829101562509
 21
100.1346912069494
 31
0.0
  0
LINE
  5
59
  8
0
 10
6.128308105468761
 20
112.909449778998
 30
0.0
 11
6.128308105468761
 21
103.7606542060814
 31
0.0
  0
LINE
  5
5A
  8
0
 10
3.928442382812506
 20
116.926086606255
 30
0.0
 11
6.128308105468761
 21
112.909449778998
 31
0.0
  0
LINE
  5
5B
  8
0
 10
-3.928442382812492
 20
116.926086606255
 30
0.0
 11
3.928442382812506
 21
116.926086606255
 31
0.0
  0
LINE
  5
5C
  8
0
 10
-6.128308105468733
 20
112.909449778998
 30
0.0
 11
-3.928442382812492
 21
116.926086606255
 31
0.0
  0
LINE
  5
5D
  8
0
 10
-6.128308105468733
 20
103.7606542060814
 30
0.0
 11
-6.128308105468733
 21
112.909449778998
 31
0.0
  0
LINE
  5
5E
  8
0
 10
-2.799829101562494
 20
100.1346912069494
 30
0.0
 11
-6.128308105468733
 21
103.7606542060814
 31
0.0
  0
LINE
  5
5F
  8
0
 10
-2.799829101562494
 20
96.16439091398067
 30
0.0
 11
-2.799829101562494
 21
100.1346912069494
 31
0.0
  0
LINE
  5
60
  8
0
 10
-13.9498806423611
 20
94.46079119609871
 30
0.0
 11
-2.799829101562494
 21
96.16439091398067
 31
0.0
  0
LINE
  5
61
  8
0
 10
-16.46083848741318
 20
92.00616066224455
 30
0.0
 11
-13.9498806423611
 21
94.46079119609871
 31
0.0
  0
LINE
  5
62
  8
0
 10
-16.46083848741318
 20
46.68196768264387
 30
0.0
 11
-16.46083848741318
 21
61.56251939484457
 31
0.0
  0
LINE
  5
63
  8
0
 10
-16.46083848741318
 20
64.18016911516091
 30
0.0
 11
-16.46083848741318
 21
92.00616066224455
 31
0.0
  0
LINE
  5
64
  8
0
 10
-14.23978542751735
 20
45.09171160625498
 30
0.0
 11
-16.46083848741318
 21
46.68196768264387
 31
0.0
  0
LINE
  5
65
  8
0
 10
-16.94539116753471
 20
42.77660743958832
 30
0.0
 11
-14.23978542751735
 21
45.09171160625498
 31
0.0
  0
LINE
  5
66
  8
0
 10
-16.94539116753471
 20
38.7548029691022
 30
0.0
 11
-16.94539116753471
 21
42.77660743958832
 31
0.0
  0
LINE
  5
67
  8
0
 10
-14.73519015842012
 20
37.0308771878522
 30
0.0
 11
-16.94539116753471
 21
38.7548029691022
 31
0.0
  0
LINE
  5
68
  8
0
 10
-19.30304226345485
 20
33.96680926250498
 30
0.0
 11
-14.73519015842012
 21
37.0308771878522
 31
0.0
  0
LINE
  5
69
  8
0
 10
-19.30304226345485
 20
23.43342981372025
 30
0.0
 11
-19.30304226345485
 21
33.96680926250498
 31
0.0
  0
LINE
  5
6A
  8
0
 10
-21.81244981553818
 20
23.21294370260915
 30
0.0
 11
-19.30304226345485
 21
23.43342981372025
 31
0.0
  0
LINE
  5
6B
  8
0
 10
-21.81244981553818
 20
21.48901792135915
 30
0.0
 11
-21.81244981553818
 21
23.21294370260915
 31
0.0
  0
LINE
  5
6C
  8
0
 10
-24.43003336588541
 20
19.95698395868554
 30
0.0
 11
-21.81244981553818
 21
21.48901792135915
 31
0.0
  0
LINE
  5
6D
  8
0
 10
-24.43003336588541
 20
17.31494023038692
 30
0.0
 11
-24.43003336588541
 21
19.95698395868554
 31
0.0
  0
LINE
  5
6E
  8
0
 10
-28.01603325737846
 20
16.98179949687999
 30
0.0
 11
-24.43003336588541
 21
17.31494023038692
 31
0.0
  0
LINE
  5
6F
  8
0
 10
-28.01603325737846
 20
2.780082374484152
 30
0.0
 11
-28.01603325737846
 21
16.98179949687999
 31
0.0
  0
LINE
  5
70
  8
0
 10
-20.82921956380206
 20
2.780082374484152
 30
0.0
 11
-28.01603325737846
 21
2.780082374484152
 31
0.0
  0
LINE
  5
71
  8
0
 10
-17.05115559895832
 20
63.86886004375498
 30
0.0
 11
-17.9219034830729
 21
61.57287615703623
 31
0.0
  0
LINE
  5
72
  8
0
 10
-15.59990912543402
 20
64.63418800599456
 30
0.0
 11
-17.05115559895832
 21
63.86886004375498
 31
0.0
  0
LINE
  5
73
  8
0
 10
-15.01923828124999
 20
66.62390290399804
 30
0.0
 11
-15.59990912543402
 21
64.63418800599456
 31
0.0
  0
LINE
  5
74
  8
0
 10
-13.95504828559027
 20
66.62390290399804
 30
0.0
 11
-15.01923828124999
 21
66.62390290399804
 31
0.0
  0
POLYLINE
  5
75
  8
0
 66
     1
 10
0.0
 20
0.0
 30
0.0
 70
   132
 75
     6
  0
VERTEX
  5
76
  8
0
 10
25.13438313802084
 20
66.62390290399804
 30
0.0
 70
    16
  0
VERTEX
  5
77
  8
0
 10
25.13438313802084
 20
66.62390290399804
 30
0.0
 70
     8
  0
VERTEX
  5
78
  8
0
 10
24.62848121126494
 20
67.24582812179429
 30
0.0
 70
     8
  0
VERTEX
  5
79
  8
0
 10
24.17488300005596
 20
67.7911876063697
 30
0.0
 70
     8
  0
VERTEX
  5
7A
  8
0
 10
23.7671345015367
 20
68.2687705566527
 30
0.0
 70
     8
  0
VERTEX
  5
7B
  8
0
 10
23.39878171284994
 20
68.68736617157165
 30
0.0
 70
     8
  0
VERTEX
  5
7C
  8
0
 10
23.06337063113851
 20
69.05576365005501
 30
0.0
 70
     8
  0
VERTEX
  5
7D
  8
0
 10
22.75444725354515
 20
69.38275219103113
 30
0.0
 70
     8
  0
VERTEX
  5
7E
  8
0
 10
22.46555757721268
 20
69.6771209934285
 30
0.0
 70
     8
  0
VERTEX
  5
7F
  8
0
 10
22.19024759928387
 20
69.9476592561754
 30
0.0
 70
     8
  0
VERTEX
  5
80
  8
0
 10
21.92282354809622
 20
70.20195336662368
 30
0.0
 70
     8
  0
VERTEX
  5
81
  8
0
 10
21.66063257676586
 20
70.44277846581818
 30
0.0
 70
     8
  0
VERTEX
  5
82
  8
0
 10
21.40178206960361
 20
70.67170688322707
 30
0.0
 70
     8
  0
VERTEX
  5
83
  8
0
 10
21.14437941092034
 20
70.89031094831861
 30
0.0
 70
     8
  0
VERTEX
  5
84
  8
0
 10
20.88653198502685
 20
71.10016299056093
 30
0.0
 70
     8
  0
VERTEX
  5
85
  8
0
 10
20.62634717623395
 20
71.30283533942227
 30
0.0
 70
     8
  0
VERTEX
  5
86
  8
0
 10
20.36193236885249
 20
71.49990032437083
 30
0.0
 70
     8
  0
VERTEX
  5
87
  8
0
 10
20.09139494719329
 20
71.69293027487478
 30
0.0
 70
     8
  0
VERTEX
  5
88
  8
0
 10
19.81310221972289
 20
71.88321841944557
 30
0.0
 70
     8
  0
VERTEX
  5
89
  8
0
 10
19.52646119153059
 20
72.07094158276775
 30
0.0
 70
     8
  0
VERTEX
  5
8A
  8
0
 10
19.23113879186137
 20
72.25599748856902
 30
0.0
 70
     8
  0
VERTEX
  5
8B
  8
0
 10
18.92680194996022
 20
72.43828386057717
 30
0.0
 70
     8
  0
VERTEX
  5
8C
  8
0
 10
18.61311759507214
 20
72.61769842251997
 30
0.0
 70
     8
  0
VERTEX
  5
8D
  8
0
 10
18.28975265644215
 20
72.79413889812511
 30
0.0
 70
     8
  0
VERTEX
  5
8E
  8
0
 10
17.95637406331521
 20
72.96750301112039
 30
0.0
 70
     8
  0
VERTEX
  5
8F
  8
0
 10
17.61264874493635
 20
73.13768848523355
 30
0.0
 70
     8
  0
VERTEX
  5
90
  8
0
 10
17.25824335018795
 20
73.3045931002649
 30
0.0
 70
     8
  0
VERTEX
  5
91
  8
0
 10
16.89282340650208
 20
73.46811486030478
 30
0.0
 70
     8
  0
VERTEX
  5
92
  8
0
 10
16.51605416094816
 20
73.628151825516
 30
0.0
 70
     8
  0
VERTEX
  5
93
  8
0
 10
16.12760086059571
 20
73.78460205606146
 30
0.0
 70
     8
  0
VERTEX
  5
94
  8
0
 10
15.72712875251419
 20
73.93736361210404
 30
0.0
 70
     8
  0
VERTEX
  5
95
  8
0
 10
15.31430308377303
 20
74.08633455380655
 30
0.0
 70
     8
  0
VERTEX
  5
96
  8
0
 10
14.88878910144172
 20
74.23141294133191
 30
0.0
 70
     8
  0
VERTEX
  5
97
  8
0
 10
14.4502520525897
 20
74.37249683484293
 30
0.0
 70
     8
  0
VERTEX
  5
98
  8
0
 10
13.99835740857655
 20
74.50948418235748
 30
0.0
 70
     8
  0
VERTEX
  5
99
  8
0
 10
13.53277153792205
 20
74.64227248331321
 30
0.0
 70
     8
  0
VERTEX
  5
9A
  8
0
 10
13.05316103343613
 20
74.7707591250028
 30
0.0
 70
     8
  0
VERTEX
  5
9B
  8
0
 10
12.55919248792861
 20
74.89484149471886
 30
0.0
 70
     8
  0
VERTEX
  5
9C
  8
0
 10
12.05053249420944
 20
75.01441697975409
 30
0.0
 70
     8
  0
VERTEX
  5
9D
  8
0
 10
11.5268476450885
 20
75.12938296740111
 30
0.0
 70
     8
  0
VERTEX
  5
9E
  8
0
 10
10.98780453337564
 20
75.23963684495257
 30
0.0
 70
     8
  0
VERTEX
  5
9F
  8
0
 10
10.43306975188079
 20
75.34507599970115
 30
0.0
 70
     8
  0
VERTEX
  5
A0
  8
0
 10
9.862699317049106
 20
75.44528336426032
 30
0.0
 70
     8
  0
VERTEX
  5
A1
  8
0
 10
9.278306939866823
 20
75.53858405252706
 30
0.0
 70
     8
  0
VERTEX
  5
A2
  8
0
 10
8.681895754955448
 20
75.62298872371926
 30
0.0
 70
     8
  0
VERTEX
  5
A3
  8
0
 10
8.075468896936499
 20
75.69650803705466
 30
0.0
 70
     8
  0
VERTEX
  5
A4
  8
0
 10
7.461029500431494
 20
75.75715265175117
 30
0.0
 70
     8
  0
VERTEX
  5
A5
  8
0
 10
6.840580700061949
 20
75.80293322702659
 30
0.0
 70
     8
  0
VERTEX
  5
A6
  8
0
 10
6.216125630449369
 20
75.83186042209877
 30
0.0
 70
     8
  0
VERTEX
  5
A7
  8
0
 10
5.589667426215286
 20
75.84194489618554
 30
0.0
 70
     8
  0
VERTEX
  5
A8
  8
0
 10
4.963209278053725
 20
75.83186042209877
 30
0.0
 70
     8
  0
VERTEX
  5
A9
  8
0
 10
4.338754600948775
 20
75.80293322702659
 30
0.0
 70
     8
  0
VERTEX
  5
AA
  8
0
 10
3.718306865957061
 20
75.75715265175117
 30
0.0
 70
     8
  0
VERTEX
  5
AB
  8
0
 10
3.103869544135208
 20
75.69650803705466
 30
0.0
 70
     8
  0
VERTEX
  5
AC
  8
0
 10
2.49744610653984
 20
75.62298872371926
 30
0.0
 70
     8
  0
VERTEX
  5
AD
  8
0
 10
1.901040024227584
 20
75.53858405252709
 30
0.0
 70
     8
  0
VERTEX
  5
AE
  8
0
 10
1.316654768255035
 20
75.44528336426032
 30
0.0
 70
     8
  0
VERTEX
  5
AF
  8
0
 10
0.7462938096788321
 20
75.34507599970115
 30
0.0
 70
     8
  0
VERTEX
  5
B0
  8
0
 10
0.1915709716302416
 20
75.23963684495257
 30
0.0
 70
     8
  0
VERTEX
  5
B1
  8
0
 10
-0.3474585144607971
 20
75.12938296740111
 30
0.0
 70
     8
  0
VERTEX
  5
B2
  8
0
 10
-0.8711290650897468
 20
75.01441697975409
 30
0.0
 70
     8
  0
VERTEX
  5
B3
  8
0
 10
-1.379775096752013
 20
74.89484149471886
 30
0.0
 70
     8
  0
VERTEX
  5
B4
  8
0
 10
-1.873731025943044
 20
74.7707591250028
 30
0.0
 70
     8
  0
VERTEX
  5
B5
  8
0
 10
-2.353331269158261
 20
74.64227248331321
 30
0.0
 70
     8
  0
VERTEX
  5
B6
  8
0
 10
-2.818910242893068
 20
74.50948418235745
 30
0.0
 70
     8
  0
VERTEX
  5
B7
  8
0
 10
-3.270802363642929
 20
74.37249683484293
 30
0.0
 70
     8
  0
VERTEX
  5
B8
  8
0
 10
-3.709341879685709
 20
74.23141294133191
 30
0.0
 70
     8
  0
VERTEX
  5
B9
  8
0
 10
-4.134862366429061
 20
74.08633455380655
 30
0.0
 70
     8
  0
VERTEX
  5
BA
  8
0
 10
-4.547697231063125
 20
73.93736361210404
 30
0.0
 70
     8
  0
VERTEX
  5
BB
  8
0
 10
-4.948179880777971
 20
73.78460205606146
 30
0.0
 70
     8
  0
VERTEX
  5
BC
  8
0
 10
-5.336643722763753
 20
73.628151825516
 30
0.0
 70
     8
  0
VERTEX
  5
BD
  8
0
 10
-5.713422164210556
 20
73.46811486030478
 30
0.0
 70
     8
  0
VERTEX
  5
BE
  8
0
 10
-6.078848612308491
 20
73.3045931002649
 30
0.0
 70
     8
  0
VERTEX
  5
BF
  8
0
 10
-6.433256474247671
 20
73.13768848523355
 30
0.0
 70
     8
  0
VERTEX
  5
C0
  8
0
 10
-6.776979325435761
 20
72.96750301112039
 30
0.0
 70
     8
  0
VERTEX
  5
C1
  8
0
 10
-7.110351414150642
 20
72.79413889812508
 30
0.0
 70
     8
  0
VERTEX
  5
C2
  8
0
 10
-7.433707156887735
 20
72.61769842251994
 30
0.0
 70
     8
  0
VERTEX
  5
C3
  8
0
 10
-7.747380970142487
 20
72.43828386057717
 30
0.0
 70
     8
  0
VERTEX
  5
C4
  8
0
 10
-8.051707270410304
 20
72.25599748856902
 30
0.0
 70
     8
  0
VERTEX
  5
C5
  8
0
 10
-8.347020474186635
 20
72.07094158276775
 30
0.0
 70
     8
  0
VERTEX
  5
C6
  8
0
 10
-8.633654997966893
 20
71.88321841944557
 30
0.0
 70
     8
  0
VERTEX
  5
C7
  8
0
 10
-8.911945258246512
 20
71.69293027487478
 30
0.0
 70
     8
  0
VERTEX
  5
C8
  8
0
 10
-9.182485119060225
 20
71.49990032437083
 30
0.0
 70
     8
  0
VERTEX
  5
C9
  8
0
 10
-9.446906234599915
 20
71.30283533942227
 30
0.0
 70
     8
  0
VERTEX
  5
CA
  8
0
 10
-9.707099706596786
 20
71.10016299056093
 30
0.0
 70
     8
  0
VERTEX
  5
CB
  8
0
 10
-9.964956636782034
 20
70.89031094831861
 30
0.0
 70
     8
  0
VERTEX
  5
CC
  8
0
 10
-10.22236812688686
 20
70.67170688322707
 30
0.0
 70
     8
  0
VERTEX
  5
CD
  8
0
 10
-10.48122527864243
 20
70.44277846581818
 30
0.0
 70
     8
  0
VERTEX
  5
CE
  8
0
 10
-10.74341919377997
 20
70.20195336662371
 30
0.0
 70
     8
  0
VERTEX
  5
CF
  8
0
 10
-11.01084097403066
 20
69.9476592561754
 30
0.0
 70
     8
  0
VERTEX
  5
D0
  8
0
 10
-11.28614284948065
 20
69.67712099342847
 30
0.0
 70
     8
  0
VERTEX
  5
D1
  8
0
 10
-11.57502156363591
 20
69.38275219103113
 30
0.0
 70
     8
  0
VERTEX
  5
D2
  8
0
 10
-11.88393498835739
 20
69.05576365005499
 30
0.0
 70
     8
  0
VERTEX
  5
D3
  8
0
 10
-12.219340995506
 20
68.68736617157165
 30
0.0
 70
     8
  0
VERTEX
  5
D4
  8
0
 10
-12.58769745694266
 20
68.2687705566527
 30
0.0
 70
     8
  0
VERTEX
  5
D5
  8
0
 10
-12.99546224452831
 20
67.79118760636973
 30
0.0
 70
     8
  0
VERTEX
  5
D6
  8
0
 10
-13.44909323012386
 20
67.24582812179432
 30
0.0
 70
     8
  0
VERTEX
  5
D7
  8
0
 10
-13.95504828559027
 20
66.62390290399807
 30
0.0
 70
     8
  0
VERTEX
  5
D8
  8
0
 10
23.70983615451389
 20
68.39227041701886
 30
0.0
 70
    16
  0
VERTEX
  5
D9
  8
0
 10
22.11424018012154
 20
70.10810022387651
 30
0.0
 70
    16
  0
VERTEX
  5
DA
  8
0
 10
20.17689073350695
 20
71.71919912795636
 30
0.0
 70
    16
  0
VERTEX
  5
DB
  8
0
 10
17.72656656901043
 20
73.17268491354665
 30
0.0
 70
    16
  0
VERTEX
  5
DC
  8
0
 10
14.59273546006945
 20
74.41619212925843
 30
0.0
 70
    16
  0
VERTEX
  5
DD
  8
0
 10
10.60400390625001
 20
75.3975275784772
 30
0.0
 70
    16
  0
VERTEX
  5
DE
  8
0
 10
5.589667426215286
 20
76.0641535550397
 30
0.0
 70
    16
  0
VERTEX
  5
DF
  8
0
 10
0.5753309461805714
 20
75.3975275784772
 30
0.0
 70
    16
  0
VERTEX
  5
E0
  8
0
 10
-3.413228352864579
 20
74.41619212925843
 30
0.0
 70
    16
  0
VERTEX
  5
E1
  8
0
 10
-6.547231716579844
 20
73.17268491354665
 30
0.0
 70
    16
  0
VERTEX
  5
E2
  8
0
 10
-8.997383626302074
 20
71.71919912795636
 30
0.0
 70
    16
  0
VERTEX
  5
E3
  8
0
 10
-10.93490532769096
 20
70.10810022387651
 30
0.0
 70
    16
  0
VERTEX
  5
E4
  8
0
 10
-12.53032904730902
 20
68.39227041701886
 30
0.0
 70
    16
  0
VERTEX
  5
E5
  8
0
 10
-13.95504828559027
 20
66.62390290399804
 30
0.0
 70
    16
  0
SEQEND
  5
E6
  8
0
  0
LINE
  5
E7
  8
0
 10
26.19874538845487
 20
66.62390290399804
 30
0.0
 11
25.13438313802084
 21
66.62390290399804
 31
0.0
  0
LINE
  5
E8
  8
0
 10
26.7792439778646
 20
64.63401575122026
 30
0.0
 11
26.19874538845487
 21
66.62390290399804
 31
0.0
  0
LINE
  5
E9
  8
0
 10
28.2304904513889
 20
63.86886004375498
 30
0.0
 11
26.7792439778646
 21
64.63401575122026
 31
0.0
  0
LINE
  5
EA
  8
0
 10
29.10141059027778
 20
61.57287615703623
 30
0.0
 11
28.2304904513889
 21
63.86886004375498
 31
0.0
  0
LINE
  5
EB
  8
0
 10
25.7965304904514
 20
61.54944950773069
 30
0.0
 11
29.10141059027778
 21
61.57287615703623
 31
0.0
  0
LINE
  5
EC
  8
0
 10
7.234700520833343
 20
60.22084843351192
 30
0.0
 11
25.7965304904514
 21
61.54944950773069
 31
0.0
  0
LINE
  5
ED
  8
0
 10
3.944806586371541
 20
60.22084843351192
 30
0.0
 11
7.234700520833343
 21
60.22084843351192
 31
0.0
  0
LINE
  5
EE
  8
0
 10
-14.61702338324652
 20
61.54944950773069
 30
0.0
 11
3.944806586371541
 21
60.22084843351192
 31
0.0
  0
LINE
  5
EF
  8
0
 10
-17.9219034830729
 20
61.57287615703623
 30
0.0
 11
-14.61702338324652
 21
61.54944950773069
 31
0.0
  0
LINE
  5
F0
  8
0
 10
-17.05115559895832
 20
63.86886004375498
 30
0.0
 11
-17.9219034830729
 21
61.57287615703623
 31
0.0
  0
LINE
  5
F1
  8
0
 10
2.166276041666677
 20
52.8473105645883
 30
0.0
 11
1.861557345920147
 21
51.66839888924108
 31
0.0
  0
LINE
  5
F2
  8
0
 10
1.098296440972234
 20
53.30413022604665
 30
0.0
 11
2.166276041666677
 21
52.8473105645883
 31
0.0
  0
LINE
  5
F3
  8
0
 10
1.129991319444457
 20
54.36349708802581
 30
0.0
 11
1.098296440972234
 21
53.30413022604665
 31
0.0
  0
LINE
  5
F4
  8
0
 10
2.352138943142364
 20
54.7317777954911
 30
0.0
 11
1.129991319444457
 21
54.36349708802581
 31
0.0
  0
LINE
  5
F5
  8
0
 10
2.659655113124515
 20
60.31283578770513
 30
0.0
 11
2.352138943142364
 21
54.7317777954911
 31
0.0
  0
LINE
  5
F6
  8
0
 10
10.45741509331599
 20
54.7317777954911
 30
0.0
 11
10.14349544571108
 21
60.42905139993277
 31
0.0
  0
LINE
  5
F7
  8
0
 10
11.67956271701389
 20
54.36349708802581
 30
0.0
 11
10.45741509331599
 21
54.7317777954911
 31
0.0
  0
LINE
  5
F8
  8
0
 10
11.71125759548612
 20
53.30413022604665
 30
0.0
 11
11.67956271701389
 21
54.36349708802581
 31
0.0
  0
LINE
  5
F9
  8
0
 10
10.64327799479167
 20
52.8473105645883
 30
0.0
 11
11.71125759548612
 21
53.30413022604665
 31
0.0
  0
LINE
  5
FA
  8
0
 10
10.51546495225695
 20
51.66839888924108
 30
0.0
 11
10.64327799479167
 21
52.8473105645883
 31
0.0
  0
LINE
  5
FB
  8
0
 10
1.861557345920147
 20
51.66839888924108
 30
0.0
 11
10.51546495225695
 21
51.66839888924108
 31
0.0
  0
LINE
  5
FC
  8
0
 10
2.166276041666677
 20
52.8473105645883
 30
0.0
 11
1.861557345920147
 21
51.66839888924108
 31
0.0
  0
LINE
  5
FD
  8
0
 10
31.31298963758681
 20
11.12031403681054
 30
0.0
 11
29.67519124348959
 21
10.5425715237897
 31
0.0
  0
LINE
  5
FE
  8
0
 10
31.10731743706597
 20
12.30956099861609
 30
0.0
 11
31.31298963758681
 21
11.12031403681054
 31
0.0
  0
LINE
  5
FF
  8
0
 10
29.28692898220487
 20
17.9374689847272
 30
0.0
 11
31.10731743706597
 21
12.30956099861609
 31
0.0
  0
LINE
  5
100
  8
0
 10
27.69374457465278
 20
22.36028256979665
 30
0.0
 11
29.28692898220487
 21
17.9374689847272
 31
0.0
  0
LINE
  5
101
  8
0
 10
25.83184271918404
 20
27.56203224427581
 30
0.0
 11
27.69374457465278
 21
22.36028256979665
 31
0.0
  0
LINE
  5
102
  8
0
 10
23.96218939887153
 20
32.11024730503971
 30
0.0
 11
25.83184271918404
 21
27.56203224427581
 31
0.0
  0
LINE
  5
103
  8
0
 10
22.08426784939238
 20
35.90915409757443
 30
0.0
 11
23.96218939887153
 21
32.11024730503971
 31
0.0
  0
LINE
  5
104
  8
0
 10
20.30384250217014
 20
39.24435103767858
 30
0.0
 11
22.08426784939238
 21
35.90915409757443
 31
0.0
  0
LINE
  5
105
  8
0
 10
18.60420464409724
 20
42.19266375469248
 30
0.0
 11
20.30384250217014
 21
39.24435103767858
 31
0.0
  0
LINE
  5
106
  8
0
 10
16.96950683593751
 20
44.83229591615081
 30
0.0
 11
18.60420464409724
 21
42.19266375469248
 31
0.0
  0
LINE
  5
107
  8
0
 10
15.38321261935765
 20
47.23972864184526
 30
0.0
 11
16.96950683593751
 21
44.83229591615081
 31
0.0
  0
LINE
  5
108
  8
0
 10
13.82964680989585
 20
49.49282108976192
 30
0.0
 11
15.38321261935765
 21
47.23972864184526
 31
0.0
  0
LINE
  5
109
  8
0
 10
12.29210069444446
 20
51.66839888924108
 30
0.0
 11
13.82964680989585
 21
49.49282108976192
 31
0.0
  0
LINE
  5
10A
  8
0
 10
0.0849216037326528
 20
51.66839888924108
 30
0.0
 11
12.29210069444446
 21
51.66839888924108
 31
0.0
  0
LINE
  5
10B
  8
0
 10
-1.452624511718739
 20
49.49282108976192
 30
0.0
 11
0.0849216037326528
 21
51.66839888924108
 31
0.0
  0
LINE
  5
10C
  8
0
 10
-3.006362575954853
 20
47.23972864184526
 30
0.0
 11
-1.452624511718739
 21
49.49282108976192
 31
0.0
  0
LINE
  5
10D
  8
0
 10
-4.592484537760413
 20
44.83229591615081
 30
0.0
 11
-3.006362575954853
 21
47.23972864184526
 31
0.0
  0
LINE
  5
10E
  8
0
 10
-6.22735460069444
 20
42.19266375469248
 30
0.0
 11
-4.592484537760413
 21
44.83229591615081
 31
0.0
  0
LINE
  5
10F
  8
0
 10
-7.926820203993046
 20
39.24435103767858
 30
0.0
 11
-6.22735460069444
 21
42.19266375469248
 31
0.0
  0
LINE
  5
110
  8
0
 10
-9.707417805989572
 20
35.90915409757443
 30
0.0
 11
-7.926820203993046
 21
39.24435103767858
 31
0.0
  0
LINE
  5
111
  8
0
 10
-11.58533935546874
 20
32.11024730503971
 30
0.0
 11
-9.707417805989572
 21
35.90915409757443
 31
0.0
  0
LINE
  5
112
  8
0
 10
-13.45499267578124
 20
27.56203224427581
 30
0.0
 11
-11.58533935546874
 21
32.11024730503971
 31
0.0
  0
LINE
  5
113
  8
0
 10
-15.31672227647568
 20
22.36028256979665
 30
0.0
 11
-13.45499267578124
 21
27.56203224427581
 31
0.0
  0
LINE
  5
114
  8
0
 10
-16.47737494574652
 20
17.9374689847272
 30
0.0
 11
-15.31672227647568
 21
22.36028256979665
 31
0.0
  0
LINE
  5
115
  8
0
 10
-18.29776340060763
 20
12.30956099861609
 30
0.0
 11
-16.47737494574652
 21
17.9374689847272
 31
0.0
  0
LINE
  5
116
  8
0
 10
-18.50343560112846
 20
11.12031403681054
 30
0.0
 11
-18.29776340060763
 21
12.30956099861609
 31
0.0
  0
LINE
  5
117
  8
0
 10
-16.86563720703124
 20
10.5425715237897
 30
0.0
 11
-18.50343560112846
 21
11.12031403681054
 31
0.0
  0
LINE
  5
118
  8
0
 10
-16.86563720703124
 20
10.5425715237897
 30
0.0
 11
-16.86563720703124
 21
8.201284631428592
 31
0.0
  0
LINE
  5
119
  8
0
 10
29.67519124348959
 20
10.5425715237897
 30
0.0
 11
-16.86563720703124
 21
10.5425715237897
 31
0.0
  0
LINE
  5
11A
  8
0
 10
29.67519124348959
 20
8.201284631428592
 30
0.0
 11
29.67519124348959
 21
10.5425715237897
 31
0.0
  0
LINE
  5
11B
  8
0
 10
-20.82921956380207
 20
8.201284631428592
 30
0.0
 11
33.63877360026042
 21
8.201284631428592
 31
0.0
  0
LINE
  5
11C
  8
0
 10
-20.82921956380207
 20
2.626086606254987
 30
0.0
 11
-20.82921956380207
 21
8.201284631428592
 31
0.0
  0
LINE
  5
11D
  8
0
 10
33.63877360026042
 20
2.626086606254987
 30
0.0
 11
-20.82921956380207
 21
2.626086606254987
 31
0.0
  0
LINE
  5
11E
  8
0
 10
33.63877360026042
 20
8.201284631428592
 30
0.0
 11
33.63877360026042
 21
2.626086606254987
 31
0.0
  0
LINE
  5
11F
  8
0
 10
-28.01603325737846
 20
16.98179949687999
 30
0.0
 11
-16.78649330849044
 21
16.98179949687997
 31
0.0
  0
LINE
  5
120
  8
0
 10
-24.43003336588541
 20
19.95698395868554
 30
0.0
 11
-15.94740563999284
 21
19.95698395868554
 31
0.0
  0
LINE
  5
121
  8
0
 10
-21.81244981553818
 20
21.48901792135915
 30
0.0
 11
-15.54536307726911
 21
21.48901792135914
 31
0.0
  0
LINE
  5
122
  8
0
 10
-21.81244981553818
 20
23.21294370260915
 30
0.0
 11
-15.01155102263645
 21
23.21294370260915
 31
0.0
  0
LINE
  5
123
  8
0
 10
-19.30304226345485
 20
23.43342981372025
 30
0.0
 11
-14.93263805194669
 21
23.43342981372025
 31
0.0
  0
LINE
  5
124
  8
0
 10
-14.73519015842012
 20
37.0308771878522
 30
0.0
 11
-9.10855138804714
 21
37.03087718785221
 31
0.0
  0
LINE
  5
125
  8
0
 10
-14.23978542751735
 20
45.09171160625498
 30
0.0
 11
-4.421570136323737
 21
45.09171160625496
 31
0.0
  0
LINE
  5
126
  8
0
 10
-16.46083848741318
 20
92.00616066224455
 30
0.0
 11
16.4608384874132
 21
92.00616066224455
 31
0.0
  0
LINE
  5
127
  8
0
 10
-13.9498806423611
 20
94.46079119609871
 30
0.0
 11
13.94988064236112
 21
94.46079119609871
 31
0.0
  0
LINE
  5
128
  8
0
 10
-6.128308105468733
 20
103.7606542060814
 30
0.0
 11
6.128308105468761
 21
103.7606542060814
 31
0.0
  0
LINE
  5
129
  8
0
 10
-6.128308105468733
 20
112.909449778998
 30
0.0
 11
6.128308105468761
 21
112.909449778998
 31
0.0
  0
LINE
  5
12A
  8
0
 10
-2.799829101562494
 20
100.1346912069494
 30
0.0
 11
2.799829101562509
 21
100.1346912069494
 31
0.0
  0
LINE
  5
12B
  8
0
 10
-2.799829101562494
 20
96.16439091398067
 30
0.0
 11
2.799829101562509
 21
96.16439091398067
 31
0.0
  0
LINE
  5
12C
  8
0
 10
2.166276041666677
 20
52.8473105645883
 30
0.0
 11
10.64327799479167
 21
52.8473105645883
 31
0.0
  0
LINE
  5
12D
  8
0
 10
2.352138943142364
 20
54.7317777954911
 30
0.0
 11
10.45741509331599
 21
54.7317777954911
 31
0.0
  0
LINE
  5
12E
  8
0
 10
-13.95504828559027
 20
66.62390290399804
 30
0.0
 11
25.13438313802084
 21
66.62390290399804
 31
0.0
  0
LINE
  5
12F
  8
0
 10
-15.59990912543402
 20
64.63418800599456
 30
0.0
 11
26.7792439778646
 21
64.63401575122026
 31
0.0
  0
LINE
  5
130
  8
0
 10
83.34151068793403
 20
70.68412018915427
 30
0.0
 11
97.68792182074654
 21
70.72253300382442
 31
0.0
  0
LINE
  5
131
  8
0
 10
83.25882839626738
 20
68.17729645868553
 30
0.0
 11
97.78369547526043
 21
68.21639829245288
 31
0.0
  0
ATTDEF
  5
132
  8
0
  6
CONTINUOUS
 10
-0.0018
 20
-0.0065
 30
0.0
 40
0.003
  1
K-280-9B
  3

  2
MODELNUMBER
 70
     2
  0
ATTDEF
  5
133
  8
0
  6
CONTINUOUS
 10
-0.0018
 20
-0.0098
 30
0.0
 40
0.003
  1
ANTIQUE
  3

  2
TRADENAME
 70
     2
  0
ATTDEF
  5
134
  8
0
  6
CONTINUOUS
 10
-0.0018
 20
-0.0132
 30
0.0
 40
0.003
  1
FAUCET
  3

  2
PRODUCT
 70
     2
  0
ATTDEF
  5
135
  8
0
  6
CONTINUOUS
 10
-0.0018
 20
-0.0165
 30
0.0
 40
0.003
  1
BRASS
  3

  2
MATERIAL
 70
     2
  0
ENDSEC
  0
EOF
