  0
SECTION
  2
HEADER
  9
$ACADVER
  1
AC1009
  9
$INSBASE
 10
0.0
 20
0.0
 30
0.0
  9
$EXTMIN
 10
-1.1262943257628559
 20
-0.0165
 30
0.0
  9
$EXTMAX
 10
1.1262623673511241
 20
12.00818146100417
 30
0.0
  9
$LIMMIN
 10
0.0
 20
0.0
  9
$LIMMAX
 10
144.0
 20
108.0
  9
$ORTHOMODE
 70
     0
  9
$REGENMODE
 70
     1
  9
$FILLMODE
 70
     1
  9
$QTEXTMODE
 70
     0
  9
$MIRRTEXT
 70
     1
  9
$DRAGMODE
 70
     2
  9
$LTSCALE
 40
4.0
  9
$OSMODE
 70
    37
  9
$ATTMODE
 70
     1
  9
$TEXTSIZE
 40
0.003
  9
$TRACEWID
 40
0.05
  9
$TEXTSTYLE
  7
STANDARD
  9
$CLAYER
  8
0
  9
$CELTYPE
  6
BYLAYER
  9
$CECOLOR
 62
   256
  9
$DIMSCALE
 40
1.0
  9
$DIMASZ
 40
0.18
  9
$DIMEXO
 40
0.0625
  9
$DIMDLI
 40
0.38
  9
$DIMRND
 40
0.0
  9
$DIMDLE
 40
0.0
  9
$DIMEXE
 40
0.18
  9
$DIMTP
 40
0.0
  9
$DIMTM
 40
0.0
  9
$DIMTXT
 40
0.18
  9
$DIMCEN
 40
0.09
  9
$DIMTSZ
 40
0.0
  9
$DIMTOL
 70
     0
  9
$DIMLIM
 70
     0
  9
$DIMTIH
 70
     1
  9
$DIMTOH
 70
     1
  9
$DIMSE1
 70
     0
  9
$DIMSE2
 70
     0
  9
$DIMTAD
 70
     0
  9
$DIMZIN
 70
     0
  9
$DIMBLK
  1

  9
$DIMASO
 70
     1
  9
$DIMSHO
 70
     1
  9
$DIMPOST
  1

  9
$DIMAPOST
  1

  9
$DIMALT
 70
     0
  9
$DIMALTD
 70
     2
  9
$DIMALTF
 40
25.399999999999999
  9
$DIMLFAC
 40
1.0
  9
$DIMTOFL
 70
     0
  9
$DIMTVP
 40
0.0
  9
$DIMTIX
 70
     0
  9
$DIMSOXD
 70
     0
  9
$DIMSAH
 70
     0
  9
$DIMBLK1
  1

  9
$DIMBLK2
  1

  9
$DIMSTYLE
  2
STANDARD
  9
$DIMCLRD
 70
     0
  9
$DIMCLRE
 70
     0
  9
$DIMCLRT
 70
     0
  9
$DIMTFAC
 40
1.0
  9
$DIMGAP
 40
0.09
  9
$LUNITS
 70
     2
  9
$LUPREC
 70
     4
  9
$SKETCHINC
 40
0.1
  9
$FILLETRAD
 40
0.0
  9
$AUNITS
 70
     0
  9
$AUPREC
 70
     0
  9
$MENU
  1
acad
  9
$ELEVATION
 40
0.0
  9
$PELEVATION
 40
0.0
  9
$THICKNESS
 40
0.0
  9
$LIMCHECK
 70
     0
  9
$BLIPMODE
 70
     0
  9
$CHAMFERA
 40
0.0
  9
$CHAMFERB
 40
0.0
  9
$SKPOLY
 70
     0
  9
$TDCREATE
 40
2453718.4233175581
  9
$TDUPDATE
 40
2453853.44827853
  9
$TDINDWG
 40
0.0058859028
  9
$TDUSRTIMER
 40
0.0058859028
  9
$USRTIMER
 70
     1
  9
$ANGBASE
 50
0.0
  9
$ANGDIR
 70
     0
  9
$PDMODE
 70
     3
  9
$PDSIZE
 40
-2.0
  9
$PLINEWID
 40
0.0
  9
$COORDS
 70
     1
  9
$SPLFRAME
 70
     0
  9
$SPLINETYPE
 70
     6
  9
$SPLINESEGS
 70
     8
  9
$ATTDIA
 70
     0
  9
$ATTREQ
 70
     1
  9
$HANDLING
 70
     1
  9
$HANDSEED
  5
BA1
  9
$SURFTAB1
 70
     6
  9
$SURFTAB2
 70
     6
  9
$SURFTYPE
 70
     6
  9
$SURFU
 70
     6
  9
$SURFV
 70
     6
  9
$UCSNAME
  2

  9
$UCSORG
 10
0.0
 20
0.0
 30
0.0
  9
$UCSXDIR
 10
1.0
 20
0.0
 30
0.0
  9
$UCSYDIR
 10
0.0
 20
1.0
 30
0.0
  9
$PUCSNAME
  2

  9
$PUCSORG
 10
0.0
 20
0.0
 30
0.0
  9
$PUCSXDIR
 10
1.0
 20
0.0
 30
0.0
  9
$PUCSYDIR
 10
0.0
 20
1.0
 30
0.0
  9
$USERI1
 70
     0
  9
$USERI2
 70
     0
  9
$USERI3
 70
     0
  9
$USERI4
 70
     0
  9
$USERI5
 70
     0
  9
$USERR1
 40
0.0
  9
$USERR2
 40
0.0
  9
$USERR3
 40
0.0
  9
$USERR4
 40
0.0
  9
$USERR5
 40
0.0
  9
$WORLDVIEW
 70
     1
  9
$SHADEDGE
 70
     3
  9
$SHADEDIF
 70
    70
  9
$TILEMODE
 70
     1
  9
$MAXACTVP
 70
    16
  9
$PLIMCHECK
 70
     0
  9
$PEXTMIN
 10
1.0000000000000000E+020
 20
1.0000000000000000E+020
 30
1.0000000000000000E+020
  9
$PEXTMAX
 10
-1.0000000000000000E+020
 20
-1.0000000000000000E+020
 30
-1.0000000000000000E+020
  9
$PLIMMIN
 10
0.0
 20
0.0
  9
$PLIMMAX
 10
12.0
 20
9.0
  9
$UNITMODE
 70
     0
  9
$VISRETAIN
 70
     0
  9
$PLINEGEN
 70
     1
  9
$PSLTSCALE
 70
     0
  0
ENDSEC
  0
SECTION
  2
TABLES
  0
TABLE
  2
VPORT
 70
     2
  0
VPORT
  2
*ACTIVE
 70
     0
 10
0.0
 20
0.0
 11
1.0
 21
1.0
 12
2.202290362076329
 22
5.5848004480200881
 13
0.0
 23
0.0
 14
1.0
 24
1.0
 15
0.0
 25
0.0
 16
0.0
 26
0.0
 36
1.0
 17
0.0
 27
0.0
 37
0.0
 40
14.67134017681561
 41
1.9229480737018421
 42
50.0
 43
0.0
 44
0.0
 50
0.0
 51
0.0
 71
     0
 72
   100
 73
     1
 74
     1
 75
     0
 76
     0
 77
     0
 78
     0
  0
ENDTAB
  0
TABLE
  2
LTYPE
 70
     1
  0
LTYPE
  2
CONTINUOUS
 70
     0
  3
Solid line
 72
    65
 73
     0
 40
0.0
  0
ENDTAB
  0
TABLE
  2
LAYER
 70
     1
  0
LAYER
  2
0
 70
     0
 62
     7
  6
CONTINUOUS
  0
ENDTAB
  0
TABLE
  2
STYLE
 70
     1
  0
STYLE
  2
STANDARD
 70
     0
 40
0.0
 41
1.0
 50
0.0
 71
     0
 42
0.003
  3
txt
  4

  0
ENDTAB
  0
TABLE
  2
VIEW
 70
     0
  0
ENDTAB
  0
TABLE
  2
UCS
 70
     0
  0
ENDTAB
  0
TABLE
  2
APPID
 70
     1
  0
APPID
  2
ACAD
 70
     0
  0
ENDTAB
  0
TABLE
  2
DIMSTYLE
 70
     1
  0
DIMSTYLE
  2
STANDARD
 70
     0
  3

  4

  5

  6

  7

 40
1.0
 41
0.18
 42
0.0625
 43
0.38
 44
0.18
 45
0.0
 46
0.0
 47
0.0
 48
0.0
140
0.18
141
0.09
142
0.0
143
25.399999999999999
144
1.0
145
0.0
146
1.0
147
0.09
 71
     0
 72
     0
 73
     1
 74
     1
 75
     0
 76
     0
 77
     0
 78
     0
170
     0
171
     2
172
     0
173
     0
174
     0
175
     0
176
     0
177
     0
178
     0
  0
ENDTAB
  0
ENDSEC
  0
SECTION
  2
BLOCKS
  0
BLOCK
  8
0
  2
$MODEL_SPACE
 70
     2
 10
0.0
 20
0.0
 30
0.0
  3
$MODEL_SPACE
  1

  0
ENDBLK
  5
9
  8
0
  0
BLOCK
 67
     1
  8
0
  2
$PAPER_SPACE
 70
     0
 10
0.0
 20
0.0
 30
0.0
  3
$PAPER_SPACE
  1

  0
ENDBLK
  5
E
 67
     1
  8
0
  0
ENDSEC
  0
SECTION
  2
ENTITIES
  0
POLYLINE
  8
0
  5
1BD
  66
     1
 10
0.000000
 20
0.000000
 30
0.000000
  70
     8
  0
VERTEX
  8
0
  5
1BE
 10
0.408285
 20
7.59223
 30
0.000000
  70
    32
  0
VERTEX
  8
0
  5
1BF
 10
0.408241
 20
7.59829
 30
0.000000
  70
    32
  0
VERTEX
  8
0
  5
1C0
 10
0.408109
 20
7.60433
 30
0.000000
  70
    32
  0
VERTEX
  8
0
  5
1C1
 10
0.407890
 20
7.61034
 30
0.000000
  70
    32
  0
VERTEX
  8
0
  5
1C2
 10
0.407585
 20
7.61634
 30
0.000000
  70
    32
  0
VERTEX
  8
0
  5
1C3
 10
0.407195
 20
7.62231
 30
0.000000
  70
    32
  0
VERTEX
  8
0
  5
1C4
 10
0.406719
 20
7.62825
 30
0.000000
  70
    32
  0
VERTEX
  8
0
  5
1C5
 10
0.406158
 20
7.63417
 30
0.000000
  70
    32
  0
VERTEX
  8
0
  5
1C6
 10
0.405513
 20
7.64007
 30
0.000000
  70
    32
  0
VERTEX
  8
0
  5
1C7
 10
0.404785
 20
7.64594
 30
0.000000
  70
    32
  0
VERTEX
  8
0
  5
1C8
 10
0.403975
 20
7.65179
 30
0.000000
  70
    32
  0
VERTEX
  8
0
  5
1C9
 10
0.403082
 20
7.65761
 30
0.000000
  70
    32
  0
VERTEX
  8
0
  5
1CA
 10
0.402107
 20
7.66340
 30
0.000000
  70
    32
  0
VERTEX
  8
0
  5
1CB
 10
0.401052
 20
7.66916
 30
0.000000
  70
    32
  0
VERTEX
  8
0
  5
1CC
 10
0.399916
 20
7.67490
 30
0.000000
  70
    32
  0
VERTEX
  8
0
  5
1CD
 10
0.398701
 20
7.68060
 30
0.000000
  70
    32
  0
VERTEX
  8
0
  5
1CE
 10
0.397406
 20
7.68628
 30
0.000000
  70
    32
  0
VERTEX
  8
0
  5
1CF
 10
0.396033
 20
7.69193
 30
0.000000
  70
    32
  0
VERTEX
  8
0
  5
1D0
 10
0.394582
 20
7.69754
 30
0.000000
  70
    32
  0
VERTEX
  8
0
  5
1D1
 10
0.393054
 20
7.70312
 30
0.000000
  70
    32
  0
VERTEX
  8
0
  5
1D2
 10
0.391449
 20
7.70868
 30
0.000000
  70
    32
  0
VERTEX
  8
0
  5
1D3
 10
0.389768
 20
7.71419
 30
0.000000
  70
    32
  0
VERTEX
  8
0
  5
1D4
 10
0.388011
 20
7.71968
 30
0.000000
  70
    32
  0
VERTEX
  8
0
  5
1D5
 10
0.386179
 20
7.72513
 30
0.000000
  70
    32
  0
VERTEX
  8
0
  5
1D6
 10
0.384274
 20
7.73055
 30
0.000000
  70
    32
  0
VERTEX
  8
0
  5
1D7
 10
0.382294
 20
7.73593
 30
0.000000
  70
    32
  0
VERTEX
  8
0
  5
1D8
 10
0.380242
 20
7.74127
 30
0.000000
  70
    32
  0
VERTEX
  8
0
  5
1D9
 10
0.378117
 20
7.74658
 30
0.000000
  70
    32
  0
VERTEX
  8
0
  5
1DA
 10
0.375920
 20
7.75186
 30
0.000000
  70
    32
  0
VERTEX
  8
0
  5
1DB
 10
0.373652
 20
7.75709
 30
0.000000
  70
    32
  0
VERTEX
  8
0
  5
1DC
 10
0.371313
 20
7.76229
 30
0.000000
  70
    32
  0
VERTEX
  8
0
  5
1DD
 10
0.368904
 20
7.76744
 30
0.000000
  70
    32
  0
VERTEX
  8
0
  5
1DE
 10
0.366426
 20
7.77256
 30
0.000000
  70
    32
  0
VERTEX
  8
0
  5
1DF
 10
0.363879
 20
7.77764
 30
0.000000
  70
    32
  0
VERTEX
  8
0
  5
1E0
 10
0.361264
 20
7.78268
 30
0.000000
  70
    32
  0
VERTEX
  8
0
  5
1E1
 10
0.358581
 20
7.78767
 30
0.000000
  70
    32
  0
VERTEX
  8
0
  5
1E2
 10
0.355832
 20
7.79263
 30
0.000000
  70
    32
  0
VERTEX
  8
0
  5
1E3
 10
0.353016
 20
7.79754
 30
0.000000
  70
    32
  0
VERTEX
  8
0
  5
1E4
 10
0.350134
 20
7.80241
 30
0.000000
  70
    32
  0
VERTEX
  8
0
  5
1E5
 10
0.347186
 20
7.80723
 30
0.000000
  70
    32
  0
VERTEX
  8
0
  5
1E6
 10
0.344175
 20
7.81201
 30
0.000000
  70
    32
  0
VERTEX
  8
0
  5
1E7
 10
0.341099
 20
7.81675
 30
0.000000
  70
    32
  0
VERTEX
  8
0
  5
1E8
 10
0.337960
 20
7.82144
 30
0.000000
  70
    32
  0
VERTEX
  8
0
  5
1E9
 10
0.334758
 20
7.82609
 30
0.000000
  70
    32
  0
VERTEX
  8
0
  5
1EA
 10
0.331494
 20
7.83068
 30
0.000000
  70
    32
  0
VERTEX
  8
0
  5
1EB
 10
0.328169
 20
7.83523
 30
0.000000
  70
    32
  0
VERTEX
  8
0
  5
1EC
 10
0.324783
 20
7.83974
 30
0.000000
  70
    32
  0
VERTEX
  8
0
  5
1ED
 10
0.321336
 20
7.84419
 30
0.000000
  70
    32
  0
VERTEX
  8
0
  5
1EE
 10
0.317829
 20
7.84860
 30
0.000000
  70
    32
  0
VERTEX
  8
0
  5
1EF
 10
0.314264
 20
7.85295
 30
0.000000
  70
    32
  0
VERTEX
  8
0
  5
1F0
 10
0.310640
 20
7.85726
 30
0.000000
  70
    32
  0
VERTEX
  8
0
  5
1F1
 10
0.306958
 20
7.86151
 30
0.000000
  70
    32
  0
VERTEX
  8
0
  5
1F2
 10
0.303218
 20
7.86571
 30
0.000000
  70
    32
  0
VERTEX
  8
0
  5
1F3
 10
0.299423
 20
7.86986
 30
0.000000
  70
    32
  0
VERTEX
  8
0
  5
1F4
 10
0.295570
 20
7.87396
 30
0.000000
  70
    32
  0
VERTEX
  8
0
  5
1F5
 10
0.291663
 20
7.87800
 30
0.000000
  70
    32
  0
VERTEX
  8
0
  5
1F6
 10
0.287701
 20
7.88199
 30
0.000000
  70
    32
  0
VERTEX
  8
0
  5
1F7
 10
0.283684
 20
7.88593
 30
0.000000
  70
    32
  0
VERTEX
  8
0
  5
1F8
 10
0.279614
 20
7.88981
 30
0.000000
  70
    32
  0
VERTEX
  8
0
  5
1F9
 10
0.275490
 20
7.89363
 30
0.000000
  70
    32
  0
VERTEX
  8
0
  5
1FA
 10
0.271315
 20
7.89740
 30
0.000000
  70
    32
  0
VERTEX
  8
0
  5
1FB
 10
0.267087
 20
7.90111
 30
0.000000
  70
    32
  0
VERTEX
  8
0
  5
1FC
 10
0.262808
 20
7.90477
 30
0.000000
  70
    32
  0
VERTEX
  8
0
  5
1FD
 10
0.258479
 20
7.90836
 30
0.000000
  70
    32
  0
VERTEX
  8
0
  5
1FE
 10
0.254099
 20
7.91190
 30
0.000000
  70
    32
  0
VERTEX
  8
0
  5
1FF
 10
0.249670
 20
7.91537
 30
0.000000
  70
    32
  0
VERTEX
  8
0
  5
200
 10
0.245192
 20
7.91879
 30
0.000000
  70
    32
  0
VERTEX
  8
0
  5
201
 10
0.240666
 20
7.92215
 30
0.000000
  70
    32
  0
VERTEX
  8
0
  5
202
 10
0.236093
 20
7.92544
 30
0.000000
  70
    32
  0
VERTEX
  8
0
  5
203
 10
0.231472
 20
7.92868
 30
0.000000
  70
    32
  0
VERTEX
  8
0
  5
204
 10
0.226806
 20
7.93185
 30
0.000000
  70
    32
  0
VERTEX
  8
0
  5
205
 10
0.222093
 20
7.93495
 30
0.000000
  70
    32
  0
VERTEX
  8
0
  5
206
 10
0.217335
 20
7.93800
 30
0.000000
  70
    32
  0
VERTEX
  8
0
  5
207
 10
0.212533
 20
7.94098
 30
0.000000
  70
    32
  0
VERTEX
  8
0
  5
208
 10
0.207686
 20
7.94389
 30
0.000000
  70
    32
  0
VERTEX
  8
0
  5
209
 10
0.202797
 20
7.94674
 30
0.000000
  70
    32
  0
VERTEX
  8
0
  5
20A
 10
0.197864
 20
7.94952
 30
0.000000
  70
    32
  0
VERTEX
  8
0
  5
20B
 10
0.192890
 20
7.95224
 30
0.000000
  70
    32
  0
VERTEX
  8
0
  5
20C
 10
0.187874
 20
7.95489
 30
0.000000
  70
    32
  0
VERTEX
  8
0
  5
20D
 10
0.182817
 20
7.95747
 30
0.000000
  70
    32
  0
VERTEX
  8
0
  5
20E
 10
0.177719
 20
7.95998
 30
0.000000
  70
    32
  0
VERTEX
  8
0
  5
20F
 10
0.172582
 20
7.96243
 30
0.000000
  70
    32
  0
VERTEX
  8
0
  5
210
 10
0.167406
 20
7.96480
 30
0.000000
  70
    32
  0
VERTEX
  8
0
  5
211
 10
0.162192
 20
7.96711
 30
0.000000
  70
    32
  0
VERTEX
  8
0
  5
212
 10
0.156939
 20
7.96934
 30
0.000000
  70
    32
  0
VERTEX
  8
0
  5
213
 10
0.151649
 20
7.97150
 30
0.000000
  70
    32
  0
VERTEX
  8
0
  5
214
 10
0.146323
 20
7.97359
 30
0.000000
  70
    32
  0
VERTEX
  8
0
  5
215
 10
0.140960
 20
7.97560
 30
0.000000
  70
    32
  0
VERTEX
  8
0
  5
216
 10
0.135562
 20
7.97755
 30
0.000000
  70
    32
  0
VERTEX
  8
0
  5
217
 10
0.130129
 20
7.97942
 30
0.000000
  70
    32
  0
VERTEX
  8
0
  5
218
 10
0.124662
 20
7.98121
 30
0.000000
  70
    32
  0
VERTEX
  8
0
  5
219
 10
0.119162
 20
7.98293
 30
0.000000
  70
    32
  0
VERTEX
  8
0
  5
21A
 10
0.113628
 20
7.98457
 30
0.000000
  70
    32
  0
VERTEX
  8
0
  5
21B
 10
0.108062
 20
7.98614
 30
0.000000
  70
    32
  0
VERTEX
  8
0
  5
21C
 10
0.102463
 20
7.98763
 30
0.000000
  70
    32
  0
VERTEX
  8
0
  5
21D
 10
0.0968342
 20
7.98904
 30
0.000000
  70
    32
  0
VERTEX
  8
0
  5
21E
 10
0.0911743
 20
7.99038
 30
0.000000
  70
    32
  0
VERTEX
  8
0
  5
21F
 10
0.0854845
 20
7.99163
 30
0.000000
  70
    32
  0
VERTEX
  8
0
  5
220
 10
0.0797652
 20
7.99281
 30
0.000000
  70
    32
  0
VERTEX
  8
0
  5
221
 10
0.0740171
 20
7.99390
 30
0.000000
  70
    32
  0
VERTEX
  8
0
  5
222
 10
0.0682408
 20
7.99492
 30
0.000000
  70
    32
  0
VERTEX
  8
0
  5
223
 10
0.0624370
 20
7.99585
 30
0.000000
  70
    32
  0
VERTEX
  8
0
  5
224
 10
0.0566062
 20
7.99670
 30
0.000000
  70
    32
  0
VERTEX
  8
0
  5
225
 10
0.0507490
 20
7.99747
 30
0.000000
  70
    32
  0
VERTEX
  8
0
  5
226
 10
0.0448660
 20
7.99816
 30
0.000000
  70
    32
  0
VERTEX
  8
0
  5
227
 10
0.0389579
 20
7.99876
 30
0.000000
  70
    32
  0
VERTEX
  8
0
  5
228
 10
0.0330253
 20
7.99928
 30
0.000000
  70
    32
  0
VERTEX
  8
0
  5
229
 10
0.0270687
 20
7.99971
 30
0.000000
  70
    32
  0
VERTEX
  8
0
  5
22A
 10
0.0210888
 20
8.00006
 30
0.000000
  70
    32
  0
VERTEX
  8
0
  5
22B
 10
0.0150861
 20
8.00032
 30
0.000000
  70
    32
  0
VERTEX
  8
0
  5
22C
 10
0.00906134
 20
8.00050
 30
0.000000
  70
    32
  0
VERTEX
  8
0
  5
22D
 10
0.00301505
 20
8.00059
 30
0.000000
  70
    32
  0
VERTEX
  8
0
  5
22E
 10
-0.00304658
 20
8.00059
 30
0.000000
  70
    32
  0
VERTEX
  8
0
  5
22F
 10
-0.00909202
 20
8.00050
 30
0.000000
  70
    32
  0
VERTEX
  8
0
  5
230
 10
-0.0151160
 20
8.00032
 30
0.000000
  70
    32
  0
VERTEX
  8
0
  5
231
 10
-0.0211178
 20
8.00006
 30
0.000000
  70
    32
  0
VERTEX
  8
0
  5
232
 10
-0.0270969
 20
7.99971
 30
0.000000
  70
    32
  0
VERTEX
  8
0
  5
233
 10
-0.0330527
 20
7.99928
 30
0.000000
  70
    32
  0
VERTEX
  8
0
  5
234
 10
-0.0389846
 20
7.99876
 30
0.000000
  70
    32
  0
VERTEX
  8
0
  5
235
 10
-0.0448920
 20
7.99816
 30
0.000000
  70
    32
  0
VERTEX
  8
0
  5
236
 10
-0.0507742
 20
7.99747
 30
0.000000
  70
    32
  0
VERTEX
  8
0
  5
237
 10
-0.0566306
 20
7.99670
 30
0.000000
  70
    32
  0
VERTEX
  8
0
  5
238
 10
-0.0624607
 20
7.99585
 30
0.000000
  70
    32
  0
VERTEX
  8
0
  5
239
 10
-0.0682639
 20
7.99492
 30
0.000000
  70
    32
  0
VERTEX
  8
0
  5
23A
 10
-0.0740395
 20
7.99390
 30
0.000000
  70
    32
  0
VERTEX
  8
0
  5
23B
 10
-0.0797869
 20
7.99281
 30
0.000000
  70
    32
  0
VERTEX
  8
0
  5
23C
 10
-0.0855055
 20
7.99163
 30
0.000000
  70
    32
  0
VERTEX
  8
0
  5
23D
 10
-0.0911947
 20
7.99038
 30
0.000000
  70
    32
  0
VERTEX
  8
0
  5
23E
 10
-0.0968540
 20
7.98904
 30
0.000000
  70
    32
  0
VERTEX
  8
0
  5
23F
 10
-0.102483
 20
7.98763
 30
0.000000
  70
    32
  0
VERTEX
  8
0
  5
240
 10
-0.108080
 20
7.98614
 30
0.000000
  70
    32
  0
VERTEX
  8
0
  5
241
 10
-0.113646
 20
7.98457
 30
0.000000
  70
    32
  0
VERTEX
  8
0
  5
242
 10
-0.119179
 20
7.98293
 30
0.000000
  70
    32
  0
VERTEX
  8
0
  5
243
 10
-0.124679
 20
7.98121
 30
0.000000
  70
    32
  0
VERTEX
  8
0
  5
244
 10
-0.130146
 20
7.97942
 30
0.000000
  70
    32
  0
VERTEX
  8
0
  5
245
 10
-0.135578
 20
7.97755
 30
0.000000
  70
    32
  0
VERTEX
  8
0
  5
246
 10
-0.140975
 20
7.97560
 30
0.000000
  70
    32
  0
VERTEX
  8
0
  5
247
 10
-0.146338
 20
7.97359
 30
0.000000
  70
    32
  0
VERTEX
  8
0
  5
248
 10
-0.151663
 20
7.97150
 30
0.000000
  70
    32
  0
VERTEX
  8
0
  5
249
 10
-0.156953
 20
7.96934
 30
0.000000
  70
    32
  0
VERTEX
  8
0
  5
24A
 10
-0.162205
 20
7.96711
 30
0.000000
  70
    32
  0
VERTEX
  8
0
  5
24B
 10
-0.167419
 20
7.96480
 30
0.000000
  70
    32
  0
VERTEX
  8
0
  5
24C
 10
-0.172595
 20
7.96243
 30
0.000000
  70
    32
  0
VERTEX
  8
0
  5
24D
 10
-0.177731
 20
7.95998
 30
0.000000
  70
    32
  0
VERTEX
  8
0
  5
24E
 10
-0.182828
 20
7.95747
 30
0.000000
  70
    32
  0
VERTEX
  8
0
  5
24F
 10
-0.187885
 20
7.95489
 30
0.000000
  70
    32
  0
VERTEX
  8
0
  5
250
 10
-0.192900
 20
7.95224
 30
0.000000
  70
    32
  0
VERTEX
  8
0
  5
251
 10
-0.197874
 20
7.94952
 30
0.000000
  70
    32
  0
VERTEX
  8
0
  5
252
 10
-0.202806
 20
7.94674
 30
0.000000
  70
    32
  0
VERTEX
  8
0
  5
253
 10
-0.207696
 20
7.94389
 30
0.000000
  70
    32
  0
VERTEX
  8
0
  5
254
 10
-0.212542
 20
7.94098
 30
0.000000
  70
    32
  0
VERTEX
  8
0
  5
255
 10
-0.217344
 20
7.93800
 30
0.000000
  70
    32
  0
VERTEX
  8
0
  5
256
 10
-0.222101
 20
7.93495
 30
0.000000
  70
    32
  0
VERTEX
  8
0
  5
257
 10
-0.226814
 20
7.93185
 30
0.000000
  70
    32
  0
VERTEX
  8
0
  5
258
 10
-0.231480
 20
7.92868
 30
0.000000
  70
    32
  0
VERTEX
  8
0
  5
259
 10
-0.236100
 20
7.92544
 30
0.000000
  70
    32
  0
VERTEX
  8
0
  5
25A
 10
-0.240673
 20
7.92215
 30
0.000000
  70
    32
  0
VERTEX
  8
0
  5
25B
 10
-0.245199
 20
7.91879
 30
0.000000
  70
    32
  0
VERTEX
  8
0
  5
25C
 10
-0.249676
 20
7.91537
 30
0.000000
  70
    32
  0
VERTEX
  8
0
  5
25D
 10
-0.254105
 20
7.91190
 30
0.000000
  70
    32
  0
VERTEX
  8
0
  5
25E
 10
-0.258484
 20
7.90836
 30
0.000000
  70
    32
  0
VERTEX
  8
0
  5
25F
 10
-0.262814
 20
7.90477
 30
0.000000
  70
    32
  0
VERTEX
  8
0
  5
260
 10
-0.267092
 20
7.90111
 30
0.000000
  70
    32
  0
VERTEX
  8
0
  5
261
 10
-0.271320
 20
7.89740
 30
0.000000
  70
    32
  0
VERTEX
  8
0
  5
262
 10
-0.275495
 20
7.89363
 30
0.000000
  70
    32
  0
VERTEX
  8
0
  5
263
 10
-0.279618
 20
7.88981
 30
0.000000
  70
    32
  0
VERTEX
  8
0
  5
264
 10
-0.283688
 20
7.88593
 30
0.000000
  70
    32
  0
VERTEX
  8
0
  5
265
 10
-0.287705
 20
7.88199
 30
0.000000
  70
    32
  0
VERTEX
  8
0
  5
266
 10
-0.291667
 20
7.87800
 30
0.000000
  70
    32
  0
VERTEX
  8
0
  5
267
 10
-0.295574
 20
7.87396
 30
0.000000
  70
    32
  0
VERTEX
  8
0
  5
268
 10
-0.299426
 20
7.86986
 30
0.000000
  70
    32
  0
VERTEX
  8
0
  5
269
 10
-0.303222
 20
7.86571
 30
0.000000
  70
    32
  0
VERTEX
  8
0
  5
26A
 10
-0.306961
 20
7.86151
 30
0.000000
  70
    32
  0
VERTEX
  8
0
  5
26B
 10
-0.310643
 20
7.85726
 30
0.000000
  70
    32
  0
VERTEX
  8
0
  5
26C
 10
-0.314266
 20
7.85295
 30
0.000000
  70
    32
  0
VERTEX
  8
0
  5
26D
 10
-0.317832
 20
7.84860
 30
0.000000
  70
    32
  0
VERTEX
  8
0
  5
26E
 10
-0.321338
 20
7.84419
 30
0.000000
  70
    32
  0
VERTEX
  8
0
  5
26F
 10
-0.324785
 20
7.83974
 30
0.000000
  70
    32
  0
VERTEX
  8
0
  5
270
 10
-0.328171
 20
7.83523
 30
0.000000
  70
    32
  0
VERTEX
  8
0
  5
271
 10
-0.331496
 20
7.83068
 30
0.000000
  70
    32
  0
VERTEX
  8
0
  5
272
 10
-0.334760
 20
7.82609
 30
0.000000
  70
    32
  0
VERTEX
  8
0
  5
273
 10
-0.337962
 20
7.82144
 30
0.000000
  70
    32
  0
VERTEX
  8
0
  5
274
 10
-0.341101
 20
7.81675
 30
0.000000
  70
    32
  0
VERTEX
  8
0
  5
275
 10
-0.344176
 20
7.81201
 30
0.000000
  70
    32
  0
VERTEX
  8
0
  5
276
 10
-0.347188
 20
7.80723
 30
0.000000
  70
    32
  0
VERTEX
  8
0
  5
277
 10
-0.350135
 20
7.80241
 30
0.000000
  70
    32
  0
VERTEX
  8
0
  5
278
 10
-0.353017
 20
7.79754
 30
0.000000
  70
    32
  0
VERTEX
  8
0
  5
279
 10
-0.355833
 20
7.79263
 30
0.000000
  70
    32
  0
VERTEX
  8
0
  5
27A
 10
-0.358582
 20
7.78767
 30
0.000000
  70
    32
  0
VERTEX
  8
0
  5
27B
 10
-0.361265
 20
7.78268
 30
0.000000
  70
    32
  0
VERTEX
  8
0
  5
27C
 10
-0.363880
 20
7.77764
 30
0.000000
  70
    32
  0
VERTEX
  8
0
  5
27D
 10
-0.366427
 20
7.77256
 30
0.000000
  70
    32
  0
VERTEX
  8
0
  5
27E
 10
-0.368905
 20
7.76744
 30
0.000000
  70
    32
  0
VERTEX
  8
0
  5
27F
 10
-0.371314
 20
7.76229
 30
0.000000
  70
    32
  0
VERTEX
  8
0
  5
280
 10
-0.373652
 20
7.75709
 30
0.000000
  70
    32
  0
VERTEX
  8
0
  5
281
 10
-0.375920
 20
7.75186
 30
0.000000
  70
    32
  0
VERTEX
  8
0
  5
282
 10
-0.378117
 20
7.74658
 30
0.000000
  70
    32
  0
VERTEX
  8
0
  5
283
 10
-0.380242
 20
7.74127
 30
0.000000
  70
    32
  0
VERTEX
  8
0
  5
284
 10
-0.382295
 20
7.73593
 30
0.000000
  70
    32
  0
VERTEX
  8
0
  5
285
 10
-0.384274
 20
7.73055
 30
0.000000
  70
    32
  0
VERTEX
  8
0
  5
286
 10
-0.386180
 20
7.72513
 30
0.000000
  70
    32
  0
VERTEX
  8
0
  5
287
 10
-0.388011
 20
7.71968
 30
0.000000
  70
    32
  0
VERTEX
  8
0
  5
288
 10
-0.389768
 20
7.71419
 30
0.000000
  70
    32
  0
VERTEX
  8
0
  5
289
 10
-0.391449
 20
7.70868
 30
0.000000
  70
    32
  0
VERTEX
  8
0
  5
28A
 10
-0.393054
 20
7.70312
 30
0.000000
  70
    32
  0
VERTEX
  8
0
  5
28B
 10
-0.394582
 20
7.69754
 30
0.000000
  70
    32
  0
VERTEX
  8
0
  5
28C
 10
-0.396033
 20
7.69193
 30
0.000000
  70
    32
  0
VERTEX
  8
0
  5
28D
 10
-0.397406
 20
7.68628
 30
0.000000
  70
    32
  0
VERTEX
  8
0
  5
28E
 10
-0.398701
 20
7.68060
 30
0.000000
  70
    32
  0
VERTEX
  8
0
  5
28F
 10
-0.399916
 20
7.67490
 30
0.000000
  70
    32
  0
VERTEX
  8
0
  5
290
 10
-0.401052
 20
7.66916
 30
0.000000
  70
    32
  0
VERTEX
  8
0
  5
291
 10
-0.402107
 20
7.66340
 30
0.000000
  70
    32
  0
VERTEX
  8
0
  5
292
 10
-0.403082
 20
7.65761
 30
0.000000
  70
    32
  0
VERTEX
  8
0
  5
293
 10
-0.403975
 20
7.65179
 30
0.000000
  70
    32
  0
VERTEX
  8
0
  5
294
 10
-0.404785
 20
7.64594
 30
0.000000
  70
    32
  0
VERTEX
  8
0
  5
295
 10
-0.405513
 20
7.64007
 30
0.000000
  70
    32
  0
VERTEX
  8
0
  5
296
 10
-0.406158
 20
7.63417
 30
0.000000
  70
    32
  0
VERTEX
  8
0
  5
297
 10
-0.406719
 20
7.62825
 30
0.000000
  70
    32
  0
VERTEX
  8
0
  5
298
 10
-0.407195
 20
7.62231
 30
0.000000
  70
    32
  0
VERTEX
  8
0
  5
299
 10
-0.407585
 20
7.61634
 30
0.000000
  70
    32
  0
VERTEX
  8
0
  5
29A
 10
-0.407890
 20
7.61034
 30
0.000000
  70
    32
  0
VERTEX
  8
0
  5
29B
 10
-0.408109
 20
7.60433
 30
0.000000
  70
    32
  0
VERTEX
  8
0
  5
29C
 10
-0.408241
 20
7.59829
 30
0.000000
  70
    32
  0
VERTEX
  8
0
  5
29D
 10
-0.408285
 20
7.59223
 30
0.000000
  70
    32
  0
SEQEND
  8
0
  5
29E
  0
POLYLINE
  8
0
  5
29F
  66
     1
 10
0.000000
 20
0.000000
 30
0.000000
  70
     8
  0
VERTEX
  8
0
  5
2A0
 10
0.225546
 20
10.6631
 30
0.000000
  70
    32
  0
VERTEX
  8
0
  5
2A1
 10
0.225629
 20
10.6594
 30
0.000000
  70
    32
  0
VERTEX
  8
0
  5
2A2
 10
0.225748
 20
10.6557
 30
0.000000
  70
    32
  0
VERTEX
  8
0
  5
2A3
 10
0.225906
 20
10.6521
 30
0.000000
  70
    32
  0
VERTEX
  8
0
  5
2A4
 10
0.226100
 20
10.6485
 30
0.000000
  70
    32
  0
VERTEX
  8
0
  5
2A5
 10
0.226331
 20
10.6448
 30
0.000000
  70
    32
  0
VERTEX
  8
0
  5
2A6
 10
0.226599
 20
10.6412
 30
0.000000
  70
    32
  0
VERTEX
  8
0
  5
2A7
 10
0.226904
 20
10.6376
 30
0.000000
  70
    32
  0
VERTEX
  8
0
  5
2A8
 10
0.227246
 20
10.6340
 30
0.000000
  70
    32
  0
VERTEX
  8
0
  5
2A9
 10
0.227624
 20
10.6304
 30
0.000000
  70
    32
  0
VERTEX
  8
0
  5
2AA
 10
0.228038
 20
10.6268
 30
0.000000
  70
    32
  0
VERTEX
  8
0
  5
2AB
 10
0.228488
 20
10.6232
 30
0.000000
  70
    32
  0
VERTEX
  8
0
  5
2AC
 10
0.228974
 20
10.6197
 30
0.000000
  70
    32
  0
VERTEX
  8
0
  5
2AD
 10
0.229495
 20
10.6161
 30
0.000000
  70
    32
  0
VERTEX
  8
0
  5
2AE
 10
0.230052
 20
10.6126
 30
0.000000
  70
    32
  0
VERTEX
  8
0
  5
2AF
 10
0.230645
 20
10.6090
 30
0.000000
  70
    32
  0
VERTEX
  8
0
  5
2B0
 10
0.231273
 20
10.6055
 30
0.000000
  70
    32
  0
VERTEX
  8
0
  5
2B1
 10
0.231936
 20
10.6020
 30
0.000000
  70
    32
  0
VERTEX
  8
0
  5
2B2
 10
0.232634
 20
10.5985
 30
0.000000
  70
    32
  0
VERTEX
  8
0
  5
2B3
 10
0.233366
 20
10.5950
 30
0.000000
  70
    32
  0
VERTEX
  8
0
  5
2B4
 10
0.234133
 20
10.5915
 30
0.000000
  70
    32
  0
VERTEX
  8
0
  5
2B5
 10
0.234935
 20
10.5881
 30
0.000000
  70
    32
  0
VERTEX
  8
0
  5
2B6
 10
0.235770
 20
10.5846
 30
0.000000
  70
    32
  0
VERTEX
  8
0
  5
2B7
 10
0.236640
 20
10.5812
 30
0.000000
  70
    32
  0
VERTEX
  8
0
  5
2B8
 10
0.237544
 20
10.5778
 30
0.000000
  70
    32
  0
VERTEX
  8
0
  5
2B9
 10
0.238481
 20
10.5743
 30
0.000000
  70
    32
  0
VERTEX
  8
0
  5
2BA
 10
0.239452
 20
10.5709
 30
0.000000
  70
    32
  0
VERTEX
  8
0
  5
2BB
 10
0.240457
 20
10.5675
 30
0.000000
  70
    32
  0
VERTEX
  8
0
  5
2BC
 10
0.241495
 20
10.5642
 30
0.000000
  70
    32
  0
VERTEX
  8
0
  5
2BD
 10
0.242565
 20
10.5608
 30
0.000000
  70
    32
  0
VERTEX
  8
0
  5
2BE
 10
0.243669
 20
10.5574
 30
0.000000
  70
    32
  0
VERTEX
  8
0
  5
2BF
 10
0.244806
 20
10.5541
 30
0.000000
  70
    32
  0
VERTEX
  8
0
  5
2C0
 10
0.245975
 20
10.5508
 30
0.000000
  70
    32
  0
VERTEX
  8
0
  5
2C1
 10
0.247176
 20
10.5475
 30
0.000000
  70
    32
  0
VERTEX
  8
0
  5
2C2
 10
0.248410
 20
10.5442
 30
0.000000
  70
    32
  0
VERTEX
  8
0
  5
2C3
 10
0.249676
 20
10.5409
 30
0.000000
  70
    32
  0
VERTEX
  8
0
  5
2C4
 10
0.250974
 20
10.5376
 30
0.000000
  70
    32
  0
VERTEX
  8
0
  5
2C5
 10
0.252303
 20
10.5344
 30
0.000000
  70
    32
  0
VERTEX
  8
0
  5
2C6
 10
0.253664
 20
10.5312
 30
0.000000
  70
    32
  0
VERTEX
  8
0
  5
2C7
 10
0.255057
 20
10.5279
 30
0.000000
  70
    32
  0
VERTEX
  8
0
  5
2C8
 10
0.256481
 20
10.5247
 30
0.000000
  70
    32
  0
VERTEX
  8
0
  5
2C9
 10
0.257936
 20
10.5215
 30
0.000000
  70
    32
  0
VERTEX
  8
0
  5
2CA
 10
0.259422
 20
10.5184
 30
0.000000
  70
    32
  0
VERTEX
  8
0
  5
2CB
 10
0.260939
 20
10.5152
 30
0.000000
  70
    32
  0
VERTEX
  8
0
  5
2CC
 10
0.262486
 20
10.5121
 30
0.000000
  70
    32
  0
VERTEX
  8
0
  5
2CD
 10
0.264064
 20
10.5090
 30
0.000000
  70
    32
  0
VERTEX
  8
0
  5
2CE
 10
0.265672
 20
10.5059
 30
0.000000
  70
    32
  0
VERTEX
  8
0
  5
2CF
 10
0.267311
 20
10.5028
 30
0.000000
  70
    32
  0
VERTEX
  8
0
  5
2D0
 10
0.268979
 20
10.4997
 30
0.000000
  70
    32
  0
VERTEX
  8
0
  5
2D1
 10
0.270677
 20
10.4967
 30
0.000000
  70
    32
  0
VERTEX
  8
0
  5
2D2
 10
0.272405
 20
10.4936
 30
0.000000
  70
    32
  0
VERTEX
  8
0
  5
2D3
 10
0.274162
 20
10.4906
 30
0.000000
  70
    32
  0
VERTEX
  8
0
  5
2D4
 10
0.275949
 20
10.4876
 30
0.000000
  70
    32
  0
VERTEX
  8
0
  5
2D5
 10
0.277764
 20
10.4846
 30
0.000000
  70
    32
  0
VERTEX
  8
0
  5
2D6
 10
0.279609
 20
10.4817
 30
0.000000
  70
    32
  0
VERTEX
  8
0
  5
2D7
 10
0.281482
 20
10.4787
 30
0.000000
  70
    32
  0
VERTEX
  8
0
  5
2D8
 10
0.283385
 20
10.4758
 30
0.000000
  70
    32
  0
VERTEX
  8
0
  5
2D9
 10
0.285315
 20
10.4729
 30
0.000000
  70
    32
  0
VERTEX
  8
0
  5
2DA
 10
0.287274
 20
10.4700
 30
0.000000
  70
    32
  0
VERTEX
  8
0
  5
2DB
 10
0.289261
 20
10.4672
 30
0.000000
  70
    32
  0
VERTEX
  8
0
  5
2DC
 10
0.291276
 20
10.4643
 30
0.000000
  70
    32
  0
VERTEX
  8
0
  5
2DD
 10
0.293319
 20
10.4615
 30
0.000000
  70
    32
  0
VERTEX
  8
0
  5
2DE
 10
0.295390
 20
10.4587
 30
0.000000
  70
    32
  0
VERTEX
  8
0
  5
2DF
 10
0.297488
 20
10.4559
 30
0.000000
  70
    32
  0
VERTEX
  8
0
  5
2E0
 10
0.299614
 20
10.4531
 30
0.000000
  70
    32
  0
VERTEX
  8
0
  5
2E1
 10
0.301766
 20
10.4504
 30
0.000000
  70
    32
  0
VERTEX
  8
0
  5
2E2
 10
0.303946
 20
10.4477
 30
0.000000
  70
    32
  0
VERTEX
  8
0
  5
2E3
 10
0.306152
 20
10.4450
 30
0.000000
  70
    32
  0
VERTEX
  8
0
  5
2E4
 10
0.308386
 20
10.4423
 30
0.000000
  70
    32
  0
VERTEX
  8
0
  5
2E5
 10
0.310645
 20
10.4397
 30
0.000000
  70
    32
  0
VERTEX
  8
0
  5
2E6
 10
0.312932
 20
10.4370
 30
0.000000
  70
    32
  0
VERTEX
  8
0
  5
2E7
 10
0.315244
 20
10.4344
 30
0.000000
  70
    32
  0
VERTEX
  8
0
  5
2E8
 10
0.317582
 20
10.4318
 30
0.000000
  70
    32
  0
VERTEX
  8
0
  5
2E9
 10
0.319946
 20
10.4293
 30
0.000000
  70
    32
  0
VERTEX
  8
0
  5
2EA
 10
0.322336
 20
10.4267
 30
0.000000
  70
    32
  0
VERTEX
  8
0
  5
2EB
 10
0.324752
 20
10.4242
 30
0.000000
  70
    32
  0
VERTEX
  8
0
  5
2EC
 10
0.327192
 20
10.4217
 30
0.000000
  70
    32
  0
VERTEX
  8
0
  5
2ED
 10
0.329658
 20
10.4193
 30
0.000000
  70
    32
  0
VERTEX
  8
0
  5
2EE
 10
0.332149
 20
10.4168
 30
0.000000
  70
    32
  0
VERTEX
  8
0
  5
2EF
 10
0.334665
 20
10.4144
 30
0.000000
  70
    32
  0
VERTEX
  8
0
  5
2F0
 10
0.337206
 20
10.4120
 30
0.000000
  70
    32
  0
VERTEX
  8
0
  5
2F1
 10
0.339771
 20
10.4096
 30
0.000000
  70
    32
  0
VERTEX
  8
0
  5
2F2
 10
0.342361
 20
10.4073
 30
0.000000
  70
    32
  0
VERTEX
  8
0
  5
2F3
 10
0.344974
 20
10.4049
 30
0.000000
  70
    32
  0
VERTEX
  8
0
  5
2F4
 10
0.347612
 20
10.4026
 30
0.000000
  70
    32
  0
VERTEX
  8
0
  5
2F5
 10
0.350274
 20
10.4004
 30
0.000000
  70
    32
  0
VERTEX
  8
0
  5
2F6
 10
0.352960
 20
10.3981
 30
0.000000
  70
    32
  0
VERTEX
  8
0
  5
2F7
 10
0.355669
 20
10.3959
 30
0.000000
  70
    32
  0
VERTEX
  8
0
  5
2F8
 10
0.358401
 20
10.3937
 30
0.000000
  70
    32
  0
VERTEX
  8
0
  5
2F9
 10
0.361157
 20
10.3915
 30
0.000000
  70
    32
  0
VERTEX
  8
0
  5
2FA
 10
0.363935
 20
10.3894
 30
0.000000
  70
    32
  0
VERTEX
  8
0
  5
2FB
 10
0.366737
 20
10.3873
 30
0.000000
  70
    32
  0
VERTEX
  8
0
  5
2FC
 10
0.369562
 20
10.3852
 30
0.000000
  70
    32
  0
VERTEX
  8
0
  5
2FD
 10
0.372408
 20
10.3831
 30
0.000000
  70
    32
  0
VERTEX
  8
0
  5
2FE
 10
0.375278
 20
10.3811
 30
0.000000
  70
    32
  0
VERTEX
  8
0
  5
2FF
 10
0.378170
 20
10.3791
 30
0.000000
  70
    32
  0
VERTEX
  8
0
  5
300
 10
0.381083
 20
10.3771
 30
0.000000
  70
    32
  0
VERTEX
  8
0
  5
301
 10
0.384019
 20
10.3751
 30
0.000000
  70
    32
  0
VERTEX
  8
0
  5
302
 10
0.386976
 20
10.3732
 30
0.000000
  70
    32
  0
VERTEX
  8
0
  5
303
 10
0.389955
 20
10.3713
 30
0.000000
  70
    32
  0
VERTEX
  8
0
  5
304
 10
0.392956
 20
10.3694
 30
0.000000
  70
    32
  0
VERTEX
  8
0
  5
305
 10
0.395978
 20
10.3676
 30
0.000000
  70
    32
  0
VERTEX
  8
0
  5
306
 10
0.399020
 20
10.3658
 30
0.000000
  70
    32
  0
VERTEX
  8
0
  5
307
 10
0.402084
 20
10.3640
 30
0.000000
  70
    32
  0
VERTEX
  8
0
  5
308
 10
0.405169
 20
10.3623
 30
0.000000
  70
    32
  0
VERTEX
  8
0
  5
309
 10
0.408274
 20
10.3605
 30
0.000000
  70
    32
  0
VERTEX
  8
0
  5
30A
 10
0.411400
 20
10.3588
 30
0.000000
  70
    32
  0
VERTEX
  8
0
  5
30B
 10
0.414545
 20
10.3572
 30
0.000000
  70
    32
  0
VERTEX
  8
0
  5
30C
 10
0.417711
 20
10.3556
 30
0.000000
  70
    32
  0
VERTEX
  8
0
  5
30D
 10
0.420897
 20
10.3540
 30
0.000000
  70
    32
  0
VERTEX
  8
0
  5
30E
 10
0.424103
 20
10.3524
 30
0.000000
  70
    32
  0
VERTEX
  8
0
  5
30F
 10
0.427328
 20
10.3508
 30
0.000000
  70
    32
  0
VERTEX
  8
0
  5
310
 10
0.430573
 20
10.3493
 30
0.000000
  70
    32
  0
VERTEX
  8
0
  5
311
 10
0.433837
 20
10.3479
 30
0.000000
  70
    32
  0
VERTEX
  8
0
  5
312
 10
0.437121
 20
10.3464
 30
0.000000
  70
    32
  0
VERTEX
  8
0
  5
313
 10
0.440423
 20
10.3450
 30
0.000000
  70
    32
  0
VERTEX
  8
0
  5
314
 10
0.443744
 20
10.3436
 30
0.000000
  70
    32
  0
VERTEX
  8
0
  5
315
 10
0.447084
 20
10.3423
 30
0.000000
  70
    32
  0
VERTEX
  8
0
  5
316
 10
0.450442
 20
10.3409
 30
0.000000
  70
    32
  0
VERTEX
  8
0
  5
317
 10
0.453818
 20
10.3396
 30
0.000000
  70
    32
  0
VERTEX
  8
0
  5
318
 10
0.457213
 20
10.3384
 30
0.000000
  70
    32
  0
VERTEX
  8
0
  5
319
 10
0.460625
 20
10.3372
 30
0.000000
  70
    32
  0
VERTEX
  8
0
  5
31A
 10
0.464056
 20
10.3360
 30
0.000000
  70
    32
  0
VERTEX
  8
0
  5
31B
 10
0.467504
 20
10.3348
 30
0.000000
  70
    32
  0
VERTEX
  8
0
  5
31C
 10
0.470969
 20
10.3337
 30
0.000000
  70
    32
  0
VERTEX
  8
0
  5
31D
 10
0.474452
 20
10.3326
 30
0.000000
  70
    32
  0
VERTEX
  8
0
  5
31E
 10
0.477952
 20
10.3316
 30
0.000000
  70
    32
  0
VERTEX
  8
0
  5
31F
 10
0.481469
 20
10.3306
 30
0.000000
  70
    32
  0
SEQEND
  8
0
  5
320
  0
POLYLINE
  8
0
  5
321
  66
     1
 10
0.000000
 20
0.000000
 30
0.000000
  70
     8
  0
VERTEX
  8
0
  5
322
 10
-0.221232
 20
11.5780
 30
0.000000
  70
    32
  0
VERTEX
  8
0
  5
323
 10
-0.221208
 20
11.5747
 30
0.000000
  70
    32
  0
VERTEX
  8
0
  5
324
 10
-0.221137
 20
11.5714
 30
0.000000
  70
    32
  0
VERTEX
  8
0
  5
325
 10
-0.221018
 20
11.5681
 30
0.000000
  70
    32
  0
VERTEX
  8
0
  5
326
 10
-0.220853
 20
11.5649
 30
0.000000
  70
    32
  0
VERTEX
  8
0
  5
327
 10
-0.220641
 20
11.5617
 30
0.000000
  70
    32
  0
VERTEX
  8
0
  5
328
 10
-0.220384
 20
11.5584
 30
0.000000
  70
    32
  0
VERTEX
  8
0
  5
329
 10
-0.220080
 20
11.5552
 30
0.000000
  70
    32
  0
VERTEX
  8
0
  5
32A
 10
-0.219731
 20
11.5520
 30
0.000000
  70
    32
  0
VERTEX
  8
0
  5
32B
 10
-0.219336
 20
11.5489
 30
0.000000
  70
    32
  0
VERTEX
  8
0
  5
32C
 10
-0.218897
 20
11.5457
 30
0.000000
  70
    32
  0
VERTEX
  8
0
  5
32D
 10
-0.218413
 20
11.5425
 30
0.000000
  70
    32
  0
VERTEX
  8
0
  5
32E
 10
-0.217885
 20
11.5394
 30
0.000000
  70
    32
  0
VERTEX
  8
0
  5
32F
 10
-0.217313
 20
11.5363
 30
0.000000
  70
    32
  0
VERTEX
  8
0
  5
330
 10
-0.216698
 20
11.5332
 30
0.000000
  70
    32
  0
VERTEX
  8
0
  5
331
 10
-0.216040
 20
11.5301
 30
0.000000
  70
    32
  0
VERTEX
  8
0
  5
332
 10
-0.215338
 20
11.5270
 30
0.000000
  70
    32
  0
VERTEX
  8
0
  5
333
 10
-0.214594
 20
11.5239
 30
0.000000
  70
    32
  0
VERTEX
  8
0
  5
334
 10
-0.213808
 20
11.5209
 30
0.000000
  70
    32
  0
VERTEX
  8
0
  5
335
 10
-0.212980
 20
11.5179
 30
0.000000
  70
    32
  0
VERTEX
  8
0
  5
336
 10
-0.212111
 20
11.5149
 30
0.000000
  70
    32
  0
VERTEX
  8
0
  5
337
 10
-0.211200
 20
11.5119
 30
0.000000
  70
    32
  0
VERTEX
  8
0
  5
338
 10
-0.210248
 20
11.5089
 30
0.000000
  70
    32
  0
VERTEX
  8
0
  5
339
 10
-0.209256
 20
11.5060
 30
0.000000
  70
    32
  0
VERTEX
  8
0
  5
33A
 10
-0.208223
 20
11.5030
 30
0.000000
  70
    32
  0
VERTEX
  8
0
  5
33B
 10
-0.207151
 20
11.5001
 30
0.000000
  70
    32
  0
VERTEX
  8
0
  5
33C
 10
-0.206039
 20
11.4972
 30
0.000000
  70
    32
  0
VERTEX
  8
0
  5
33D
 10
-0.204888
 20
11.4943
 30
0.000000
  70
    32
  0
VERTEX
  8
0
  5
33E
 10
-0.203697
 20
11.4915
 30
0.000000
  70
    32
  0
VERTEX
  8
0
  5
33F
 10
-0.202469
 20
11.4886
 30
0.000000
  70
    32
  0
VERTEX
  8
0
  5
340
 10
-0.201201
 20
11.4858
 30
0.000000
  70
    32
  0
VERTEX
  8
0
  5
341
 10
-0.199896
 20
11.4830
 30
0.000000
  70
    32
  0
VERTEX
  8
0
  5
342
 10
-0.198554
 20
11.4803
 30
0.000000
  70
    32
  0
VERTEX
  8
0
  5
343
 10
-0.197174
 20
11.4775
 30
0.000000
  70
    32
  0
VERTEX
  8
0
  5
344
 10
-0.195757
 20
11.4748
 30
0.000000
  70
    32
  0
VERTEX
  8
0
  5
345
 10
-0.194304
 20
11.4721
 30
0.000000
  70
    32
  0
VERTEX
  8
0
  5
346
 10
-0.192814
 20
11.4694
 30
0.000000
  70
    32
  0
VERTEX
  8
0
  5
347
 10
-0.191288
 20
11.4667
 30
0.000000
  70
    32
  0
VERTEX
  8
0
  5
348
 10
-0.189727
 20
11.4641
 30
0.000000
  70
    32
  0
VERTEX
  8
0
  5
349
 10
-0.188130
 20
11.4615
 30
0.000000
  70
    32
  0
VERTEX
  8
0
  5
34A
 10
-0.186498
 20
11.4589
 30
0.000000
  70
    32
  0
VERTEX
  8
0
  5
34B
 10
-0.184832
 20
11.4563
 30
0.000000
  70
    32
  0
VERTEX
  8
0
  5
34C
 10
-0.183131
 20
11.4538
 30
0.000000
  70
    32
  0
VERTEX
  8
0
  5
34D
 10
-0.181396
 20
11.4513
 30
0.000000
  70
    32
  0
VERTEX
  8
0
  5
34E
 10
-0.179628
 20
11.4488
 30
0.000000
  70
    32
  0
VERTEX
  8
0
  5
34F
 10
-0.177826
 20
11.4463
 30
0.000000
  70
    32
  0
VERTEX
  8
0
  5
350
 10
-0.175992
 20
11.4439
 30
0.000000
  70
    32
  0
VERTEX
  8
0
  5
351
 10
-0.174124
 20
11.4415
 30
0.000000
  70
    32
  0
VERTEX
  8
0
  5
352
 10
-0.172224
 20
11.4391
 30
0.000000
  70
    32
  0
VERTEX
  8
0
  5
353
 10
-0.170293
 20
11.4367
 30
0.000000
  70
    32
  0
VERTEX
  8
0
  5
354
 10
-0.168329
 20
11.4344
 30
0.000000
  70
    32
  0
VERTEX
  8
0
  5
355
 10
-0.166334
 20
11.4321
 30
0.000000
  70
    32
  0
VERTEX
  8
0
  5
356
 10
-0.164308
 20
11.4298
 30
0.000000
  70
    32
  0
VERTEX
  8
0
  5
357
 10
-0.162252
 20
11.4276
 30
0.000000
  70
    32
  0
VERTEX
  8
0
  5
358
 10
-0.160165
 20
11.4253
 30
0.000000
  70
    32
  0
VERTEX
  8
0
  5
359
 10
-0.158048
 20
11.4231
 30
0.000000
  70
    32
  0
VERTEX
  8
0
  5
35A
 10
-0.155901
 20
11.4210
 30
0.000000
  70
    32
  0
VERTEX
  8
0
  5
35B
 10
-0.153725
 20
11.4189
 30
0.000000
  70
    32
  0
VERTEX
  8
0
  5
35C
 10
-0.151520
 20
11.4167
 30
0.000000
  70
    32
  0
VERTEX
  8
0
  5
35D
 10
-0.149286
 20
11.4147
 30
0.000000
  70
    32
  0
VERTEX
  8
0
  5
35E
 10
-0.147023
 20
11.4126
 30
0.000000
  70
    32
  0
VERTEX
  8
0
  5
35F
 10
-0.144733
 20
11.4106
 30
0.000000
  70
    32
  0
VERTEX
  8
0
  5
360
 10
-0.142414
 20
11.4086
 30
0.000000
  70
    32
  0
VERTEX
  8
0
  5
361
 10
-0.140069
 20
11.4067
 30
0.000000
  70
    32
  0
VERTEX
  8
0
  5
362
 10
-0.137696
 20
11.4048
 30
0.000000
  70
    32
  0
VERTEX
  8
0
  5
363
 10
-0.135296
 20
11.4029
 30
0.000000
  70
    32
  0
VERTEX
  8
0
  5
364
 10
-0.132870
 20
11.4011
 30
0.000000
  70
    32
  0
VERTEX
  8
0
  5
365
 10
-0.130418
 20
11.3992
 30
0.000000
  70
    32
  0
VERTEX
  8
0
  5
366
 10
-0.127940
 20
11.3974
 30
0.000000
  70
    32
  0
VERTEX
  8
0
  5
367
 10
-0.125437
 20
11.3957
 30
0.000000
  70
    32
  0
VERTEX
  8
0
  5
368
 10
-0.122908
 20
11.3940
 30
0.000000
  70
    32
  0
VERTEX
  8
0
  5
369
 10
-0.120355
 20
11.3923
 30
0.000000
  70
    32
  0
VERTEX
  8
0
  5
36A
 10
-0.117777
 20
11.3906
 30
0.000000
  70
    32
  0
VERTEX
  8
0
  5
36B
 10
-0.115175
 20
11.3890
 30
0.000000
  70
    32
  0
VERTEX
  8
0
  5
36C
 10
-0.112550
 20
11.3875
 30
0.000000
  70
    32
  0
VERTEX
  8
0
  5
36D
 10
-0.109900
 20
11.3859
 30
0.000000
  70
    32
  0
VERTEX
  8
0
  5
36E
 10
-0.107228
 20
11.3844
 30
0.000000
  70
    32
  0
VERTEX
  8
0
  5
36F
 10
-0.104533
 20
11.3829
 30
0.000000
  70
    32
  0
VERTEX
  8
0
  5
370
 10
-0.101815
 20
11.3815
 30
0.000000
  70
    32
  0
VERTEX
  8
0
  5
371
 10
-0.0990753
 20
11.3801
 30
0.000000
  70
    32
  0
VERTEX
  8
0
  5
372
 10
-0.0963136
 20
11.3787
 30
0.000000
  70
    32
  0
VERTEX
  8
0
  5
373
 10
-0.0935304
 20
11.3774
 30
0.000000
  70
    32
  0
VERTEX
  8
0
  5
374
 10
-0.0907259
 20
11.3761
 30
0.000000
  70
    32
  0
VERTEX
  8
0
  5
375
 10
-0.0879007
 20
11.3749
 30
0.000000
  70
    32
  0
VERTEX
  8
0
  5
376
 10
-0.0850549
 20
11.3737
 30
0.000000
  70
    32
  0
VERTEX
  8
0
  5
377
 10
-0.0821889
 20
11.3725
 30
0.000000
  70
    32
  0
VERTEX
  8
0
  5
378
 10
-0.0793030
 20
11.3714
 30
0.000000
  70
    32
  0
VERTEX
  8
0
  5
379
 10
-0.0763975
 20
11.3703
 30
0.000000
  70
    32
  0
VERTEX
  8
0
  5
37A
 10
-0.0734729
 20
11.3692
 30
0.000000
  70
    32
  0
VERTEX
  8
0
  5
37B
 10
-0.0705294
 20
11.3682
 30
0.000000
  70
    32
  0
VERTEX
  8
0
  5
37C
 10
-0.0675673
 20
11.3672
 30
0.000000
  70
    32
  0
VERTEX
  8
0
  5
37D
 10
-0.0645870
 20
11.3663
 30
0.000000
  70
    32
  0
VERTEX
  8
0
  5
37E
 10
-0.0615887
 20
11.3654
 30
0.000000
  70
    32
  0
VERTEX
  8
0
  5
37F
 10
-0.0585730
 20
11.3646
 30
0.000000
  70
    32
  0
VERTEX
  8
0
  5
380
 10
-0.0555399
 20
11.3638
 30
0.000000
  70
    32
  0
VERTEX
  8
0
  5
381
 10
-0.0524900
 20
11.3630
 30
0.000000
  70
    32
  0
VERTEX
  8
0
  5
382
 10
-0.0494234
 20
11.3623
 30
0.000000
  70
    32
  0
VERTEX
  8
0
  5
383
 10
-0.0463406
 20
11.3616
 30
0.000000
  70
    32
  0
VERTEX
  8
0
  5
384
 10
-0.0432419
 20
11.3610
 30
0.000000
  70
    32
  0
VERTEX
  8
0
  5
385
 10
-0.0401276
 20
11.3604
 30
0.000000
  70
    32
  0
VERTEX
  8
0
  5
386
 10
-0.0369980
 20
11.3598
 30
0.000000
  70
    32
  0
VERTEX
  8
0
  5
387
 10
-0.0338534
 20
11.3593
 30
0.000000
  70
    32
  0
VERTEX
  8
0
  5
388
 10
-0.0306942
 20
11.3589
 30
0.000000
  70
    32
  0
VERTEX
  8
0
  5
389
 10
-0.0275208
 20
11.3584
 30
0.000000
  70
    32
  0
VERTEX
  8
0
  5
38A
 10
-0.0243334
 20
11.3581
 30
0.000000
  70
    32
  0
VERTEX
  8
0
  5
38B
 10
-0.0211323
 20
11.3577
 30
0.000000
  70
    32
  0
VERTEX
  8
0
  5
38C
 10
-0.0179180
 20
11.3575
 30
0.000000
  70
    32
  0
VERTEX
  8
0
  5
38D
 10
-0.0146907
 20
11.3572
 30
0.000000
  70
    32
  0
VERTEX
  8
0
  5
38E
 10
-0.0114507
 20
11.3570
 30
0.000000
  70
    32
  0
VERTEX
  8
0
  5
38F
 10
-0.00819841
 20
11.3569
 30
0.000000
  70
    32
  0
VERTEX
  8
0
  5
390
 10
-0.00493414
 20
11.3568
 30
0.000000
  70
    32
  0
VERTEX
  8
0
  5
391
 10
-0.00165821
 20
11.3567
 30
0.000000
  70
    32
  0
VERTEX
  8
0
  5
392
 10
0.00162668
 20
11.3567
 30
0.000000
  70
    32
  0
VERTEX
  8
0
  5
393
 10
0.00490346
 20
11.3568
 30
0.000000
  70
    32
  0
VERTEX
  8
0
  5
394
 10
0.00816856
 20
11.3569
 30
0.000000
  70
    32
  0
VERTEX
  8
0
  5
395
 10
0.0114217
 20
11.3570
 30
0.000000
  70
    32
  0
VERTEX
  8
0
  5
396
 10
0.0146624
 20
11.3572
 30
0.000000
  70
    32
  0
VERTEX
  8
0
  5
397
 10
0.0178905
 20
11.3575
 30
0.000000
  70
    32
  0
VERTEX
  8
0
  5
398
 10
0.0211056
 20
11.3577
 30
0.000000
  70
    32
  0
VERTEX
  8
0
  5
399
 10
0.0243074
 20
11.3581
 30
0.000000
  70
    32
  0
VERTEX
  8
0
  5
39A
 10
0.0274956
 20
11.3584
 30
0.000000
  70
    32
  0
VERTEX
  8
0
  5
39B
 10
0.0306698
 20
11.3589
 30
0.000000
  70
    32
  0
VERTEX
  8
0
  5
39C
 10
0.0338296
 20
11.3593
 30
0.000000
  70
    32
  0
VERTEX
  8
0
  5
39D
 10
0.0369749
 20
11.3598
 30
0.000000
  70
    32
  0
VERTEX
  8
0
  5
39E
 10
0.0401052
 20
11.3604
 30
0.000000
  70
    32
  0
VERTEX
  8
0
  5
39F
 10
0.0432202
 20
11.3610
 30
0.000000
  70
    32
  0
VERTEX
  8
0
  5
3A0
 10
0.0463196
 20
11.3616
 30
0.000000
  70
    32
  0
VERTEX
  8
0
  5
3A1
 10
0.0494030
 20
11.3623
 30
0.000000
  70
    32
  0
VERTEX
  8
0
  5
3A2
 10
0.0524702
 20
11.3630
 30
0.000000
  70
    32
  0
VERTEX
  8
0
  5
3A3
 10
0.0555208
 20
11.3638
 30
0.000000
  70
    32
  0
VERTEX
  8
0
  5
3A4
 10
0.0585544
 20
11.3646
 30
0.000000
  70
    32
  0
VERTEX
  8
0
  5
3A5
 10
0.0615708
 20
11.3654
 30
0.000000
  70
    32
  0
VERTEX
  8
0
  5
3A6
 10
0.0645696
 20
11.3663
 30
0.000000
  70
    32
  0
VERTEX
  8
0
  5
3A7
 10
0.0675505
 20
11.3672
 30
0.000000
  70
    32
  0
VERTEX
  8
0
  5
3A8
 10
0.0705131
 20
11.3682
 30
0.000000
  70
    32
  0
VERTEX
  8
0
  5
3A9
 10
0.0734572
 20
11.3692
 30
0.000000
  70
    32
  0
VERTEX
  8
0
  5
3AA
 10
0.0763824
 20
11.3703
 30
0.000000
  70
    32
  0
VERTEX
  8
0
  5
3AB
 10
0.0792883
 20
11.3714
 30
0.000000
  70
    32
  0
VERTEX
  8
0
  5
3AC
 10
0.0821747
 20
11.3725
 30
0.000000
  70
    32
  0
VERTEX
  8
0
  5
3AD
 10
0.0850412
 20
11.3737
 30
0.000000
  70
    32
  0
VERTEX
  8
0
  5
3AE
 10
0.0878875
 20
11.3749
 30
0.000000
  70
    32
  0
VERTEX
  8
0
  5
3AF
 10
0.0907132
 20
11.3761
 30
0.000000
  70
    32
  0
VERTEX
  8
0
  5
3B0
 10
0.0935181
 20
11.3774
 30
0.000000
  70
    32
  0
VERTEX
  8
0
  5
3B1
 10
0.0963018
 20
11.3787
 30
0.000000
  70
    32
  0
VERTEX
  8
0
  5
3B2
 10
0.0990640
 20
11.3801
 30
0.000000
  70
    32
  0
VERTEX
  8
0
  5
3B3
 10
0.101804
 20
11.3815
 30
0.000000
  70
    32
  0
VERTEX
  8
0
  5
3B4
 10
0.104522
 20
11.3829
 30
0.000000
  70
    32
  0
VERTEX
  8
0
  5
3B5
 10
0.107218
 20
11.3844
 30
0.000000
  70
    32
  0
VERTEX
  8
0
  5
3B6
 10
0.109891
 20
11.3859
 30
0.000000
  70
    32
  0
VERTEX
  8
0
  5
3B7
 10
0.112540
 20
11.3875
 30
0.000000
  70
    32
  0
VERTEX
  8
0
  5
3B8
 10
0.115166
 20
11.3890
 30
0.000000
  70
    32
  0
VERTEX
  8
0
  5
3B9
 10
0.117769
 20
11.3906
 30
0.000000
  70
    32
  0
VERTEX
  8
0
  5
3BA
 10
0.120347
 20
11.3923
 30
0.000000
  70
    32
  0
VERTEX
  8
0
  5
3BB
 10
0.122900
 20
11.3940
 30
0.000000
  70
    32
  0
VERTEX
  8
0
  5
3BC
 10
0.125429
 20
11.3957
 30
0.000000
  70
    32
  0
VERTEX
  8
0
  5
3BD
 10
0.127933
 20
11.3974
 30
0.000000
  70
    32
  0
VERTEX
  8
0
  5
3BE
 10
0.130411
 20
11.3992
 30
0.000000
  70
    32
  0
VERTEX
  8
0
  5
3BF
 10
0.132864
 20
11.4011
 30
0.000000
  70
    32
  0
VERTEX
  8
0
  5
3C0
 10
0.135290
 20
11.4029
 30
0.000000
  70
    32
  0
VERTEX
  8
0
  5
3C1
 10
0.137690
 20
11.4048
 30
0.000000
  70
    32
  0
VERTEX
  8
0
  5
3C2
 10
0.140063
 20
11.4067
 30
0.000000
  70
    32
  0
VERTEX
  8
0
  5
3C3
 10
0.142409
 20
11.4086
 30
0.000000
  70
    32
  0
VERTEX
  8
0
  5
3C4
 10
0.144727
 20
11.4106
 30
0.000000
  70
    32
  0
VERTEX
  8
0
  5
3C5
 10
0.147018
 20
11.4126
 30
0.000000
  70
    32
  0
VERTEX
  8
0
  5
3C6
 10
0.149281
 20
11.4147
 30
0.000000
  70
    32
  0
VERTEX
  8
0
  5
3C7
 10
0.151515
 20
11.4167
 30
0.000000
  70
    32
  0
VERTEX
  8
0
  5
3C8
 10
0.153720
 20
11.4189
 30
0.000000
  70
    32
  0
VERTEX
  8
0
  5
3C9
 10
0.155897
 20
11.4210
 30
0.000000
  70
    32
  0
VERTEX
  8
0
  5
3CA
 10
0.158044
 20
11.4231
 30
0.000000
  70
    32
  0
VERTEX
  8
0
  5
3CB
 10
0.160161
 20
11.4253
 30
0.000000
  70
    32
  0
VERTEX
  8
0
  5
3CC
 10
0.162248
 20
11.4276
 30
0.000000
  70
    32
  0
VERTEX
  8
0
  5
3CD
 10
0.164305
 20
11.4298
 30
0.000000
  70
    32
  0
VERTEX
  8
0
  5
3CE
 10
0.166331
 20
11.4321
 30
0.000000
  70
    32
  0
VERTEX
  8
0
  5
3CF
 10
0.168326
 20
11.4344
 30
0.000000
  70
    32
  0
VERTEX
  8
0
  5
3D0
 10
0.170290
 20
11.4367
 30
0.000000
  70
    32
  0
VERTEX
  8
0
  5
3D1
 10
0.172222
 20
11.4391
 30
0.000000
  70
    32
  0
VERTEX
  8
0
  5
3D2
 10
0.174122
 20
11.4415
 30
0.000000
  70
    32
  0
VERTEX
  8
0
  5
3D3
 10
0.175989
 20
11.4439
 30
0.000000
  70
    32
  0
VERTEX
  8
0
  5
3D4
 10
0.177824
 20
11.4463
 30
0.000000
  70
    32
  0
VERTEX
  8
0
  5
3D5
 10
0.179626
 20
11.4488
 30
0.000000
  70
    32
  0
VERTEX
  8
0
  5
3D6
 10
0.181395
 20
11.4513
 30
0.000000
  70
    32
  0
VERTEX
  8
0
  5
3D7
 10
0.183129
 20
11.4538
 30
0.000000
  70
    32
  0
VERTEX
  8
0
  5
3D8
 10
0.184830
 20
11.4563
 30
0.000000
  70
    32
  0
VERTEX
  8
0
  5
3D9
 10
0.186497
 20
11.4589
 30
0.000000
  70
    32
  0
VERTEX
  8
0
  5
3DA
 10
0.188128
 20
11.4615
 30
0.000000
  70
    32
  0
VERTEX
  8
0
  5
3DB
 10
0.189725
 20
11.4641
 30
0.000000
  70
    32
  0
VERTEX
  8
0
  5
3DC
 10
0.191287
 20
11.4667
 30
0.000000
  70
    32
  0
VERTEX
  8
0
  5
3DD
 10
0.192813
 20
11.4694
 30
0.000000
  70
    32
  0
VERTEX
  8
0
  5
3DE
 10
0.194303
 20
11.4721
 30
0.000000
  70
    32
  0
VERTEX
  8
0
  5
3DF
 10
0.195756
 20
11.4748
 30
0.000000
  70
    32
  0
VERTEX
  8
0
  5
3E0
 10
0.197173
 20
11.4775
 30
0.000000
  70
    32
  0
VERTEX
  8
0
  5
3E1
 10
0.198553
 20
11.4803
 30
0.000000
  70
    32
  0
VERTEX
  8
0
  5
3E2
 10
0.199896
 20
11.4830
 30
0.000000
  70
    32
  0
VERTEX
  8
0
  5
3E3
 10
0.201201
 20
11.4858
 30
0.000000
  70
    32
  0
VERTEX
  8
0
  5
3E4
 10
0.202468
 20
11.4886
 30
0.000000
  70
    32
  0
VERTEX
  8
0
  5
3E5
 10
0.203697
 20
11.4915
 30
0.000000
  70
    32
  0
VERTEX
  8
0
  5
3E6
 10
0.204887
 20
11.4943
 30
0.000000
  70
    32
  0
VERTEX
  8
0
  5
3E7
 10
0.206038
 20
11.4972
 30
0.000000
  70
    32
  0
VERTEX
  8
0
  5
3E8
 10
0.207150
 20
11.5001
 30
0.000000
  70
    32
  0
VERTEX
  8
0
  5
3E9
 10
0.208223
 20
11.5030
 30
0.000000
  70
    32
  0
VERTEX
  8
0
  5
3EA
 10
0.209256
 20
11.5060
 30
0.000000
  70
    32
  0
VERTEX
  8
0
  5
3EB
 10
0.210248
 20
11.5089
 30
0.000000
  70
    32
  0
VERTEX
  8
0
  5
3EC
 10
0.211200
 20
11.5119
 30
0.000000
  70
    32
  0
VERTEX
  8
0
  5
3ED
 10
0.212110
 20
11.5149
 30
0.000000
  70
    32
  0
VERTEX
  8
0
  5
3EE
 10
0.212980
 20
11.5179
 30
0.000000
  70
    32
  0
VERTEX
  8
0
  5
3EF
 10
0.213808
 20
11.5209
 30
0.000000
  70
    32
  0
VERTEX
  8
0
  5
3F0
 10
0.214594
 20
11.5239
 30
0.000000
  70
    32
  0
VERTEX
  8
0
  5
3F1
 10
0.215338
 20
11.5270
 30
0.000000
  70
    32
  0
VERTEX
  8
0
  5
3F2
 10
0.216040
 20
11.5301
 30
0.000000
  70
    32
  0
VERTEX
  8
0
  5
3F3
 10
0.216698
 20
11.5332
 30
0.000000
  70
    32
  0
VERTEX
  8
0
  5
3F4
 10
0.217313
 20
11.5363
 30
0.000000
  70
    32
  0
VERTEX
  8
0
  5
3F5
 10
0.217885
 20
11.5394
 30
0.000000
  70
    32
  0
VERTEX
  8
0
  5
3F6
 10
0.218413
 20
11.5425
 30
0.000000
  70
    32
  0
VERTEX
  8
0
  5
3F7
 10
0.218897
 20
11.5457
 30
0.000000
  70
    32
  0
VERTEX
  8
0
  5
3F8
 10
0.219336
 20
11.5489
 30
0.000000
  70
    32
  0
VERTEX
  8
0
  5
3F9
 10
0.219731
 20
11.5520
 30
0.000000
  70
    32
  0
VERTEX
  8
0
  5
3FA
 10
0.220080
 20
11.5552
 30
0.000000
  70
    32
  0
VERTEX
  8
0
  5
3FB
 10
0.220384
 20
11.5584
 30
0.000000
  70
    32
  0
VERTEX
  8
0
  5
3FC
 10
0.220641
 20
11.5617
 30
0.000000
  70
    32
  0
VERTEX
  8
0
  5
3FD
 10
0.220853
 20
11.5649
 30
0.000000
  70
    32
  0
VERTEX
  8
0
  5
3FE
 10
0.221018
 20
11.5681
 30
0.000000
  70
    32
  0
VERTEX
  8
0
  5
3FF
 10
0.221137
 20
11.5714
 30
0.000000
  70
    32
  0
VERTEX
  8
0
  5
400
 10
0.221208
 20
11.5747
 30
0.000000
  70
    32
  0
VERTEX
  8
0
  5
401
 10
0.221232
 20
11.5780
 30
0.000000
  70
    32
  0
SEQEND
  8
0
  5
402
  0
POLYLINE
  8
0
  5
403
  66
     1
 10
0.000000
 20
0.000000
 30
0.000000
  70
     8
  0
VERTEX
  8
0
  5
404
 10
-1.09609
 20
0.171041
 30
0.000000
  70
    32
  0
VERTEX
  8
0
  5
405
 10
-1.09649
 20
0.171039
 30
0.000000
  70
    32
  0
VERTEX
  8
0
  5
406
 10
-1.09688
 20
0.171031
 30
0.000000
  70
    32
  0
VERTEX
  8
0
  5
407
 10
-1.09727
 20
0.171019
 30
0.000000
  70
    32
  0
VERTEX
  8
0
  5
408
 10
-1.09766
 20
0.171001
 30
0.000000
  70
    32
  0
VERTEX
  8
0
  5
409
 10
-1.09805
 20
0.170979
 30
0.000000
  70
    32
  0
VERTEX
  8
0
  5
40A
 10
-1.09844
 20
0.170952
 30
0.000000
  70
    32
  0
VERTEX
  8
0
  5
40B
 10
-1.09883
 20
0.170920
 30
0.000000
  70
    32
  0
VERTEX
  8
0
  5
40C
 10
-1.09921
 20
0.170883
 30
0.000000
  70
    32
  0
VERTEX
  8
0
  5
40D
 10
-1.09959
 20
0.170841
 30
0.000000
  70
    32
  0
VERTEX
  8
0
  5
40E
 10
-1.09998
 20
0.170794
 30
0.000000
  70
    32
  0
VERTEX
  8
0
  5
40F
 10
-1.10036
 20
0.170743
 30
0.000000
  70
    32
  0
VERTEX
  8
0
  5
410
 10
-1.10074
 20
0.170687
 30
0.000000
  70
    32
  0
VERTEX
  8
0
  5
411
 10
-1.10111
 20
0.170627
 30
0.000000
  70
    32
  0
VERTEX
  8
0
  5
412
 10
-1.10149
 20
0.170561
 30
0.000000
  70
    32
  0
VERTEX
  8
0
  5
413
 10
-1.10186
 20
0.170492
 30
0.000000
  70
    32
  0
VERTEX
  8
0
  5
414
 10
-1.10224
 20
0.170417
 30
0.000000
  70
    32
  0
VERTEX
  8
0
  5
415
 10
-1.10261
 20
0.170338
 30
0.000000
  70
    32
  0
VERTEX
  8
0
  5
416
 10
-1.10298
 20
0.170254
 30
0.000000
  70
    32
  0
VERTEX
  8
0
  5
417
 10
-1.10334
 20
0.170166
 30
0.000000
  70
    32
  0
VERTEX
  8
0
  5
418
 10
-1.10371
 20
0.170074
 30
0.000000
  70
    32
  0
VERTEX
  8
0
  5
419
 10
-1.10407
 20
0.169977
 30
0.000000
  70
    32
  0
VERTEX
  8
0
  5
41A
 10
-1.10444
 20
0.169876
 30
0.000000
  70
    32
  0
VERTEX
  8
0
  5
41B
 10
-1.10480
 20
0.169770
 30
0.000000
  70
    32
  0
VERTEX
  8
0
  5
41C
 10
-1.10515
 20
0.169660
 30
0.000000
  70
    32
  0
VERTEX
  8
0
  5
41D
 10
-1.10551
 20
0.169546
 30
0.000000
  70
    32
  0
VERTEX
  8
0
  5
41E
 10
-1.10587
 20
0.169427
 30
0.000000
  70
    32
  0
VERTEX
  8
0
  5
41F
 10
-1.10622
 20
0.169304
 30
0.000000
  70
    32
  0
VERTEX
  8
0
  5
420
 10
-1.10657
 20
0.169177
 30
0.000000
  70
    32
  0
VERTEX
  8
0
  5
421
 10
-1.10692
 20
0.169046
 30
0.000000
  70
    32
  0
VERTEX
  8
0
  5
422
 10
-1.10726
 20
0.168910
 30
0.000000
  70
    32
  0
VERTEX
  8
0
  5
423
 10
-1.10761
 20
0.168771
 30
0.000000
  70
    32
  0
VERTEX
  8
0
  5
424
 10
-1.10795
 20
0.168627
 30
0.000000
  70
    32
  0
VERTEX
  8
0
  5
425
 10
-1.10829
 20
0.168480
 30
0.000000
  70
    32
  0
VERTEX
  8
0
  5
426
 10
-1.10863
 20
0.168328
 30
0.000000
  70
    32
  0
VERTEX
  8
0
  5
427
 10
-1.10896
 20
0.168172
 30
0.000000
  70
    32
  0
VERTEX
  8
0
  5
428
 10
-1.10930
 20
0.168012
 30
0.000000
  70
    32
  0
VERTEX
  8
0
  5
429
 10
-1.10963
 20
0.167849
 30
0.000000
  70
    32
  0
VERTEX
  8
0
  5
42A
 10
-1.10996
 20
0.167681
 30
0.000000
  70
    32
  0
VERTEX
  8
0
  5
42B
 10
-1.11028
 20
0.167510
 30
0.000000
  70
    32
  0
VERTEX
  8
0
  5
42C
 10
-1.11061
 20
0.167334
 30
0.000000
  70
    32
  0
VERTEX
  8
0
  5
42D
 10
-1.11093
 20
0.167155
 30
0.000000
  70
    32
  0
VERTEX
  8
0
  5
42E
 10
-1.11125
 20
0.166972
 30
0.000000
  70
    32
  0
VERTEX
  8
0
  5
42F
 10
-1.11156
 20
0.166786
 30
0.000000
  70
    32
  0
VERTEX
  8
0
  5
430
 10
-1.11188
 20
0.166595
 30
0.000000
  70
    32
  0
VERTEX
  8
0
  5
431
 10
-1.11219
 20
0.166401
 30
0.000000
  70
    32
  0
VERTEX
  8
0
  5
432
 10
-1.11250
 20
0.166203
 30
0.000000
  70
    32
  0
VERTEX
  8
0
  5
433
 10
-1.11280
 20
0.166002
 30
0.000000
  70
    32
  0
VERTEX
  8
0
  5
434
 10
-1.11311
 20
0.165797
 30
0.000000
  70
    32
  0
VERTEX
  8
0
  5
435
 10
-1.11341
 20
0.165588
 30
0.000000
  70
    32
  0
VERTEX
  8
0
  5
436
 10
-1.11371
 20
0.165376
 30
0.000000
  70
    32
  0
VERTEX
  8
0
  5
437
 10
-1.11400
 20
0.165161
 30
0.000000
  70
    32
  0
VERTEX
  8
0
  5
438
 10
-1.11430
 20
0.164941
 30
0.000000
  70
    32
  0
VERTEX
  8
0
  5
439
 10
-1.11459
 20
0.164719
 30
0.000000
  70
    32
  0
VERTEX
  8
0
  5
43A
 10
-1.11487
 20
0.164493
 30
0.000000
  70
    32
  0
VERTEX
  8
0
  5
43B
 10
-1.11516
 20
0.164264
 30
0.000000
  70
    32
  0
VERTEX
  8
0
  5
43C
 10
-1.11544
 20
0.164031
 30
0.000000
  70
    32
  0
VERTEX
  8
0
  5
43D
 10
-1.11572
 20
0.163795
 30
0.000000
  70
    32
  0
VERTEX
  8
0
  5
43E
 10
-1.11600
 20
0.163555
 30
0.000000
  70
    32
  0
VERTEX
  8
0
  5
43F
 10
-1.11627
 20
0.163313
 30
0.000000
  70
    32
  0
VERTEX
  8
0
  5
440
 10
-1.11654
 20
0.163067
 30
0.000000
  70
    32
  0
VERTEX
  8
0
  5
441
 10
-1.11681
 20
0.162818
 30
0.000000
  70
    32
  0
VERTEX
  8
0
  5
442
 10
-1.11707
 20
0.162565
 30
0.000000
  70
    32
  0
VERTEX
  8
0
  5
443
 10
-1.11733
 20
0.162310
 30
0.000000
  70
    32
  0
VERTEX
  8
0
  5
444
 10
-1.11759
 20
0.162051
 30
0.000000
  70
    32
  0
VERTEX
  8
0
  5
445
 10
-1.11785
 20
0.161790
 30
0.000000
  70
    32
  0
VERTEX
  8
0
  5
446
 10
-1.11810
 20
0.161525
 30
0.000000
  70
    32
  0
VERTEX
  8
0
  5
447
 10
-1.11835
 20
0.161257
 30
0.000000
  70
    32
  0
VERTEX
  8
0
  5
448
 10
-1.11859
 20
0.160986
 30
0.000000
  70
    32
  0
VERTEX
  8
0
  5
449
 10
-1.11883
 20
0.160713
 30
0.000000
  70
    32
  0
VERTEX
  8
0
  5
44A
 10
-1.11907
 20
0.160436
 30
0.000000
  70
    32
  0
VERTEX
  8
0
  5
44B
 10
-1.11931
 20
0.160157
 30
0.000000
  70
    32
  0
VERTEX
  8
0
  5
44C
 10
-1.11954
 20
0.159874
 30
0.000000
  70
    32
  0
VERTEX
  8
0
  5
44D
 10
-1.11977
 20
0.159589
 30
0.000000
  70
    32
  0
VERTEX
  8
0
  5
44E
 10
-1.11999
 20
0.159301
 30
0.000000
  70
    32
  0
VERTEX
  8
0
  5
44F
 10
-1.12022
 20
0.159010
 30
0.000000
  70
    32
  0
VERTEX
  8
0
  5
450
 10
-1.12043
 20
0.158716
 30
0.000000
  70
    32
  0
VERTEX
  8
0
  5
451
 10
-1.12065
 20
0.158420
 30
0.000000
  70
    32
  0
VERTEX
  8
0
  5
452
 10
-1.12086
 20
0.158121
 30
0.000000
  70
    32
  0
VERTEX
  8
0
  5
453
 10
-1.12107
 20
0.157819
 30
0.000000
  70
    32
  0
VERTEX
  8
0
  5
454
 10
-1.12127
 20
0.157515
 30
0.000000
  70
    32
  0
VERTEX
  8
0
  5
455
 10
-1.12147
 20
0.157208
 30
0.000000
  70
    32
  0
VERTEX
  8
0
  5
456
 10
-1.12167
 20
0.156899
 30
0.000000
  70
    32
  0
VERTEX
  8
0
  5
457
 10
-1.12186
 20
0.156587
 30
0.000000
  70
    32
  0
VERTEX
  8
0
  5
458
 10
-1.12205
 20
0.156272
 30
0.000000
  70
    32
  0
VERTEX
  8
0
  5
459
 10
-1.12224
 20
0.155955
 30
0.000000
  70
    32
  0
VERTEX
  8
0
  5
45A
 10
-1.12242
 20
0.155636
 30
0.000000
  70
    32
  0
VERTEX
  8
0
  5
45B
 10
-1.12260
 20
0.155314
 30
0.000000
  70
    32
  0
VERTEX
  8
0
  5
45C
 10
-1.12278
 20
0.154990
 30
0.000000
  70
    32
  0
VERTEX
  8
0
  5
45D
 10
-1.12295
 20
0.154663
 30
0.000000
  70
    32
  0
VERTEX
  8
0
  5
45E
 10
-1.12311
 20
0.154334
 30
0.000000
  70
    32
  0
VERTEX
  8
0
  5
45F
 10
-1.12328
 20
0.154003
 30
0.000000
  70
    32
  0
VERTEX
  8
0
  5
460
 10
-1.12344
 20
0.153670
 30
0.000000
  70
    32
  0
VERTEX
  8
0
  5
461
 10
-1.12359
 20
0.153334
 30
0.000000
  70
    32
  0
VERTEX
  8
0
  5
462
 10
-1.12374
 20
0.152996
 30
0.000000
  70
    32
  0
VERTEX
  8
0
  5
463
 10
-1.12389
 20
0.152656
 30
0.000000
  70
    32
  0
VERTEX
  8
0
  5
464
 10
-1.12403
 20
0.152314
 30
0.000000
  70
    32
  0
VERTEX
  8
0
  5
465
 10
-1.12417
 20
0.151969
 30
0.000000
  70
    32
  0
VERTEX
  8
0
  5
466
 10
-1.12431
 20
0.151623
 30
0.000000
  70
    32
  0
VERTEX
  8
0
  5
467
 10
-1.12444
 20
0.151274
 30
0.000000
  70
    32
  0
VERTEX
  8
0
  5
468
 10
-1.12456
 20
0.150924
 30
0.000000
  70
    32
  0
VERTEX
  8
0
  5
469
 10
-1.12469
 20
0.150571
 30
0.000000
  70
    32
  0
VERTEX
  8
0
  5
46A
 10
-1.12480
 20
0.150217
 30
0.000000
  70
    32
  0
VERTEX
  8
0
  5
46B
 10
-1.12492
 20
0.149861
 30
0.000000
  70
    32
  0
VERTEX
  8
0
  5
46C
 10
-1.12503
 20
0.149502
 30
0.000000
  70
    32
  0
VERTEX
  8
0
  5
46D
 10
-1.12513
 20
0.149142
 30
0.000000
  70
    32
  0
VERTEX
  8
0
  5
46E
 10
-1.12523
 20
0.148780
 30
0.000000
  70
    32
  0
VERTEX
  8
0
  5
46F
 10
-1.12533
 20
0.148416
 30
0.000000
  70
    32
  0
VERTEX
  8
0
  5
470
 10
-1.12542
 20
0.148051
 30
0.000000
  70
    32
  0
VERTEX
  8
0
  5
471
 10
-1.12551
 20
0.147684
 30
0.000000
  70
    32
  0
VERTEX
  8
0
  5
472
 10
-1.12559
 20
0.147315
 30
0.000000
  70
    32
  0
VERTEX
  8
0
  5
473
 10
-1.12567
 20
0.146944
 30
0.000000
  70
    32
  0
VERTEX
  8
0
  5
474
 10
-1.12575
 20
0.146572
 30
0.000000
  70
    32
  0
VERTEX
  8
0
  5
475
 10
-1.12582
 20
0.146198
 30
0.000000
  70
    32
  0
VERTEX
  8
0
  5
476
 10
-1.12588
 20
0.145822
 30
0.000000
  70
    32
  0
VERTEX
  8
0
  5
477
 10
-1.12594
 20
0.145445
 30
0.000000
  70
    32
  0
VERTEX
  8
0
  5
478
 10
-1.12600
 20
0.145066
 30
0.000000
  70
    32
  0
VERTEX
  8
0
  5
479
 10
-1.12605
 20
0.144686
 30
0.000000
  70
    32
  0
VERTEX
  8
0
  5
47A
 10
-1.12609
 20
0.144304
 30
0.000000
  70
    32
  0
VERTEX
  8
0
  5
47B
 10
-1.12614
 20
0.143921
 30
0.000000
  70
    32
  0
VERTEX
  8
0
  5
47C
 10
-1.12617
 20
0.143537
 30
0.000000
  70
    32
  0
VERTEX
  8
0
  5
47D
 10
-1.12621
 20
0.143151
 30
0.000000
  70
    32
  0
VERTEX
  8
0
  5
47E
 10
-1.12623
 20
0.142764
 30
0.000000
  70
    32
  0
VERTEX
  8
0
  5
47F
 10
-1.12625
 20
0.142375
 30
0.000000
  70
    32
  0
VERTEX
  8
0
  5
480
 10
-1.12627
 20
0.141986
 30
0.000000
  70
    32
  0
VERTEX
  8
0
  5
481
 10
-1.12628
 20
0.141595
 30
0.000000
  70
    32
  0
VERTEX
  8
0
  5
482
 10
-1.12629
 20
0.141202
 30
0.000000
  70
    32
  0
VERTEX
  8
0
  5
483
 10
-1.12629
 20
0.140809
 30
0.000000
  70
    32
  0
SEQEND
  8
0
  5
484
  0
POLYLINE
  8
0
  5
485
  66
     1
 10
0.000000
 20
0.000000
 30
0.000000
  70
     8
  0
VERTEX
  8
0
  5
486
 10
-1.12629
 20
0.0301048
 30
0.000000
  70
    32
  0
VERTEX
  8
0
  5
487
 10
-1.12629
 20
0.0297143
 30
0.000000
  70
    32
  0
VERTEX
  8
0
  5
488
 10
-1.12628
 20
0.0293250
 30
0.000000
  70
    32
  0
VERTEX
  8
0
  5
489
 10
-1.12627
 20
0.0289368
 30
0.000000
  70
    32
  0
VERTEX
  8
0
  5
48A
 10
-1.12625
 20
0.0285499
 30
0.000000
  70
    32
  0
VERTEX
  8
0
  5
48B
 10
-1.12623
 20
0.0281642
 30
0.000000
  70
    32
  0
VERTEX
  8
0
  5
48C
 10
-1.12621
 20
0.0277798
 30
0.000000
  70
    32
  0
VERTEX
  8
0
  5
48D
 10
-1.12617
 20
0.0273966
 30
0.000000
  70
    32
  0
VERTEX
  8
0
  5
48E
 10
-1.12614
 20
0.0270148
 30
0.000000
  70
    32
  0
VERTEX
  8
0
  5
48F
 10
-1.12609
 20
0.0266344
 30
0.000000
  70
    32
  0
VERTEX
  8
0
  5
490
 10
-1.12605
 20
0.0262553
 30
0.000000
  70
    32
  0
VERTEX
  8
0
  5
491
 10
-1.12600
 20
0.0258777
 30
0.000000
  70
    32
  0
VERTEX
  8
0
  5
492
 10
-1.12594
 20
0.0255016
 30
0.000000
  70
    32
  0
VERTEX
  8
0
  5
493
 10
-1.12588
 20
0.0251269
 30
0.000000
  70
    32
  0
VERTEX
  8
0
  5
494
 10
-1.12582
 20
0.0247538
 30
0.000000
  70
    32
  0
VERTEX
  8
0
  5
495
 10
-1.12575
 20
0.0243822
 30
0.000000
  70
    32
  0
VERTEX
  8
0
  5
496
 10
-1.12567
 20
0.0240122
 30
0.000000
  70
    32
  0
VERTEX
  8
0
  5
497
 10
-1.12559
 20
0.0236437
 30
0.000000
  70
    32
  0
VERTEX
  8
0
  5
498
 10
-1.12551
 20
0.0232770
 30
0.000000
  70
    32
  0
VERTEX
  8
0
  5
499
 10
-1.12542
 20
0.0229119
 30
0.000000
  70
    32
  0
VERTEX
  8
0
  5
49A
 10
-1.12533
 20
0.0225485
 30
0.000000
  70
    32
  0
VERTEX
  8
0
  5
49B
 10
-1.12523
 20
0.0221869
 30
0.000000
  70
    32
  0
VERTEX
  8
0
  5
49C
 10
-1.12513
 20
0.0218270
 30
0.000000
  70
    32
  0
VERTEX
  8
0
  5
49D
 10
-1.12503
 20
0.0214689
 30
0.000000
  70
    32
  0
VERTEX
  8
0
  5
49E
 10
-1.12492
 20
0.0211126
 30
0.000000
  70
    32
  0
VERTEX
  8
0
  5
49F
 10
-1.12480
 20
0.0207582
 30
0.000000
  70
    32
  0
VERTEX
  8
0
  5
4A0
 10
-1.12469
 20
0.0204057
 30
0.000000
  70
    32
  0
VERTEX
  8
0
  5
4A1
 10
-1.12456
 20
0.0200551
 30
0.000000
  70
    32
  0
VERTEX
  8
0
  5
4A2
 10
-1.12444
 20
0.0197065
 30
0.000000
  70
    32
  0
VERTEX
  8
0
  5
4A3
 10
-1.12431
 20
0.0193599
 30
0.000000
  70
    32
  0
VERTEX
  8
0
  5
4A4
 10
-1.12417
 20
0.0190152
 30
0.000000
  70
    32
  0
VERTEX
  8
0
  5
4A5
 10
-1.12403
 20
0.0186726
 30
0.000000
  70
    32
  0
VERTEX
  8
0
  5
4A6
 10
-1.12389
 20
0.0183321
 30
0.000000
  70
    32
  0
VERTEX
  8
0
  5
4A7
 10
-1.12374
 20
0.0179937
 30
0.000000
  70
    32
  0
VERTEX
  8
0
  5
4A8
 10
-1.12359
 20
0.0176574
 30
0.000000
  70
    32
  0
VERTEX
  8
0
  5
4A9
 10
-1.12344
 20
0.0173233
 30
0.000000
  70
    32
  0
VERTEX
  8
0
  5
4AA
 10
-1.12328
 20
0.0169914
 30
0.000000
  70
    32
  0
VERTEX
  8
0
  5
4AB
 10
-1.12311
 20
0.0166617
 30
0.000000
  70
    32
  0
VERTEX
  8
0
  5
4AC
 10
-1.12295
 20
0.0163343
 30
0.000000
  70
    32
  0
VERTEX
  8
0
  5
4AD
 10
-1.12278
 20
0.0160092
 30
0.000000
  70
    32
  0
VERTEX
  8
0
  5
4AE
 10
-1.12260
 20
0.0156863
 30
0.000000
  70
    32
  0
VERTEX
  8
0
  5
4AF
 10
-1.12242
 20
0.0153659
 30
0.000000
  70
    32
  0
VERTEX
  8
0
  5
4B0
 10
-1.12224
 20
0.0150478
 30
0.000000
  70
    32
  0
VERTEX
  8
0
  5
4B1
 10
-1.12205
 20
0.0147322
 30
0.000000
  70
    32
  0
VERTEX
  8
0
  5
4B2
 10
-1.12186
 20
0.0144190
 30
0.000000
  70
    32
  0
VERTEX
  8
0
  5
4B3
 10
-1.12167
 20
0.0141082
 30
0.000000
  70
    32
  0
VERTEX
  8
0
  5
4B4
 10
-1.12147
 20
0.0138000
 30
0.000000
  70
    32
  0
VERTEX
  8
0
  5
4B5
 10
-1.12127
 20
0.0134943
 30
0.000000
  70
    32
  0
VERTEX
  8
0
  5
4B6
 10
-1.12107
 20
0.0131912
 30
0.000000
  70
    32
  0
VERTEX
  8
0
  5
4B7
 10
-1.12086
 20
0.0128907
 30
0.000000
  70
    32
  0
VERTEX
  8
0
  5
4B8
 10
-1.12065
 20
0.0125928
 30
0.000000
  70
    32
  0
VERTEX
  8
0
  5
4B9
 10
-1.12043
 20
0.0122976
 30
0.000000
  70
    32
  0
VERTEX
  8
0
  5
4BA
 10
-1.12022
 20
0.0120050
 30
0.000000
  70
    32
  0
VERTEX
  8
0
  5
4BB
 10
-1.11999
 20
0.0117152
 30
0.000000
  70
    32
  0
VERTEX
  8
0
  5
4BC
 10
-1.11977
 20
0.0114282
 30
0.000000
  70
    32
  0
VERTEX
  8
0
  5
4BD
 10
-1.11954
 20
0.0111439
 30
0.000000
  70
    32
  0
VERTEX
  8
0
  5
4BE
 10
-1.11931
 20
0.0108625
 30
0.000000
  70
    32
  0
VERTEX
  8
0
  5
4BF
 10
-1.11907
 20
0.0105839
 30
0.000000
  70
    32
  0
VERTEX
  8
0
  5
4C0
 10
-1.11883
 20
0.0103081
 30
0.000000
  70
    32
  0
VERTEX
  8
0
  5
4C1
 10
-1.11859
 20
0.0100353
 30
0.000000
  70
    32
  0
VERTEX
  8
0
  5
4C2
 10
-1.11835
 20
0.00976545
 30
0.000000
  70
    32
  0
VERTEX
  8
0
  5
4C3
 10
-1.11810
 20
0.00949855
 30
0.000000
  70
    32
  0
VERTEX
  8
0
  5
4C4
 10
-1.11785
 20
0.00923465
 30
0.000000
  70
    32
  0
VERTEX
  8
0
  5
4C5
 10
-1.11759
 20
0.00897378
 30
0.000000
  70
    32
  0
VERTEX
  8
0
  5
4C6
 10
-1.11733
 20
0.00871597
 30
0.000000
  70
    32
  0
VERTEX
  8
0
  5
4C7
 10
-1.11707
 20
0.00846126
 30
0.000000
  70
    32
  0
VERTEX
  8
0
  5
4C8
 10
-1.11681
 20
0.00820968
 30
0.000000
  70
    32
  0
VERTEX
  8
0
  5
4C9
 10
-1.11654
 20
0.00796125
 30
0.000000
  70
    32
  0
VERTEX
  8
0
  5
4CA
 10
-1.11627
 20
0.00771601
 30
0.000000
  70
    32
  0
VERTEX
  8
0
  5
4CB
 10
-1.11600
 20
0.00747398
 30
0.000000
  70
    32
  0
VERTEX
  8
0
  5
4CC
 10
-1.11572
 20
0.00723521
 30
0.000000
  70
    32
  0
VERTEX
  8
0
  5
4CD
 10
-1.11544
 20
0.00699972
 30
0.000000
  70
    32
  0
VERTEX
  8
0
  5
4CE
 10
-1.11516
 20
0.00676753
 30
0.000000
  70
    32
  0
VERTEX
  8
0
  5
4CF
 10
-1.11487
 20
0.00653869
 30
0.000000
  70
    32
  0
VERTEX
  8
0
  5
4D0
 10
-1.11459
 20
0.00631322
 30
0.000000
  70
    32
  0
VERTEX
  8
0
  5
4D1
 10
-1.11430
 20
0.00609116
 30
0.000000
  70
    32
  0
VERTEX
  8
0
  5
4D2
 10
-1.11400
 20
0.00587253
 30
0.000000
  70
    32
  0
VERTEX
  8
0
  5
4D3
 10
-1.11371
 20
0.00565736
 30
0.000000
  70
    32
  0
VERTEX
  8
0
  5
4D4
 10
-1.11341
 20
0.00544569
 30
0.000000
  70
    32
  0
VERTEX
  8
0
  5
4D5
 10
-1.11311
 20
0.00523755
 30
0.000000
  70
    32
  0
VERTEX
  8
0
  5
4D6
 10
-1.11280
 20
0.00503296
 30
0.000000
  70
    32
  0
VERTEX
  8
0
  5
4D7
 10
-1.11250
 20
0.00483197
 30
0.000000
  70
    32
  0
VERTEX
  8
0
  5
4D8
 10
-1.11219
 20
0.00463459
 30
0.000000
  70
    32
  0
VERTEX
  8
0
  5
4D9
 10
-1.11188
 20
0.00444087
 30
0.000000
  70
    32
  0
VERTEX
  8
0
  5
4DA
 10
-1.11156
 20
0.00425082
 30
0.000000
  70
    32
  0
VERTEX
  8
0
  5
4DB
 10
-1.11125
 20
0.00406449
 30
0.000000
  70
    32
  0
VERTEX
  8
0
  5
4DC
 10
-1.11093
 20
0.00388190
 30
0.000000
  70
    32
  0
VERTEX
  8
0
  5
4DD
 10
-1.11061
 20
0.00370309
 30
0.000000
  70
    32
  0
VERTEX
  8
0
  5
4DE
 10
-1.11028
 20
0.00352808
 30
0.000000
  70
    32
  0
VERTEX
  8
0
  5
4DF
 10
-1.10996
 20
0.00335691
 30
0.000000
  70
    32
  0
VERTEX
  8
0
  5
4E0
 10
-1.10963
 20
0.00318960
 30
0.000000
  70
    32
  0
VERTEX
  8
0
  5
4E1
 10
-1.10930
 20
0.00302619
 30
0.000000
  70
    32
  0
VERTEX
  8
0
  5
4E2
 10
-1.10896
 20
0.00286671
 30
0.000000
  70
    32
  0
VERTEX
  8
0
  5
4E3
 10
-1.10863
 20
0.00271119
 30
0.000000
  70
    32
  0
VERTEX
  8
0
  5
4E4
 10
-1.10829
 20
0.00255966
 30
0.000000
  70
    32
  0
VERTEX
  8
0
  5
4E5
 10
-1.10795
 20
0.00241215
 30
0.000000
  70
    32
  0
VERTEX
  8
0
  5
4E6
 10
-1.10761
 20
0.00226870
 30
0.000000
  70
    32
  0
VERTEX
  8
0
  5
4E7
 10
-1.10726
 20
0.00212932
 30
0.000000
  70
    32
  0
VERTEX
  8
0
  5
4E8
 10
-1.10692
 20
0.00199407
 30
0.000000
  70
    32
  0
VERTEX
  8
0
  5
4E9
 10
-1.10657
 20
0.00186295
 30
0.000000
  70
    32
  0
VERTEX
  8
0
  5
4EA
 10
-1.10622
 20
0.00173601
 30
0.000000
  70
    32
  0
VERTEX
  8
0
  5
4EB
 10
-1.10587
 20
0.00161328
 30
0.000000
  70
    32
  0
VERTEX
  8
0
  5
4EC
 10
-1.10551
 20
0.00149479
 30
0.000000
  70
    32
  0
VERTEX
  8
0
  5
4ED
 10
-1.10515
 20
0.00138056
 30
0.000000
  70
    32
  0
VERTEX
  8
0
  5
4EE
 10
-1.10480
 20
0.00127063
 30
0.000000
  70
    32
  0
VERTEX
  8
0
  5
4EF
 10
-1.10444
 20
0.00116504
 30
0.000000
  70
    32
  0
VERTEX
  8
0
  5
4F0
 10
-1.10407
 20
0.00106380
 30
0.000000
  70
    32
  0
VERTEX
  8
0
  5
4F1
 10
-1.10371
 20
0.000966961
 30
0.000000
  70
    32
  0
VERTEX
  8
0
  5
4F2
 10
-1.10334
 20
0.000874541
 30
0.000000
  70
    32
  0
VERTEX
  8
0
  5
4F3
 10
-1.10298
 20
0.000786574
 30
0.000000
  70
    32
  0
VERTEX
  8
0
  5
4F4
 10
-1.10261
 20
0.000703093
 30
0.000000
  70
    32
  0
VERTEX
  8
0
  5
4F5
 10
-1.10224
 20
0.000624127
 30
0.000000
  70
    32
  0
VERTEX
  8
0
  5
4F6
 10
-1.10186
 20
0.000549707
 30
0.000000
  70
    32
  0
VERTEX
  8
0
  5
4F7
 10
-1.10149
 20
0.000479865
 30
0.000000
  70
    32
  0
VERTEX
  8
0
  5
4F8
 10
-1.10111
 20
0.000414632
 30
0.000000
  70
    32
  0
VERTEX
  8
0
  5
4F9
 10
-1.10074
 20
0.000354037
 30
0.000000
  70
    32
  0
VERTEX
  8
0
  5
4FA
 10
-1.10036
 20
0.000298112
 30
0.000000
  70
    32
  0
VERTEX
  8
0
  5
4FB
 10
-1.09998
 20
0.000246889
 30
0.000000
  70
    32
  0
VERTEX
  8
0
  5
4FC
 10
-1.09959
 20
0.000200397
 30
0.000000
  70
    32
  0
VERTEX
  8
0
  5
4FD
 10
-1.09921
 20
0.000158668
 30
0.000000
  70
    32
  0
VERTEX
  8
0
  5
4FE
 10
-1.09883
 20
0.000121732
 30
0.000000
  70
    32
  0
VERTEX
  8
0
  5
4FF
 10
-1.09844
 20
8.96213e-005
 30
0.000000
  70
    32
  0
VERTEX
  8
0
  5
500
 10
-1.09805
 20
6.23658e-005
 30
0.000000
  70
    32
  0
VERTEX
  8
0
  5
501
 10
-1.09766
 20
3.99965e-005
 30
0.000000
  70
    32
  0
VERTEX
  8
0
  5
502
 10
-1.09727
 20
2.25443e-005
 30
0.000000
  70
    32
  0
VERTEX
  8
0
  5
503
 10
-1.09688
 20
1.00403e-005
 30
0.000000
  70
    32
  0
VERTEX
  8
0
  5
504
 10
-1.09649
 20
2.51522e-006
 30
0.000000
  70
    32
  0
VERTEX
  8
0
  5
505
 10
-1.09609
 20
4.06520e-024
 30
0.000000
  70
    32
  0
SEQEND
  8
0
  5
506
  0
POLYLINE
  8
0
  5
507
  66
     1
 10
0.000000
 20
0.000000
 30
0.000000
  70
     8
  0
VERTEX
  8
0
  5
508
 10
-1.09609
 20
0.171041
 30
0.000000
  70
    32
  0
VERTEX
  8
0
  5
509
 10
-1.09374
 20
0.171056
 30
0.000000
  70
    32
  0
VERTEX
  8
0
  5
50A
 10
-1.09138
 20
0.171101
 30
0.000000
  70
    32
  0
VERTEX
  8
0
  5
50B
 10
-1.08904
 20
0.171176
 30
0.000000
  70
    32
  0
VERTEX
  8
0
  5
50C
 10
-1.08670
 20
0.171280
 30
0.000000
  70
    32
  0
VERTEX
  8
0
  5
50D
 10
-1.08438
 20
0.171414
 30
0.000000
  70
    32
  0
VERTEX
  8
0
  5
50E
 10
-1.08205
 20
0.171577
 30
0.000000
  70
    32
  0
VERTEX
  8
0
  5
50F
 10
-1.07974
 20
0.171769
 30
0.000000
  70
    32
  0
VERTEX
  8
0
  5
510
 10
-1.07744
 20
0.171990
 30
0.000000
  70
    32
  0
VERTEX
  8
0
  5
511
 10
-1.07514
 20
0.172239
 30
0.000000
  70
    32
  0
VERTEX
  8
0
  5
512
 10
-1.07286
 20
0.172517
 30
0.000000
  70
    32
  0
VERTEX
  8
0
  5
513
 10
-1.07058
 20
0.172824
 30
0.000000
  70
    32
  0
VERTEX
  8
0
  5
514
 10
-1.06831
 20
0.173158
 30
0.000000
  70
    32
  0
VERTEX
  8
0
  5
515
 10
-1.06605
 20
0.173520
 30
0.000000
  70
    32
  0
VERTEX
  8
0
  5
516
 10
-1.06380
 20
0.173911
 30
0.000000
  70
    32
  0
VERTEX
  8
0
  5
517
 10
-1.06156
 20
0.174328
 30
0.000000
  70
    32
  0
VERTEX
  8
0
  5
518
 10
-1.05933
 20
0.174773
 30
0.000000
  70
    32
  0
VERTEX
  8
0
  5
519
 10
-1.05711
 20
0.175246
 30
0.000000
  70
    32
  0
VERTEX
  8
0
  5
51A
 10
-1.05490
 20
0.175745
 30
0.000000
  70
    32
  0
VERTEX
  8
0
  5
51B
 10
-1.05270
 20
0.176271
 30
0.000000
  70
    32
  0
VERTEX
  8
0
  5
51C
 10
-1.05051
 20
0.176824
 30
0.000000
  70
    32
  0
VERTEX
  8
0
  5
51D
 10
-1.04833
 20
0.177404
 30
0.000000
  70
    32
  0
VERTEX
  8
0
  5
51E
 10
-1.04616
 20
0.178009
 30
0.000000
  70
    32
  0
VERTEX
  8
0
  5
51F
 10
-1.04401
 20
0.178641
 30
0.000000
  70
    32
  0
VERTEX
  8
0
  5
520
 10
-1.04186
 20
0.179299
 30
0.000000
  70
    32
  0
VERTEX
  8
0
  5
521
 10
-1.03973
 20
0.179982
 30
0.000000
  70
    32
  0
VERTEX
  8
0
  5
522
 10
-1.03760
 20
0.180691
 30
0.000000
  70
    32
  0
VERTEX
  8
0
  5
523
 10
-1.03549
 20
0.181426
 30
0.000000
  70
    32
  0
VERTEX
  8
0
  5
524
 10
-1.03339
 20
0.182186
 30
0.000000
  70
    32
  0
VERTEX
  8
0
  5
525
 10
-1.03131
 20
0.182970
 30
0.000000
  70
    32
  0
VERTEX
  8
0
  5
526
 10
-1.02923
 20
0.183780
 30
0.000000
  70
    32
  0
VERTEX
  8
0
  5
527
 10
-1.02717
 20
0.184614
 30
0.000000
  70
    32
  0
VERTEX
  8
0
  5
528
 10
-1.02512
 20
0.185473
 30
0.000000
  70
    32
  0
VERTEX
  8
0
  5
529
 10
-1.02309
 20
0.186356
 30
0.000000
  70
    32
  0
VERTEX
  8
0
  5
52A
 10
-1.02106
 20
0.187263
 30
0.000000
  70
    32
  0
VERTEX
  8
0
  5
52B
 10
-1.01905
 20
0.188194
 30
0.000000
  70
    32
  0
VERTEX
  8
0
  5
52C
 10
-1.01706
 20
0.189149
 30
0.000000
  70
    32
  0
VERTEX
  8
0
  5
52D
 10
-1.01507
 20
0.190128
 30
0.000000
  70
    32
  0
VERTEX
  8
0
  5
52E
 10
-1.01311
 20
0.191130
 30
0.000000
  70
    32
  0
VERTEX
  8
0
  5
52F
 10
-1.01115
 20
0.192155
 30
0.000000
  70
    32
  0
VERTEX
  8
0
  5
530
 10
-1.00921
 20
0.193203
 30
0.000000
  70
    32
  0
VERTEX
  8
0
  5
531
 10
-1.00728
 20
0.194274
 30
0.000000
  70
    32
  0
VERTEX
  8
0
  5
532
 10
-1.00537
 20
0.195367
 30
0.000000
  70
    32
  0
VERTEX
  8
0
  5
533
 10
-1.00347
 20
0.196484
 30
0.000000
  70
    32
  0
VERTEX
  8
0
  5
534
 10
-1.00159
 20
0.197622
 30
0.000000
  70
    32
  0
VERTEX
  8
0
  5
535
 10
-0.999725
 20
0.198783
 30
0.000000
  70
    32
  0
VERTEX
  8
0
  5
536
 10
-0.997873
 20
0.199965
 30
0.000000
  70
    32
  0
VERTEX
  8
0
  5
537
 10
-0.996036
 20
0.201169
 30
0.000000
  70
    32
  0
VERTEX
  8
0
  5
538
 10
-0.994215
 20
0.202395
 30
0.000000
  70
    32
  0
VERTEX
  8
0
  5
539
 10
-0.992410
 20
0.203643
 30
0.000000
  70
    32
  0
VERTEX
  8
0
  5
53A
 10
-0.990620
 20
0.204911
 30
0.000000
  70
    32
  0
VERTEX
  8
0
  5
53B
 10
-0.988847
 20
0.206201
 30
0.000000
  70
    32
  0
VERTEX
  8
0
  5
53C
 10
-0.987091
 20
0.207511
 30
0.000000
  70
    32
  0
VERTEX
  8
0
  5
53D
 10
-0.985350
 20
0.208842
 30
0.000000
  70
    32
  0
VERTEX
  8
0
  5
53E
 10
-0.983627
 20
0.210194
 30
0.000000
  70
    32
  0
VERTEX
  8
0
  5
53F
 10
-0.981920
 20
0.211565
 30
0.000000
  70
    32
  0
VERTEX
  8
0
  5
540
 10
-0.980230
 20
0.212957
 30
0.000000
  70
    32
  0
VERTEX
  8
0
  5
541
 10
-0.978558
 20
0.214369
 30
0.000000
  70
    32
  0
VERTEX
  8
0
  5
542
 10
-0.976903
 20
0.215801
 30
0.000000
  70
    32
  0
VERTEX
  8
0
  5
543
 10
-0.975266
 20
0.217252
 30
0.000000
  70
    32
  0
VERTEX
  8
0
  5
544
 10
-0.973646
 20
0.218723
 30
0.000000
  70
    32
  0
VERTEX
  8
0
  5
545
 10
-0.972044
 20
0.220213
 30
0.000000
  70
    32
  0
VERTEX
  8
0
  5
546
 10
-0.970461
 20
0.221722
 30
0.000000
  70
    32
  0
VERTEX
  8
0
  5
547
 10
-0.968896
 20
0.223250
 30
0.000000
  70
    32
  0
VERTEX
  8
0
  5
548
 10
-0.967349
 20
0.224796
 30
0.000000
  70
    32
  0
VERTEX
  8
0
  5
549
 10
-0.965821
 20
0.226361
 30
0.000000
  70
    32
  0
VERTEX
  8
0
  5
54A
 10
-0.964312
 20
0.227944
 30
0.000000
  70
    32
  0
VERTEX
  8
0
  5
54B
 10
-0.962822
 20
0.229546
 30
0.000000
  70
    32
  0
VERTEX
  8
0
  5
54C
 10
-0.961351
 20
0.231165
 30
0.000000
  70
    32
  0
VERTEX
  8
0
  5
54D
 10
-0.959900
 20
0.232802
 30
0.000000
  70
    32
  0
VERTEX
  8
0
  5
54E
 10
-0.958468
 20
0.234457
 30
0.000000
  70
    32
  0
VERTEX
  8
0
  5
54F
 10
-0.957056
 20
0.236129
 30
0.000000
  70
    32
  0
VERTEX
  8
0
  5
550
 10
-0.955664
 20
0.237818
 30
0.000000
  70
    32
  0
VERTEX
  8
0
  5
551
 10
-0.954292
 20
0.239524
 30
0.000000
  70
    32
  0
VERTEX
  8
0
  5
552
 10
-0.952941
 20
0.241248
 30
0.000000
  70
    32
  0
VERTEX
  8
0
  5
553
 10
-0.951610
 20
0.242987
 30
0.000000
  70
    32
  0
VERTEX
  8
0
  5
554
 10
-0.950299
 20
0.244744
 30
0.000000
  70
    32
  0
VERTEX
  8
0
  5
555
 10
-0.949010
 20
0.246516
 30
0.000000
  70
    32
  0
VERTEX
  8
0
  5
556
 10
-0.947741
 20
0.248305
 30
0.000000
  70
    32
  0
VERTEX
  8
0
  5
557
 10
-0.946494
 20
0.250110
 30
0.000000
  70
    32
  0
VERTEX
  8
0
  5
558
 10
-0.945268
 20
0.251930
 30
0.000000
  70
    32
  0
VERTEX
  8
0
  5
559
 10
-0.944064
 20
0.253766
 30
0.000000
  70
    32
  0
VERTEX
  8
0
  5
55A
 10
-0.942881
 20
0.255618
 30
0.000000
  70
    32
  0
VERTEX
  8
0
  5
55B
 10
-0.941721
 20
0.257485
 30
0.000000
  70
    32
  0
VERTEX
  8
0
  5
55C
 10
-0.940582
 20
0.259366
 30
0.000000
  70
    32
  0
VERTEX
  8
0
  5
55D
 10
-0.939466
 20
0.261263
 30
0.000000
  70
    32
  0
VERTEX
  8
0
  5
55E
 10
-0.938373
 20
0.263174
 30
0.000000
  70
    32
  0
VERTEX
  8
0
  5
55F
 10
-0.937302
 20
0.265100
 30
0.000000
  70
    32
  0
VERTEX
  8
0
  5
560
 10
-0.936254
 20
0.267040
 30
0.000000
  70
    32
  0
VERTEX
  8
0
  5
561
 10
-0.935229
 20
0.268994
 30
0.000000
  70
    32
  0
VERTEX
  8
0
  5
562
 10
-0.934227
 20
0.270962
 30
0.000000
  70
    32
  0
VERTEX
  8
0
  5
563
 10
-0.933249
 20
0.272944
 30
0.000000
  70
    32
  0
VERTEX
  8
0
  5
564
 10
-0.932294
 20
0.274940
 30
0.000000
  70
    32
  0
VERTEX
  8
0
  5
565
 10
-0.931363
 20
0.276949
 30
0.000000
  70
    32
  0
VERTEX
  8
0
  5
566
 10
-0.930456
 20
0.278971
 30
0.000000
  70
    32
  0
VERTEX
  8
0
  5
567
 10
-0.929573
 20
0.281006
 30
0.000000
  70
    32
  0
VERTEX
  8
0
  5
568
 10
-0.928714
 20
0.283054
 30
0.000000
  70
    32
  0
VERTEX
  8
0
  5
569
 10
-0.927880
 20
0.285115
 30
0.000000
  70
    32
  0
VERTEX
  8
0
  5
56A
 10
-0.927071
 20
0.287188
 30
0.000000
  70
    32
  0
VERTEX
  8
0
  5
56B
 10
-0.926286
 20
0.289273
 30
0.000000
  70
    32
  0
VERTEX
  8
0
  5
56C
 10
-0.925527
 20
0.291371
 30
0.000000
  70
    32
  0
VERTEX
  8
0
  5
56D
 10
-0.924792
 20
0.293480
 30
0.000000
  70
    32
  0
VERTEX
  8
0
  5
56E
 10
-0.924083
 20
0.295602
 30
0.000000
  70
    32
  0
VERTEX
  8
0
  5
56F
 10
-0.923400
 20
0.297734
 30
0.000000
  70
    32
  0
VERTEX
  8
0
  5
570
 10
-0.922742
 20
0.299879
 30
0.000000
  70
    32
  0
VERTEX
  8
0
  5
571
 10
-0.922111
 20
0.302034
 30
0.000000
  70
    32
  0
VERTEX
  8
0
  5
572
 10
-0.921505
 20
0.304201
 30
0.000000
  70
    32
  0
VERTEX
  8
0
  5
573
 10
-0.920926
 20
0.306378
 30
0.000000
  70
    32
  0
VERTEX
  8
0
  5
574
 10
-0.920373
 20
0.308566
 30
0.000000
  70
    32
  0
VERTEX
  8
0
  5
575
 10
-0.919847
 20
0.310765
 30
0.000000
  70
    32
  0
VERTEX
  8
0
  5
576
 10
-0.919348
 20
0.312974
 30
0.000000
  70
    32
  0
VERTEX
  8
0
  5
577
 10
-0.918876
 20
0.315193
 30
0.000000
  70
    32
  0
VERTEX
  8
0
  5
578
 10
-0.918431
 20
0.317422
 30
0.000000
  70
    32
  0
VERTEX
  8
0
  5
579
 10
-0.918013
 20
0.319660
 30
0.000000
  70
    32
  0
VERTEX
  8
0
  5
57A
 10
-0.917623
 20
0.321909
 30
0.000000
  70
    32
  0
VERTEX
  8
0
  5
57B
 10
-0.917261
 20
0.324166
 30
0.000000
  70
    32
  0
VERTEX
  8
0
  5
57C
 10
-0.916927
 20
0.326433
 30
0.000000
  70
    32
  0
VERTEX
  8
0
  5
57D
 10
-0.916621
 20
0.328709
 30
0.000000
  70
    32
  0
VERTEX
  8
0
  5
57E
 10
-0.916343
 20
0.330994
 30
0.000000
  70
    32
  0
VERTEX
  8
0
  5
57F
 10
-0.916093
 20
0.333288
 30
0.000000
  70
    32
  0
VERTEX
  8
0
  5
580
 10
-0.915873
 20
0.335590
 30
0.000000
  70
    32
  0
VERTEX
  8
0
  5
581
 10
-0.915681
 20
0.337900
 30
0.000000
  70
    32
  0
VERTEX
  8
0
  5
582
 10
-0.915518
 20
0.340218
 30
0.000000
  70
    32
  0
VERTEX
  8
0
  5
583
 10
-0.915384
 20
0.342545
 30
0.000000
  70
    32
  0
VERTEX
  8
0
  5
584
 10
-0.915280
 20
0.344879
 30
0.000000
  70
    32
  0
VERTEX
  8
0
  5
585
 10
-0.915205
 20
0.347221
 30
0.000000
  70
    32
  0
VERTEX
  8
0
  5
586
 10
-0.915160
 20
0.349570
 30
0.000000
  70
    32
  0
VERTEX
  8
0
  5
587
 10
-0.915145
 20
0.351926
 30
0.000000
  70
    32
  0
SEQEND
  8
0
  5
588
  0
POLYLINE
  8
0
  5
589
  66
     1
 10
0.000000
 20
0.000000
 30
0.000000
  70
     8
  0
VERTEX
  8
0
  5
58A
 10
-0.779322
 20
9.45260
 30
0.000000
  70
    32
  0
VERTEX
  8
0
  5
58B
 10
-0.778538
 20
9.45260
 30
0.000000
  70
    32
  0
VERTEX
  8
0
  5
58C
 10
-0.777756
 20
9.45262
 30
0.000000
  70
    32
  0
VERTEX
  8
0
  5
58D
 10
-0.776977
 20
9.45264
 30
0.000000
  70
    32
  0
VERTEX
  8
0
  5
58E
 10
-0.776200
 20
9.45267
 30
0.000000
  70
    32
  0
VERTEX
  8
0
  5
58F
 10
-0.775426
 20
9.45272
 30
0.000000
  70
    32
  0
VERTEX
  8
0
  5
590
 10
-0.774654
 20
9.45277
 30
0.000000
  70
    32
  0
VERTEX
  8
0
  5
591
 10
-0.773885
 20
9.45284
 30
0.000000
  70
    32
  0
VERTEX
  8
0
  5
592
 10
-0.773119
 20
9.45291
 30
0.000000
  70
    32
  0
VERTEX
  8
0
  5
593
 10
-0.772356
 20
9.45300
 30
0.000000
  70
    32
  0
VERTEX
  8
0
  5
594
 10
-0.771595
 20
9.45309
 30
0.000000
  70
    32
  0
VERTEX
  8
0
  5
595
 10
-0.770837
 20
9.45319
 30
0.000000
  70
    32
  0
VERTEX
  8
0
  5
596
 10
-0.770082
 20
9.45330
 30
0.000000
  70
    32
  0
VERTEX
  8
0
  5
597
 10
-0.769331
 20
9.45342
 30
0.000000
  70
    32
  0
VERTEX
  8
0
  5
598
 10
-0.768582
 20
9.45355
 30
0.000000
  70
    32
  0
VERTEX
  8
0
  5
599
 10
-0.767836
 20
9.45369
 30
0.000000
  70
    32
  0
VERTEX
  8
0
  5
59A
 10
-0.767094
 20
9.45384
 30
0.000000
  70
    32
  0
VERTEX
  8
0
  5
59B
 10
-0.766355
 20
9.45400
 30
0.000000
  70
    32
  0
VERTEX
  8
0
  5
59C
 10
-0.765619
 20
9.45417
 30
0.000000
  70
    32
  0
VERTEX
  8
0
  5
59D
 10
-0.764887
 20
9.45434
 30
0.000000
  70
    32
  0
VERTEX
  8
0
  5
59E
 10
-0.764158
 20
9.45453
 30
0.000000
  70
    32
  0
VERTEX
  8
0
  5
59F
 10
-0.763432
 20
9.45472
 30
0.000000
  70
    32
  0
VERTEX
  8
0
  5
5A0
 10
-0.762711
 20
9.45492
 30
0.000000
  70
    32
  0
VERTEX
  8
0
  5
5A1
 10
-0.761992
 20
9.45513
 30
0.000000
  70
    32
  0
VERTEX
  8
0
  5
5A2
 10
-0.761278
 20
9.45535
 30
0.000000
  70
    32
  0
VERTEX
  8
0
  5
5A3
 10
-0.760567
 20
9.45558
 30
0.000000
  70
    32
  0
VERTEX
  8
0
  5
5A4
 10
-0.759860
 20
9.45582
 30
0.000000
  70
    32
  0
VERTEX
  8
0
  5
5A5
 10
-0.759157
 20
9.45606
 30
0.000000
  70
    32
  0
VERTEX
  8
0
  5
5A6
 10
-0.758458
 20
9.45632
 30
0.000000
  70
    32
  0
VERTEX
  8
0
  5
5A7
 10
-0.757763
 20
9.45658
 30
0.000000
  70
    32
  0
VERTEX
  8
0
  5
5A8
 10
-0.757072
 20
9.45685
 30
0.000000
  70
    32
  0
VERTEX
  8
0
  5
5A9
 10
-0.756385
 20
9.45713
 30
0.000000
  70
    32
  0
VERTEX
  8
0
  5
5AA
 10
-0.755702
 20
9.45741
 30
0.000000
  70
    32
  0
VERTEX
  8
0
  5
5AB
 10
-0.755024
 20
9.45771
 30
0.000000
  70
    32
  0
VERTEX
  8
0
  5
5AC
 10
-0.754349
 20
9.45801
 30
0.000000
  70
    32
  0
VERTEX
  8
0
  5
5AD
 10
-0.753680
 20
9.45832
 30
0.000000
  70
    32
  0
VERTEX
  8
0
  5
5AE
 10
-0.753014
 20
9.45864
 30
0.000000
  70
    32
  0
VERTEX
  8
0
  5
5AF
 10
-0.752353
 20
9.45897
 30
0.000000
  70
    32
  0
VERTEX
  8
0
  5
5B0
 10
-0.751697
 20
9.45930
 30
0.000000
  70
    32
  0
VERTEX
  8
0
  5
5B1
 10
-0.751045
 20
9.45964
 30
0.000000
  70
    32
  0
VERTEX
  8
0
  5
5B2
 10
-0.750398
 20
9.45999
 30
0.000000
  70
    32
  0
VERTEX
  8
0
  5
5B3
 10
-0.749756
 20
9.46035
 30
0.000000
  70
    32
  0
VERTEX
  8
0
  5
5B4
 10
-0.749118
 20
9.46072
 30
0.000000
  70
    32
  0
VERTEX
  8
0
  5
5B5
 10
-0.748486
 20
9.46109
 30
0.000000
  70
    32
  0
VERTEX
  8
0
  5
5B6
 10
-0.747858
 20
9.46147
 30
0.000000
  70
    32
  0
VERTEX
  8
0
  5
5B7
 10
-0.747235
 20
9.46186
 30
0.000000
  70
    32
  0
VERTEX
  8
0
  5
5B8
 10
-0.746618
 20
9.46225
 30
0.000000
  70
    32
  0
VERTEX
  8
0
  5
5B9
 10
-0.746005
 20
9.46265
 30
0.000000
  70
    32
  0
VERTEX
  8
0
  5
5BA
 10
-0.745398
 20
9.46306
 30
0.000000
  70
    32
  0
VERTEX
  8
0
  5
5BB
 10
-0.744795
 20
9.46348
 30
0.000000
  70
    32
  0
VERTEX
  8
0
  5
5BC
 10
-0.744198
 20
9.46390
 30
0.000000
  70
    32
  0
VERTEX
  8
0
  5
5BD
 10
-0.743607
 20
9.46433
 30
0.000000
  70
    32
  0
VERTEX
  8
0
  5
5BE
 10
-0.743021
 20
9.46477
 30
0.000000
  70
    32
  0
VERTEX
  8
0
  5
5BF
 10
-0.742440
 20
9.46522
 30
0.000000
  70
    32
  0
VERTEX
  8
0
  5
5C0
 10
-0.741865
 20
9.46567
 30
0.000000
  70
    32
  0
VERTEX
  8
0
  5
5C1
 10
-0.741295
 20
9.46613
 30
0.000000
  70
    32
  0
VERTEX
  8
0
  5
5C2
 10
-0.740732
 20
9.46659
 30
0.000000
  70
    32
  0
VERTEX
  8
0
  5
5C3
 10
-0.740174
 20
9.46706
 30
0.000000
  70
    32
  0
VERTEX
  8
0
  5
5C4
 10
-0.739621
 20
9.46754
 30
0.000000
  70
    32
  0
VERTEX
  8
0
  5
5C5
 10
-0.739075
 20
9.46802
 30
0.000000
  70
    32
  0
VERTEX
  8
0
  5
5C6
 10
-0.738534
 20
9.46852
 30
0.000000
  70
    32
  0
VERTEX
  8
0
  5
5C7
 10
-0.737999
 20
9.46901
 30
0.000000
  70
    32
  0
VERTEX
  8
0
  5
5C8
 10
-0.737471
 20
9.46952
 30
0.000000
  70
    32
  0
VERTEX
  8
0
  5
5C9
 10
-0.736948
 20
9.47003
 30
0.000000
  70
    32
  0
VERTEX
  8
0
  5
5CA
 10
-0.736432
 20
9.47054
 30
0.000000
  70
    32
  0
VERTEX
  8
0
  5
5CB
 10
-0.735922
 20
9.47107
 30
0.000000
  70
    32
  0
VERTEX
  8
0
  5
5CC
 10
-0.735418
 20
9.47159
 30
0.000000
  70
    32
  0
VERTEX
  8
0
  5
5CD
 10
-0.734920
 20
9.47213
 30
0.000000
  70
    32
  0
VERTEX
  8
0
  5
5CE
 10
-0.734429
 20
9.47267
 30
0.000000
  70
    32
  0
VERTEX
  8
0
  5
5CF
 10
-0.733945
 20
9.47322
 30
0.000000
  70
    32
  0
VERTEX
  8
0
  5
5D0
 10
-0.733466
 20
9.47377
 30
0.000000
  70
    32
  0
VERTEX
  8
0
  5
5D1
 10
-0.732995
 20
9.47433
 30
0.000000
  70
    32
  0
VERTEX
  8
0
  5
5D2
 10
-0.732530
 20
9.47489
 30
0.000000
  70
    32
  0
VERTEX
  8
0
  5
5D3
 10
-0.732072
 20
9.47546
 30
0.000000
  70
    32
  0
VERTEX
  8
0
  5
5D4
 10
-0.731620
 20
9.47604
 30
0.000000
  70
    32
  0
VERTEX
  8
0
  5
5D5
 10
-0.731175
 20
9.47662
 30
0.000000
  70
    32
  0
VERTEX
  8
0
  5
5D6
 10
-0.730738
 20
9.47720
 30
0.000000
  70
    32
  0
VERTEX
  8
0
  5
5D7
 10
-0.730307
 20
9.47780
 30
0.000000
  70
    32
  0
VERTEX
  8
0
  5
5D8
 10
-0.729883
 20
9.47839
 30
0.000000
  70
    32
  0
VERTEX
  8
0
  5
5D9
 10
-0.729466
 20
9.47900
 30
0.000000
  70
    32
  0
VERTEX
  8
0
  5
5DA
 10
-0.729057
 20
9.47960
 30
0.000000
  70
    32
  0
VERTEX
  8
0
  5
5DB
 10
-0.728654
 20
9.48022
 30
0.000000
  70
    32
  0
VERTEX
  8
0
  5
5DC
 10
-0.728259
 20
9.48083
 30
0.000000
  70
    32
  0
VERTEX
  8
0
  5
5DD
 10
-0.727871
 20
9.48146
 30
0.000000
  70
    32
  0
VERTEX
  8
0
  5
5DE
 10
-0.727491
 20
9.48209
 30
0.000000
  70
    32
  0
VERTEX
  8
0
  5
5DF
 10
-0.727118
 20
9.48272
 30
0.000000
  70
    32
  0
VERTEX
  8
0
  5
5E0
 10
-0.726752
 20
9.48336
 30
0.000000
  70
    32
  0
VERTEX
  8
0
  5
5E1
 10
-0.726395
 20
9.48400
 30
0.000000
  70
    32
  0
VERTEX
  8
0
  5
5E2
 10
-0.726044
 20
9.48465
 30
0.000000
  70
    32
  0
VERTEX
  8
0
  5
5E3
 10
-0.725702
 20
9.48530
 30
0.000000
  70
    32
  0
VERTEX
  8
0
  5
5E4
 10
-0.725367
 20
9.48596
 30
0.000000
  70
    32
  0
VERTEX
  8
0
  5
5E5
 10
-0.725040
 20
9.48662
 30
0.000000
  70
    32
  0
VERTEX
  8
0
  5
5E6
 10
-0.724720
 20
9.48729
 30
0.000000
  70
    32
  0
VERTEX
  8
0
  5
5E7
 10
-0.724409
 20
9.48796
 30
0.000000
  70
    32
  0
VERTEX
  8
0
  5
5E8
 10
-0.724106
 20
9.48863
 30
0.000000
  70
    32
  0
VERTEX
  8
0
  5
5E9
 10
-0.723811
 20
9.48931
 30
0.000000
  70
    32
  0
VERTEX
  8
0
  5
5EA
 10
-0.723524
 20
9.49000
 30
0.000000
  70
    32
  0
VERTEX
  8
0
  5
5EB
 10
-0.723245
 20
9.49068
 30
0.000000
  70
    32
  0
VERTEX
  8
0
  5
5EC
 10
-0.722974
 20
9.49138
 30
0.000000
  70
    32
  0
VERTEX
  8
0
  5
5ED
 10
-0.722712
 20
9.49207
 30
0.000000
  70
    32
  0
VERTEX
  8
0
  5
5EE
 10
-0.722458
 20
9.49277
 30
0.000000
  70
    32
  0
VERTEX
  8
0
  5
5EF
 10
-0.722212
 20
9.49348
 30
0.000000
  70
    32
  0
VERTEX
  8
0
  5
5F0
 10
-0.721975
 20
9.49419
 30
0.000000
  70
    32
  0
VERTEX
  8
0
  5
5F1
 10
-0.721746
 20
9.49490
 30
0.000000
  70
    32
  0
VERTEX
  8
0
  5
5F2
 10
-0.721526
 20
9.49561
 30
0.000000
  70
    32
  0
VERTEX
  8
0
  5
5F3
 10
-0.721315
 20
9.49633
 30
0.000000
  70
    32
  0
VERTEX
  8
0
  5
5F4
 10
-0.721113
 20
9.49706
 30
0.000000
  70
    32
  0
VERTEX
  8
0
  5
5F5
 10
-0.720919
 20
9.49779
 30
0.000000
  70
    32
  0
VERTEX
  8
0
  5
5F6
 10
-0.720734
 20
9.49852
 30
0.000000
  70
    32
  0
VERTEX
  8
0
  5
5F7
 10
-0.720558
 20
9.49925
 30
0.000000
  70
    32
  0
VERTEX
  8
0
  5
5F8
 10
-0.720391
 20
9.49999
 30
0.000000
  70
    32
  0
VERTEX
  8
0
  5
5F9
 10
-0.720233
 20
9.50073
 30
0.000000
  70
    32
  0
VERTEX
  8
0
  5
5FA
 10
-0.720084
 20
9.50147
 30
0.000000
  70
    32
  0
VERTEX
  8
0
  5
5FB
 10
-0.719944
 20
9.50222
 30
0.000000
  70
    32
  0
VERTEX
  8
0
  5
5FC
 10
-0.719814
 20
9.50297
 30
0.000000
  70
    32
  0
VERTEX
  8
0
  5
5FD
 10
-0.719693
 20
9.50373
 30
0.000000
  70
    32
  0
VERTEX
  8
0
  5
5FE
 10
-0.719581
 20
9.50448
 30
0.000000
  70
    32
  0
VERTEX
  8
0
  5
5FF
 10
-0.719478
 20
9.50524
 30
0.000000
  70
    32
  0
VERTEX
  8
0
  5
600
 10
-0.719385
 20
9.50601
 30
0.000000
  70
    32
  0
VERTEX
  8
0
  5
601
 10
-0.719302
 20
9.50677
 30
0.000000
  70
    32
  0
VERTEX
  8
0
  5
602
 10
-0.719228
 20
9.50754
 30
0.000000
  70
    32
  0
VERTEX
  8
0
  5
603
 10
-0.719164
 20
9.50831
 30
0.000000
  70
    32
  0
VERTEX
  8
0
  5
604
 10
-0.719109
 20
9.50909
 30
0.000000
  70
    32
  0
VERTEX
  8
0
  5
605
 10
-0.719064
 20
9.50986
 30
0.000000
  70
    32
  0
VERTEX
  8
0
  5
606
 10
-0.719029
 20
9.51064
 30
0.000000
  70
    32
  0
VERTEX
  8
0
  5
607
 10
-0.719004
 20
9.51143
 30
0.000000
  70
    32
  0
VERTEX
  8
0
  5
608
 10
-0.718989
 20
9.51221
 30
0.000000
  70
    32
  0
VERTEX
  8
0
  5
609
 10
-0.718984
 20
9.51300
 30
0.000000
  70
    32
  0
SEQEND
  8
0
  5
60A
  0
POLYLINE
  8
0
  5
60B
  66
     1
 10
0.000000
 20
0.000000
 30
0.000000
  70
     8
  0
VERTEX
  8
0
  5
60C
 10
-0.857748
 20
10.3311
 30
0.000000
  70
    32
  0
VERTEX
  8
0
  5
60D
 10
-0.858130
 20
10.3311
 30
0.000000
  70
    32
  0
VERTEX
  8
0
  5
60E
 10
-0.858511
 20
10.3311
 30
0.000000
  70
    32
  0
VERTEX
  8
0
  5
60F
 10
-0.858891
 20
10.3311
 30
0.000000
  70
    32
  0
VERTEX
  8
0
  5
610
 10
-0.859270
 20
10.3311
 30
0.000000
  70
    32
  0
VERTEX
  8
0
  5
611
 10
-0.859648
 20
10.3311
 30
0.000000
  70
    32
  0
VERTEX
  8
0
  5
612
 10
-0.860024
 20
10.3310
 30
0.000000
  70
    32
  0
VERTEX
  8
0
  5
613
 10
-0.860399
 20
10.3310
 30
0.000000
  70
    32
  0
VERTEX
  8
0
  5
614
 10
-0.860773
 20
10.3310
 30
0.000000
  70
    32
  0
VERTEX
  8
0
  5
615
 10
-0.861146
 20
10.3309
 30
0.000000
  70
    32
  0
VERTEX
  8
0
  5
616
 10
-0.861517
 20
10.3309
 30
0.000000
  70
    32
  0
VERTEX
  8
0
  5
617
 10
-0.861888
 20
10.3308
 30
0.000000
  70
    32
  0
VERTEX
  8
0
  5
618
 10
-0.862256
 20
10.3308
 30
0.000000
  70
    32
  0
VERTEX
  8
0
  5
619
 10
-0.862623
 20
10.3307
 30
0.000000
  70
    32
  0
VERTEX
  8
0
  5
61A
 10
-0.862989
 20
10.3307
 30
0.000000
  70
    32
  0
VERTEX
  8
0
  5
61B
 10
-0.863354
 20
10.3306
 30
0.000000
  70
    32
  0
VERTEX
  8
0
  5
61C
 10
-0.863716
 20
10.3305
 30
0.000000
  70
    32
  0
VERTEX
  8
0
  5
61D
 10
-0.864078
 20
10.3305
 30
0.000000
  70
    32
  0
VERTEX
  8
0
  5
61E
 10
-0.864437
 20
10.3304
 30
0.000000
  70
    32
  0
VERTEX
  8
0
  5
61F
 10
-0.864796
 20
10.3303
 30
0.000000
  70
    32
  0
VERTEX
  8
0
  5
620
 10
-0.865152
 20
10.3302
 30
0.000000
  70
    32
  0
VERTEX
  8
0
  5
621
 10
-0.865507
 20
10.3301
 30
0.000000
  70
    32
  0
VERTEX
  8
0
  5
622
 10
-0.865860
 20
10.3300
 30
0.000000
  70
    32
  0
VERTEX
  8
0
  5
623
 10
-0.866212
 20
10.3299
 30
0.000000
  70
    32
  0
VERTEX
  8
0
  5
624
 10
-0.866562
 20
10.3298
 30
0.000000
  70
    32
  0
VERTEX
  8
0
  5
625
 10
-0.866910
 20
10.3297
 30
0.000000
  70
    32
  0
VERTEX
  8
0
  5
626
 10
-0.867256
 20
10.3296
 30
0.000000
  70
    32
  0
VERTEX
  8
0
  5
627
 10
-0.867600
 20
10.3295
 30
0.000000
  70
    32
  0
VERTEX
  8
0
  5
628
 10
-0.867943
 20
10.3293
 30
0.000000
  70
    32
  0
VERTEX
  8
0
  5
629
 10
-0.868284
 20
10.3292
 30
0.000000
  70
    32
  0
VERTEX
  8
0
  5
62A
 10
-0.868623
 20
10.3291
 30
0.000000
  70
    32
  0
VERTEX
  8
0
  5
62B
 10
-0.868959
 20
10.3290
 30
0.000000
  70
    32
  0
VERTEX
  8
0
  5
62C
 10
-0.869294
 20
10.3288
 30
0.000000
  70
    32
  0
VERTEX
  8
0
  5
62D
 10
-0.869627
 20
10.3287
 30
0.000000
  70
    32
  0
VERTEX
  8
0
  5
62E
 10
-0.869958
 20
10.3285
 30
0.000000
  70
    32
  0
VERTEX
  8
0
  5
62F
 10
-0.870287
 20
10.3284
 30
0.000000
  70
    32
  0
VERTEX
  8
0
  5
630
 10
-0.870614
 20
10.3282
 30
0.000000
  70
    32
  0
VERTEX
  8
0
  5
631
 10
-0.870939
 20
10.3281
 30
0.000000
  70
    32
  0
VERTEX
  8
0
  5
632
 10
-0.871261
 20
10.3279
 30
0.000000
  70
    32
  0
VERTEX
  8
0
  5
633
 10
-0.871581
 20
10.3277
 30
0.000000
  70
    32
  0
VERTEX
  8
0
  5
634
 10
-0.871900
 20
10.3276
 30
0.000000
  70
    32
  0
VERTEX
  8
0
  5
635
 10
-0.872216
 20
10.3274
 30
0.000000
  70
    32
  0
VERTEX
  8
0
  5
636
 10
-0.872529
 20
10.3272
 30
0.000000
  70
    32
  0
VERTEX
  8
0
  5
637
 10
-0.872841
 20
10.3270
 30
0.000000
  70
    32
  0
VERTEX
  8
0
  5
638
 10
-0.873150
 20
10.3269
 30
0.000000
  70
    32
  0
VERTEX
  8
0
  5
639
 10
-0.873456
 20
10.3267
 30
0.000000
  70
    32
  0
VERTEX
  8
0
  5
63A
 10
-0.873761
 20
10.3265
 30
0.000000
  70
    32
  0
VERTEX
  8
0
  5
63B
 10
-0.874063
 20
10.3263
 30
0.000000
  70
    32
  0
VERTEX
  8
0
  5
63C
 10
-0.874362
 20
10.3261
 30
0.000000
  70
    32
  0
VERTEX
  8
0
  5
63D
 10
-0.874659
 20
10.3259
 30
0.000000
  70
    32
  0
VERTEX
  8
0
  5
63E
 10
-0.874954
 20
10.3257
 30
0.000000
  70
    32
  0
VERTEX
  8
0
  5
63F
 10
-0.875246
 20
10.3255
 30
0.000000
  70
    32
  0
VERTEX
  8
0
  5
640
 10
-0.875536
 20
10.3253
 30
0.000000
  70
    32
  0
VERTEX
  8
0
  5
641
 10
-0.875823
 20
10.3251
 30
0.000000
  70
    32
  0
VERTEX
  8
0
  5
642
 10
-0.876107
 20
10.3248
 30
0.000000
  70
    32
  0
VERTEX
  8
0
  5
643
 10
-0.876389
 20
10.3246
 30
0.000000
  70
    32
  0
VERTEX
  8
0
  5
644
 10
-0.876668
 20
10.3244
 30
0.000000
  70
    32
  0
VERTEX
  8
0
  5
645
 10
-0.876944
 20
10.3242
 30
0.000000
  70
    32
  0
VERTEX
  8
0
  5
646
 10
-0.877218
 20
10.3239
 30
0.000000
  70
    32
  0
VERTEX
  8
0
  5
647
 10
-0.877488
 20
10.3237
 30
0.000000
  70
    32
  0
VERTEX
  8
0
  5
648
 10
-0.877757
 20
10.3235
 30
0.000000
  70
    32
  0
VERTEX
  8
0
  5
649
 10
-0.878022
 20
10.3232
 30
0.000000
  70
    32
  0
VERTEX
  8
0
  5
64A
 10
-0.878284
 20
10.3230
 30
0.000000
  70
    32
  0
VERTEX
  8
0
  5
64B
 10
-0.878544
 20
10.3227
 30
0.000000
  70
    32
  0
VERTEX
  8
0
  5
64C
 10
-0.878801
 20
10.3225
 30
0.000000
  70
    32
  0
VERTEX
  8
0
  5
64D
 10
-0.879054
 20
10.3222
 30
0.000000
  70
    32
  0
VERTEX
  8
0
  5
64E
 10
-0.879305
 20
10.3220
 30
0.000000
  70
    32
  0
VERTEX
  8
0
  5
64F
 10
-0.879553
 20
10.3217
 30
0.000000
  70
    32
  0
VERTEX
  8
0
  5
650
 10
-0.879798
 20
10.3215
 30
0.000000
  70
    32
  0
VERTEX
  8
0
  5
651
 10
-0.880039
 20
10.3212
 30
0.000000
  70
    32
  0
VERTEX
  8
0
  5
652
 10
-0.880278
 20
10.3209
 30
0.000000
  70
    32
  0
VERTEX
  8
0
  5
653
 10
-0.880514
 20
10.3207
 30
0.000000
  70
    32
  0
VERTEX
  8
0
  5
654
 10
-0.880746
 20
10.3204
 30
0.000000
  70
    32
  0
VERTEX
  8
0
  5
655
 10
-0.880975
 20
10.3201
 30
0.000000
  70
    32
  0
VERTEX
  8
0
  5
656
 10
-0.881201
 20
10.3198
 30
0.000000
  70
    32
  0
VERTEX
  8
0
  5
657
 10
-0.881424
 20
10.3196
 30
0.000000
  70
    32
  0
VERTEX
  8
0
  5
658
 10
-0.881644
 20
10.3193
 30
0.000000
  70
    32
  0
VERTEX
  8
0
  5
659
 10
-0.881860
 20
10.3190
 30
0.000000
  70
    32
  0
VERTEX
  8
0
  5
65A
 10
-0.882073
 20
10.3187
 30
0.000000
  70
    32
  0
VERTEX
  8
0
  5
65B
 10
-0.882283
 20
10.3184
 30
0.000000
  70
    32
  0
VERTEX
  8
0
  5
65C
 10
-0.882489
 20
10.3181
 30
0.000000
  70
    32
  0
VERTEX
  8
0
  5
65D
 10
-0.882692
 20
10.3178
 30
0.000000
  70
    32
  0
VERTEX
  8
0
  5
65E
 10
-0.882892
 20
10.3175
 30
0.000000
  70
    32
  0
VERTEX
  8
0
  5
65F
 10
-0.883088
 20
10.3172
 30
0.000000
  70
    32
  0
VERTEX
  8
0
  5
660
 10
-0.883280
 20
10.3169
 30
0.000000
  70
    32
  0
VERTEX
  8
0
  5
661
 10
-0.883469
 20
10.3166
 30
0.000000
  70
    32
  0
VERTEX
  8
0
  5
662
 10
-0.883655
 20
10.3163
 30
0.000000
  70
    32
  0
VERTEX
  8
0
  5
663
 10
-0.883837
 20
10.3160
 30
0.000000
  70
    32
  0
VERTEX
  8
0
  5
664
 10
-0.884015
 20
10.3157
 30
0.000000
  70
    32
  0
VERTEX
  8
0
  5
665
 10
-0.884190
 20
10.3154
 30
0.000000
  70
    32
  0
VERTEX
  8
0
  5
666
 10
-0.884361
 20
10.3150
 30
0.000000
  70
    32
  0
VERTEX
  8
0
  5
667
 10
-0.884528
 20
10.3147
 30
0.000000
  70
    32
  0
VERTEX
  8
0
  5
668
 10
-0.884692
 20
10.3144
 30
0.000000
  70
    32
  0
VERTEX
  8
0
  5
669
 10
-0.884852
 20
10.3141
 30
0.000000
  70
    32
  0
VERTEX
  8
0
  5
66A
 10
-0.885008
 20
10.3137
 30
0.000000
  70
    32
  0
VERTEX
  8
0
  5
66B
 10
-0.885161
 20
10.3134
 30
0.000000
  70
    32
  0
VERTEX
  8
0
  5
66C
 10
-0.885309
 20
10.3131
 30
0.000000
  70
    32
  0
VERTEX
  8
0
  5
66D
 10
-0.885454
 20
10.3128
 30
0.000000
  70
    32
  0
VERTEX
  8
0
  5
66E
 10
-0.885595
 20
10.3124
 30
0.000000
  70
    32
  0
VERTEX
  8
0
  5
66F
 10
-0.885731
 20
10.3121
 30
0.000000
  70
    32
  0
VERTEX
  8
0
  5
670
 10
-0.885864
 20
10.3117
 30
0.000000
  70
    32
  0
VERTEX
  8
0
  5
671
 10
-0.885993
 20
10.3114
 30
0.000000
  70
    32
  0
VERTEX
  8
0
  5
672
 10
-0.886118
 20
10.3111
 30
0.000000
  70
    32
  0
VERTEX
  8
0
  5
673
 10
-0.886239
 20
10.3107
 30
0.000000
  70
    32
  0
VERTEX
  8
0
  5
674
 10
-0.886356
 20
10.3104
 30
0.000000
  70
    32
  0
VERTEX
  8
0
  5
675
 10
-0.886468
 20
10.3100
 30
0.000000
  70
    32
  0
VERTEX
  8
0
  5
676
 10
-0.886577
 20
10.3097
 30
0.000000
  70
    32
  0
VERTEX
  8
0
  5
677
 10
-0.886681
 20
10.3093
 30
0.000000
  70
    32
  0
VERTEX
  8
0
  5
678
 10
-0.886782
 20
10.3090
 30
0.000000
  70
    32
  0
VERTEX
  8
0
  5
679
 10
-0.886878
 20
10.3086
 30
0.000000
  70
    32
  0
VERTEX
  8
0
  5
67A
 10
-0.886969
 20
10.3082
 30
0.000000
  70
    32
  0
VERTEX
  8
0
  5
67B
 10
-0.887057
 20
10.3079
 30
0.000000
  70
    32
  0
VERTEX
  8
0
  5
67C
 10
-0.887140
 20
10.3075
 30
0.000000
  70
    32
  0
VERTEX
  8
0
  5
67D
 10
-0.887219
 20
10.3072
 30
0.000000
  70
    32
  0
VERTEX
  8
0
  5
67E
 10
-0.887294
 20
10.3068
 30
0.000000
  70
    32
  0
VERTEX
  8
0
  5
67F
 10
-0.887364
 20
10.3064
 30
0.000000
  70
    32
  0
VERTEX
  8
0
  5
680
 10
-0.887430
 20
10.3061
 30
0.000000
  70
    32
  0
VERTEX
  8
0
  5
681
 10
-0.887491
 20
10.3057
 30
0.000000
  70
    32
  0
VERTEX
  8
0
  5
682
 10
-0.887548
 20
10.3053
 30
0.000000
  70
    32
  0
VERTEX
  8
0
  5
683
 10
-0.887600
 20
10.3049
 30
0.000000
  70
    32
  0
VERTEX
  8
0
  5
684
 10
-0.887648
 20
10.3046
 30
0.000000
  70
    32
  0
VERTEX
  8
0
  5
685
 10
-0.887691
 20
10.3042
 30
0.000000
  70
    32
  0
VERTEX
  8
0
  5
686
 10
-0.887729
 20
10.3038
 30
0.000000
  70
    32
  0
VERTEX
  8
0
  5
687
 10
-0.887763
 20
10.3034
 30
0.000000
  70
    32
  0
VERTEX
  8
0
  5
688
 10
-0.887793
 20
10.3031
 30
0.000000
  70
    32
  0
VERTEX
  8
0
  5
689
 10
-0.887817
 20
10.3027
 30
0.000000
  70
    32
  0
VERTEX
  8
0
  5
68A
 10
-0.887837
 20
10.3023
 30
0.000000
  70
    32
  0
VERTEX
  8
0
  5
68B
 10
-0.887853
 20
10.3019
 30
0.000000
  70
    32
  0
SEQEND
  8
0
  5
68C
  0
POLYLINE
  8
0
  5
68D
  66
     1
 10
0.000000
 20
0.000000
 30
0.000000
  70
     8
  0
VERTEX
  8
0
  5
68E
 10
-0.221232
 20
10.9293
 30
0.000000
  70
    32
  0
VERTEX
  8
0
  5
68F
 10
-0.221230
 20
10.9291
 30
0.000000
  70
    32
  0
VERTEX
  8
0
  5
690
 10
-0.221225
 20
10.9288
 30
0.000000
  70
    32
  0
VERTEX
  8
0
  5
691
 10
-0.221217
 20
10.9285
 30
0.000000
  70
    32
  0
VERTEX
  8
0
  5
692
 10
-0.221206
 20
10.9283
 30
0.000000
  70
    32
  0
VERTEX
  8
0
  5
693
 10
-0.221191
 20
10.9280
 30
0.000000
  70
    32
  0
VERTEX
  8
0
  5
694
 10
-0.221173
 20
10.9278
 30
0.000000
  70
    32
  0
VERTEX
  8
0
  5
695
 10
-0.221151
 20
10.9275
 30
0.000000
  70
    32
  0
VERTEX
  8
0
  5
696
 10
-0.221127
 20
10.9273
 30
0.000000
  70
    32
  0
VERTEX
  8
0
  5
697
 10
-0.221099
 20
10.9270
 30
0.000000
  70
    32
  0
VERTEX
  8
0
  5
698
 10
-0.221068
 20
10.9267
 30
0.000000
  70
    32
  0
VERTEX
  8
0
  5
699
 10
-0.221034
 20
10.9265
 30
0.000000
  70
    32
  0
VERTEX
  8
0
  5
69A
 10
-0.220997
 20
10.9262
 30
0.000000
  70
    32
  0
VERTEX
  8
0
  5
69B
 10
-0.220957
 20
10.9260
 30
0.000000
  70
    32
  0
VERTEX
  8
0
  5
69C
 10
-0.220914
 20
10.9257
 30
0.000000
  70
    32
  0
VERTEX
  8
0
  5
69D
 10
-0.220868
 20
10.9255
 30
0.000000
  70
    32
  0
VERTEX
  8
0
  5
69E
 10
-0.220818
 20
10.9252
 30
0.000000
  70
    32
  0
VERTEX
  8
0
  5
69F
 10
-0.220766
 20
10.9250
 30
0.000000
  70
    32
  0
VERTEX
  8
0
  5
6A0
 10
-0.220710
 20
10.9248
 30
0.000000
  70
    32
  0
VERTEX
  8
0
  5
6A1
 10
-0.220652
 20
10.9245
 30
0.000000
  70
    32
  0
VERTEX
  8
0
  5
6A2
 10
-0.220591
 20
10.9243
 30
0.000000
  70
    32
  0
VERTEX
  8
0
  5
6A3
 10
-0.220526
 20
10.9240
 30
0.000000
  70
    32
  0
VERTEX
  8
0
  5
6A4
 10
-0.220459
 20
10.9238
 30
0.000000
  70
    32
  0
VERTEX
  8
0
  5
6A5
 10
-0.220389
 20
10.9235
 30
0.000000
  70
    32
  0
VERTEX
  8
0
  5
6A6
 10
-0.220316
 20
10.9233
 30
0.000000
  70
    32
  0
VERTEX
  8
0
  5
6A7
 10
-0.220240
 20
10.9231
 30
0.000000
  70
    32
  0
VERTEX
  8
0
  5
6A8
 10
-0.220162
 20
10.9228
 30
0.000000
  70
    32
  0
VERTEX
  8
0
  5
6A9
 10
-0.220080
 20
10.9226
 30
0.000000
  70
    32
  0
VERTEX
  8
0
  5
6AA
 10
-0.219996
 20
10.9224
 30
0.000000
  70
    32
  0
VERTEX
  8
0
  5
6AB
 10
-0.219909
 20
10.9221
 30
0.000000
  70
    32
  0
VERTEX
  8
0
  5
6AC
 10
-0.219819
 20
10.9219
 30
0.000000
  70
    32
  0
VERTEX
  8
0
  5
6AD
 10
-0.219726
 20
10.9217
 30
0.000000
  70
    32
  0
VERTEX
  8
0
  5
6AE
 10
-0.219631
 20
10.9214
 30
0.000000
  70
    32
  0
VERTEX
  8
0
  5
6AF
 10
-0.219533
 20
10.9212
 30
0.000000
  70
    32
  0
VERTEX
  8
0
  5
6B0
 10
-0.219432
 20
10.9210
 30
0.000000
  70
    32
  0
VERTEX
  8
0
  5
6B1
 10
-0.219329
 20
10.9208
 30
0.000000
  70
    32
  0
VERTEX
  8
0
  5
6B2
 10
-0.219223
 20
10.9205
 30
0.000000
  70
    32
  0
VERTEX
  8
0
  5
6B3
 10
-0.219115
 20
10.9203
 30
0.000000
  70
    32
  0
VERTEX
  8
0
  5
6B4
 10
-0.219003
 20
10.9201
 30
0.000000
  70
    32
  0
VERTEX
  8
0
  5
6B5
 10
-0.218890
 20
10.9199
 30
0.000000
  70
    32
  0
VERTEX
  8
0
  5
6B6
 10
-0.218773
 20
10.9197
 30
0.000000
  70
    32
  0
VERTEX
  8
0
  5
6B7
 10
-0.218654
 20
10.9195
 30
0.000000
  70
    32
  0
VERTEX
  8
0
  5
6B8
 10
-0.218533
 20
10.9193
 30
0.000000
  70
    32
  0
VERTEX
  8
0
  5
6B9
 10
-0.218409
 20
10.9190
 30
0.000000
  70
    32
  0
VERTEX
  8
0
  5
6BA
 10
-0.218283
 20
10.9188
 30
0.000000
  70
    32
  0
VERTEX
  8
0
  5
6BB
 10
-0.218154
 20
10.9186
 30
0.000000
  70
    32
  0
VERTEX
  8
0
  5
6BC
 10
-0.218023
 20
10.9184
 30
0.000000
  70
    32
  0
VERTEX
  8
0
  5
6BD
 10
-0.217889
 20
10.9182
 30
0.000000
  70
    32
  0
VERTEX
  8
0
  5
6BE
 10
-0.217753
 20
10.9180
 30
0.000000
  70
    32
  0
VERTEX
  8
0
  5
6BF
 10
-0.217614
 20
10.9178
 30
0.000000
  70
    32
  0
VERTEX
  8
0
  5
6C0
 10
-0.217474
 20
10.9176
 30
0.000000
  70
    32
  0
VERTEX
  8
0
  5
6C1
 10
-0.217330
 20
10.9174
 30
0.000000
  70
    32
  0
VERTEX
  8
0
  5
6C2
 10
-0.217185
 20
10.9172
 30
0.000000
  70
    32
  0
VERTEX
  8
0
  5
6C3
 10
-0.217037
 20
10.9170
 30
0.000000
  70
    32
  0
VERTEX
  8
0
  5
6C4
 10
-0.216887
 20
10.9168
 30
0.000000
  70
    32
  0
VERTEX
  8
0
  5
6C5
 10
-0.216735
 20
10.9167
 30
0.000000
  70
    32
  0
VERTEX
  8
0
  5
6C6
 10
-0.216580
 20
10.9165
 30
0.000000
  70
    32
  0
VERTEX
  8
0
  5
6C7
 10
-0.216423
 20
10.9163
 30
0.000000
  70
    32
  0
VERTEX
  8
0
  5
6C8
 10
-0.216265
 20
10.9161
 30
0.000000
  70
    32
  0
VERTEX
  8
0
  5
6C9
 10
-0.216103
 20
10.9159
 30
0.000000
  70
    32
  0
VERTEX
  8
0
  5
6CA
 10
-0.215940
 20
10.9157
 30
0.000000
  70
    32
  0
VERTEX
  8
0
  5
6CB
 10
-0.215775
 20
10.9156
 30
0.000000
  70
    32
  0
VERTEX
  8
0
  5
6CC
 10
-0.215607
 20
10.9154
 30
0.000000
  70
    32
  0
VERTEX
  8
0
  5
6CD
 10
-0.215437
 20
10.9152
 30
0.000000
  70
    32
  0
VERTEX
  8
0
  5
6CE
 10
-0.215266
 20
10.9150
 30
0.000000
  70
    32
  0
VERTEX
  8
0
  5
6CF
 10
-0.215092
 20
10.9149
 30
0.000000
  70
    32
  0
VERTEX
  8
0
  5
6D0
 10
-0.214916
 20
10.9147
 30
0.000000
  70
    32
  0
VERTEX
  8
0
  5
6D1
 10
-0.214738
 20
10.9145
 30
0.000000
  70
    32
  0
VERTEX
  8
0
  5
6D2
 10
-0.214558
 20
10.9144
 30
0.000000
  70
    32
  0
VERTEX
  8
0
  5
6D3
 10
-0.214376
 20
10.9142
 30
0.000000
  70
    32
  0
VERTEX
  8
0
  5
6D4
 10
-0.214193
 20
10.9141
 30
0.000000
  70
    32
  0
VERTEX
  8
0
  5
6D5
 10
-0.214007
 20
10.9139
 30
0.000000
  70
    32
  0
VERTEX
  8
0
  5
6D6
 10
-0.213819
 20
10.9137
 30
0.000000
  70
    32
  0
VERTEX
  8
0
  5
6D7
 10
-0.213630
 20
10.9136
 30
0.000000
  70
    32
  0
VERTEX
  8
0
  5
6D8
 10
-0.213438
 20
10.9134
 30
0.000000
  70
    32
  0
VERTEX
  8
0
  5
6D9
 10
-0.213245
 20
10.9133
 30
0.000000
  70
    32
  0
VERTEX
  8
0
  5
6DA
 10
-0.213050
 20
10.9131
 30
0.000000
  70
    32
  0
VERTEX
  8
0
  5
6DB
 10
-0.212853
 20
10.9130
 30
0.000000
  70
    32
  0
VERTEX
  8
0
  5
6DC
 10
-0.212654
 20
10.9129
 30
0.000000
  70
    32
  0
VERTEX
  8
0
  5
6DD
 10
-0.212454
 20
10.9127
 30
0.000000
  70
    32
  0
VERTEX
  8
0
  5
6DE
 10
-0.212251
 20
10.9126
 30
0.000000
  70
    32
  0
VERTEX
  8
0
  5
6DF
 10
-0.212047
 20
10.9125
 30
0.000000
  70
    32
  0
VERTEX
  8
0
  5
6E0
 10
-0.211842
 20
10.9123
 30
0.000000
  70
    32
  0
VERTEX
  8
0
  5
6E1
 10
-0.211634
 20
10.9122
 30
0.000000
  70
    32
  0
VERTEX
  8
0
  5
6E2
 10
-0.211425
 20
10.9121
 30
0.000000
  70
    32
  0
VERTEX
  8
0
  5
6E3
 10
-0.211214
 20
10.9120
 30
0.000000
  70
    32
  0
VERTEX
  8
0
  5
6E4
 10
-0.211002
 20
10.9118
 30
0.000000
  70
    32
  0
VERTEX
  8
0
  5
6E5
 10
-0.210788
 20
10.9117
 30
0.000000
  70
    32
  0
VERTEX
  8
0
  5
6E6
 10
-0.210572
 20
10.9116
 30
0.000000
  70
    32
  0
VERTEX
  8
0
  5
6E7
 10
-0.210355
 20
10.9115
 30
0.000000
  70
    32
  0
VERTEX
  8
0
  5
6E8
 10
-0.210136
 20
10.9114
 30
0.000000
  70
    32
  0
VERTEX
  8
0
  5
6E9
 10
-0.209916
 20
10.9113
 30
0.000000
  70
    32
  0
VERTEX
  8
0
  5
6EA
 10
-0.209694
 20
10.9112
 30
0.000000
  70
    32
  0
VERTEX
  8
0
  5
6EB
 10
-0.209471
 20
10.9111
 30
0.000000
  70
    32
  0
VERTEX
  8
0
  5
6EC
 10
-0.209246
 20
10.9110
 30
0.000000
  70
    32
  0
VERTEX
  8
0
  5
6ED
 10
-0.209020
 20
10.9109
 30
0.000000
  70
    32
  0
VERTEX
  8
0
  5
6EE
 10
-0.208792
 20
10.9108
 30
0.000000
  70
    32
  0
VERTEX
  8
0
  5
6EF
 10
-0.208563
 20
10.9107
 30
0.000000
  70
    32
  0
VERTEX
  8
0
  5
6F0
 10
-0.208333
 20
10.9106
 30
0.000000
  70
    32
  0
VERTEX
  8
0
  5
6F1
 10
-0.208101
 20
10.9105
 30
0.000000
  70
    32
  0
VERTEX
  8
0
  5
6F2
 10
-0.207867
 20
10.9104
 30
0.000000
  70
    32
  0
VERTEX
  8
0
  5
6F3
 10
-0.207633
 20
10.9103
 30
0.000000
  70
    32
  0
VERTEX
  8
0
  5
6F4
 10
-0.207397
 20
10.9102
 30
0.000000
  70
    32
  0
VERTEX
  8
0
  5
6F5
 10
-0.207160
 20
10.9102
 30
0.000000
  70
    32
  0
VERTEX
  8
0
  5
6F6
 10
-0.206921
 20
10.9101
 30
0.000000
  70
    32
  0
VERTEX
  8
0
  5
6F7
 10
-0.206682
 20
10.9100
 30
0.000000
  70
    32
  0
VERTEX
  8
0
  5
6F8
 10
-0.206441
 20
10.9100
 30
0.000000
  70
    32
  0
VERTEX
  8
0
  5
6F9
 10
-0.206199
 20
10.9099
 30
0.000000
  70
    32
  0
VERTEX
  8
0
  5
6FA
 10
-0.205955
 20
10.9098
 30
0.000000
  70
    32
  0
VERTEX
  8
0
  5
6FB
 10
-0.205711
 20
10.9098
 30
0.000000
  70
    32
  0
VERTEX
  8
0
  5
6FC
 10
-0.205465
 20
10.9097
 30
0.000000
  70
    32
  0
VERTEX
  8
0
  5
6FD
 10
-0.205218
 20
10.9097
 30
0.000000
  70
    32
  0
VERTEX
  8
0
  5
6FE
 10
-0.204970
 20
10.9096
 30
0.000000
  70
    32
  0
VERTEX
  8
0
  5
6FF
 10
-0.204721
 20
10.9096
 30
0.000000
  70
    32
  0
VERTEX
  8
0
  5
700
 10
-0.204471
 20
10.9095
 30
0.000000
  70
    32
  0
VERTEX
  8
0
  5
701
 10
-0.204220
 20
10.9095
 30
0.000000
  70
    32
  0
VERTEX
  8
0
  5
702
 10
-0.203967
 20
10.9095
 30
0.000000
  70
    32
  0
VERTEX
  8
0
  5
703
 10
-0.203714
 20
10.9094
 30
0.000000
  70
    32
  0
VERTEX
  8
0
  5
704
 10
-0.203460
 20
10.9094
 30
0.000000
  70
    32
  0
VERTEX
  8
0
  5
705
 10
-0.203205
 20
10.9094
 30
0.000000
  70
    32
  0
VERTEX
  8
0
  5
706
 10
-0.202949
 20
10.9093
 30
0.000000
  70
    32
  0
VERTEX
  8
0
  5
707
 10
-0.202691
 20
10.9093
 30
0.000000
  70
    32
  0
VERTEX
  8
0
  5
708
 10
-0.202433
 20
10.9093
 30
0.000000
  70
    32
  0
VERTEX
  8
0
  5
709
 10
-0.202175
 20
10.9093
 30
0.000000
  70
    32
  0
VERTEX
  8
0
  5
70A
 10
-0.201915
 20
10.9093
 30
0.000000
  70
    32
  0
VERTEX
  8
0
  5
70B
 10
-0.201654
 20
10.9093
 30
0.000000
  70
    32
  0
VERTEX
  8
0
  5
70C
 10
-0.201393
 20
10.9093
 30
0.000000
  70
    32
  0
VERTEX
  8
0
  5
70D
 10
-0.201130
 20
10.9093
 30
0.000000
  70
    32
  0
SEQEND
  8
0
  5
70E
  0
POLYLINE
  8
0
  5
70F
  66
     1
 10
0.000000
 20
0.000000
 30
0.000000
  70
     8
  0
VERTEX
  8
0
  5
710
 10
-0.201450
 20
10.9093
 30
0.000000
  70
    32
  0
VERTEX
  8
0
  5
711
 10
-0.201709
 20
10.9093
 30
0.000000
  70
    32
  0
VERTEX
  8
0
  5
712
 10
-0.201968
 20
10.9093
 30
0.000000
  70
    32
  0
VERTEX
  8
0
  5
713
 10
-0.202225
 20
10.9092
 30
0.000000
  70
    32
  0
VERTEX
  8
0
  5
714
 10
-0.202482
 20
10.9092
 30
0.000000
  70
    32
  0
VERTEX
  8
0
  5
715
 10
-0.202738
 20
10.9092
 30
0.000000
  70
    32
  0
VERTEX
  8
0
  5
716
 10
-0.202993
 20
10.9092
 30
0.000000
  70
    32
  0
VERTEX
  8
0
  5
717
 10
-0.203248
 20
10.9092
 30
0.000000
  70
    32
  0
VERTEX
  8
0
  5
718
 10
-0.203501
 20
10.9092
 30
0.000000
  70
    32
  0
VERTEX
  8
0
  5
719
 10
-0.203753
 20
10.9091
 30
0.000000
  70
    32
  0
VERTEX
  8
0
  5
71A
 10
-0.204005
 20
10.9091
 30
0.000000
  70
    32
  0
VERTEX
  8
0
  5
71B
 10
-0.204255
 20
10.9091
 30
0.000000
  70
    32
  0
VERTEX
  8
0
  5
71C
 10
-0.204505
 20
10.9090
 30
0.000000
  70
    32
  0
VERTEX
  8
0
  5
71D
 10
-0.204753
 20
10.9090
 30
0.000000
  70
    32
  0
VERTEX
  8
0
  5
71E
 10
-0.205001
 20
10.9089
 30
0.000000
  70
    32
  0
VERTEX
  8
0
  5
71F
 10
-0.205247
 20
10.9089
 30
0.000000
  70
    32
  0
VERTEX
  8
0
  5
720
 10
-0.205493
 20
10.9089
 30
0.000000
  70
    32
  0
VERTEX
  8
0
  5
721
 10
-0.205737
 20
10.9088
 30
0.000000
  70
    32
  0
VERTEX
  8
0
  5
722
 10
-0.205980
 20
10.9087
 30
0.000000
  70
    32
  0
VERTEX
  8
0
  5
723
 10
-0.206222
 20
10.9087
 30
0.000000
  70
    32
  0
VERTEX
  8
0
  5
724
 10
-0.206463
 20
10.9086
 30
0.000000
  70
    32
  0
VERTEX
  8
0
  5
725
 10
-0.206703
 20
10.9086
 30
0.000000
  70
    32
  0
VERTEX
  8
0
  5
726
 10
-0.206942
 20
10.9085
 30
0.000000
  70
    32
  0
VERTEX
  8
0
  5
727
 10
-0.207179
 20
10.9084
 30
0.000000
  70
    32
  0
VERTEX
  8
0
  5
728
 10
-0.207415
 20
10.9084
 30
0.000000
  70
    32
  0
VERTEX
  8
0
  5
729
 10
-0.207650
 20
10.9083
 30
0.000000
  70
    32
  0
VERTEX
  8
0
  5
72A
 10
-0.207884
 20
10.9082
 30
0.000000
  70
    32
  0
VERTEX
  8
0
  5
72B
 10
-0.208116
 20
10.9081
 30
0.000000
  70
    32
  0
VERTEX
  8
0
  5
72C
 10
-0.208347
 20
10.9080
 30
0.000000
  70
    32
  0
VERTEX
  8
0
  5
72D
 10
-0.208577
 20
10.9080
 30
0.000000
  70
    32
  0
VERTEX
  8
0
  5
72E
 10
-0.208805
 20
10.9079
 30
0.000000
  70
    32
  0
VERTEX
  8
0
  5
72F
 10
-0.209032
 20
10.9078
 30
0.000000
  70
    32
  0
VERTEX
  8
0
  5
730
 10
-0.209258
 20
10.9077
 30
0.000000
  70
    32
  0
VERTEX
  8
0
  5
731
 10
-0.209482
 20
10.9076
 30
0.000000
  70
    32
  0
VERTEX
  8
0
  5
732
 10
-0.209705
 20
10.9075
 30
0.000000
  70
    32
  0
VERTEX
  8
0
  5
733
 10
-0.209927
 20
10.9074
 30
0.000000
  70
    32
  0
VERTEX
  8
0
  5
734
 10
-0.210147
 20
10.9073
 30
0.000000
  70
    32
  0
VERTEX
  8
0
  5
735
 10
-0.210365
 20
10.9072
 30
0.000000
  70
    32
  0
VERTEX
  8
0
  5
736
 10
-0.210582
 20
10.9071
 30
0.000000
  70
    32
  0
VERTEX
  8
0
  5
737
 10
-0.210798
 20
10.9069
 30
0.000000
  70
    32
  0
VERTEX
  8
0
  5
738
 10
-0.211012
 20
10.9068
 30
0.000000
  70
    32
  0
VERTEX
  8
0
  5
739
 10
-0.211224
 20
10.9067
 30
0.000000
  70
    32
  0
VERTEX
  8
0
  5
73A
 10
-0.211435
 20
10.9066
 30
0.000000
  70
    32
  0
VERTEX
  8
0
  5
73B
 10
-0.211644
 20
10.9065
 30
0.000000
  70
    32
  0
VERTEX
  8
0
  5
73C
 10
-0.211852
 20
10.9063
 30
0.000000
  70
    32
  0
VERTEX
  8
0
  5
73D
 10
-0.212058
 20
10.9062
 30
0.000000
  70
    32
  0
VERTEX
  8
0
  5
73E
 10
-0.212262
 20
10.9061
 30
0.000000
  70
    32
  0
VERTEX
  8
0
  5
73F
 10
-0.212465
 20
10.9060
 30
0.000000
  70
    32
  0
VERTEX
  8
0
  5
740
 10
-0.212666
 20
10.9058
 30
0.000000
  70
    32
  0
VERTEX
  8
0
  5
741
 10
-0.212865
 20
10.9057
 30
0.000000
  70
    32
  0
VERTEX
  8
0
  5
742
 10
-0.213063
 20
10.9055
 30
0.000000
  70
    32
  0
VERTEX
  8
0
  5
743
 10
-0.213259
 20
10.9054
 30
0.000000
  70
    32
  0
VERTEX
  8
0
  5
744
 10
-0.213453
 20
10.9053
 30
0.000000
  70
    32
  0
VERTEX
  8
0
  5
745
 10
-0.213645
 20
10.9051
 30
0.000000
  70
    32
  0
VERTEX
  8
0
  5
746
 10
-0.213836
 20
10.9050
 30
0.000000
  70
    32
  0
VERTEX
  8
0
  5
747
 10
-0.214024
 20
10.9048
 30
0.000000
  70
    32
  0
VERTEX
  8
0
  5
748
 10
-0.214211
 20
10.9047
 30
0.000000
  70
    32
  0
VERTEX
  8
0
  5
749
 10
-0.214396
 20
10.9045
 30
0.000000
  70
    32
  0
VERTEX
  8
0
  5
74A
 10
-0.214579
 20
10.9044
 30
0.000000
  70
    32
  0
VERTEX
  8
0
  5
74B
 10
-0.214760
 20
10.9042
 30
0.000000
  70
    32
  0
VERTEX
  8
0
  5
74C
 10
-0.214940
 20
10.9040
 30
0.000000
  70
    32
  0
VERTEX
  8
0
  5
74D
 10
-0.215117
 20
10.9039
 30
0.000000
  70
    32
  0
VERTEX
  8
0
  5
74E
 10
-0.215292
 20
10.9037
 30
0.000000
  70
    32
  0
VERTEX
  8
0
  5
74F
 10
-0.215466
 20
10.9035
 30
0.000000
  70
    32
  0
VERTEX
  8
0
  5
750
 10
-0.215637
 20
10.9034
 30
0.000000
  70
    32
  0
VERTEX
  8
0
  5
751
 10
-0.215806
 20
10.9032
 30
0.000000
  70
    32
  0
VERTEX
  8
0
  5
752
 10
-0.215974
 20
10.9030
 30
0.000000
  70
    32
  0
VERTEX
  8
0
  5
753
 10
-0.216139
 20
10.9028
 30
0.000000
  70
    32
  0
VERTEX
  8
0
  5
754
 10
-0.216302
 20
10.9027
 30
0.000000
  70
    32
  0
VERTEX
  8
0
  5
755
 10
-0.216463
 20
10.9025
 30
0.000000
  70
    32
  0
VERTEX
  8
0
  5
756
 10
-0.216622
 20
10.9023
 30
0.000000
  70
    32
  0
VERTEX
  8
0
  5
757
 10
-0.216779
 20
10.9021
 30
0.000000
  70
    32
  0
VERTEX
  8
0
  5
758
 10
-0.216934
 20
10.9019
 30
0.000000
  70
    32
  0
VERTEX
  8
0
  5
759
 10
-0.217086
 20
10.9018
 30
0.000000
  70
    32
  0
VERTEX
  8
0
  5
75A
 10
-0.217236
 20
10.9016
 30
0.000000
  70
    32
  0
VERTEX
  8
0
  5
75B
 10
-0.217384
 20
10.9014
 30
0.000000
  70
    32
  0
VERTEX
  8
0
  5
75C
 10
-0.217530
 20
10.9012
 30
0.000000
  70
    32
  0
VERTEX
  8
0
  5
75D
 10
-0.217674
 20
10.9010
 30
0.000000
  70
    32
  0
VERTEX
  8
0
  5
75E
 10
-0.217815
 20
10.9008
 30
0.000000
  70
    32
  0
VERTEX
  8
0
  5
75F
 10
-0.217954
 20
10.9006
 30
0.000000
  70
    32
  0
VERTEX
  8
0
  5
760
 10
-0.218091
 20
10.9004
 30
0.000000
  70
    32
  0
VERTEX
  8
0
  5
761
 10
-0.218225
 20
10.9002
 30
0.000000
  70
    32
  0
VERTEX
  8
0
  5
762
 10
-0.218357
 20
10.9000
 30
0.000000
  70
    32
  0
VERTEX
  8
0
  5
763
 10
-0.218487
 20
10.8998
 30
0.000000
  70
    32
  0
VERTEX
  8
0
  5
764
 10
-0.218614
 20
10.8996
 30
0.000000
  70
    32
  0
VERTEX
  8
0
  5
765
 10
-0.218739
 20
10.8994
 30
0.000000
  70
    32
  0
VERTEX
  8
0
  5
766
 10
-0.218862
 20
10.8992
 30
0.000000
  70
    32
  0
VERTEX
  8
0
  5
767
 10
-0.218982
 20
10.8990
 30
0.000000
  70
    32
  0
VERTEX
  8
0
  5
768
 10
-0.219099
 20
10.8987
 30
0.000000
  70
    32
  0
VERTEX
  8
0
  5
769
 10
-0.219214
 20
10.8985
 30
0.000000
  70
    32
  0
VERTEX
  8
0
  5
76A
 10
-0.219327
 20
10.8983
 30
0.000000
  70
    32
  0
VERTEX
  8
0
  5
76B
 10
-0.219437
 20
10.8981
 30
0.000000
  70
    32
  0
VERTEX
  8
0
  5
76C
 10
-0.219544
 20
10.8979
 30
0.000000
  70
    32
  0
VERTEX
  8
0
  5
76D
 10
-0.219649
 20
10.8977
 30
0.000000
  70
    32
  0
VERTEX
  8
0
  5
76E
 10
-0.219752
 20
10.8974
 30
0.000000
  70
    32
  0
VERTEX
  8
0
  5
76F
 10
-0.219851
 20
10.8972
 30
0.000000
  70
    32
  0
VERTEX
  8
0
  5
770
 10
-0.219948
 20
10.8970
 30
0.000000
  70
    32
  0
VERTEX
  8
0
  5
771
 10
-0.220043
 20
10.8968
 30
0.000000
  70
    32
  0
VERTEX
  8
0
  5
772
 10
-0.220135
 20
10.8965
 30
0.000000
  70
    32
  0
VERTEX
  8
0
  5
773
 10
-0.220224
 20
10.8963
 30
0.000000
  70
    32
  0
VERTEX
  8
0
  5
774
 10
-0.220310
 20
10.8961
 30
0.000000
  70
    32
  0
VERTEX
  8
0
  5
775
 10
-0.220394
 20
10.8958
 30
0.000000
  70
    32
  0
VERTEX
  8
0
  5
776
 10
-0.220475
 20
10.8956
 30
0.000000
  70
    32
  0
VERTEX
  8
0
  5
777
 10
-0.220553
 20
10.8954
 30
0.000000
  70
    32
  0
VERTEX
  8
0
  5
778
 10
-0.220629
 20
10.8951
 30
0.000000
  70
    32
  0
VERTEX
  8
0
  5
779
 10
-0.220701
 20
10.8949
 30
0.000000
  70
    32
  0
VERTEX
  8
0
  5
77A
 10
-0.220771
 20
10.8947
 30
0.000000
  70
    32
  0
VERTEX
  8
0
  5
77B
 10
-0.220838
 20
10.8944
 30
0.000000
  70
    32
  0
VERTEX
  8
0
  5
77C
 10
-0.220902
 20
10.8942
 30
0.000000
  70
    32
  0
VERTEX
  8
0
  5
77D
 10
-0.220963
 20
10.8939
 30
0.000000
  70
    32
  0
VERTEX
  8
0
  5
77E
 10
-0.221022
 20
10.8937
 30
0.000000
  70
    32
  0
VERTEX
  8
0
  5
77F
 10
-0.221077
 20
10.8935
 30
0.000000
  70
    32
  0
VERTEX
  8
0
  5
780
 10
-0.221130
 20
10.8932
 30
0.000000
  70
    32
  0
VERTEX
  8
0
  5
781
 10
-0.221179
 20
10.8930
 30
0.000000
  70
    32
  0
VERTEX
  8
0
  5
782
 10
-0.221226
 20
10.8927
 30
0.000000
  70
    32
  0
VERTEX
  8
0
  5
783
 10
-0.221269
 20
10.8925
 30
0.000000
  70
    32
  0
VERTEX
  8
0
  5
784
 10
-0.221310
 20
10.8922
 30
0.000000
  70
    32
  0
VERTEX
  8
0
  5
785
 10
-0.221347
 20
10.8920
 30
0.000000
  70
    32
  0
VERTEX
  8
0
  5
786
 10
-0.221382
 20
10.8917
 30
0.000000
  70
    32
  0
VERTEX
  8
0
  5
787
 10
-0.221413
 20
10.8915
 30
0.000000
  70
    32
  0
VERTEX
  8
0
  5
788
 10
-0.221442
 20
10.8912
 30
0.000000
  70
    32
  0
VERTEX
  8
0
  5
789
 10
-0.221467
 20
10.8910
 30
0.000000
  70
    32
  0
VERTEX
  8
0
  5
78A
 10
-0.221489
 20
10.8907
 30
0.000000
  70
    32
  0
VERTEX
  8
0
  5
78B
 10
-0.221508
 20
10.8905
 30
0.000000
  70
    32
  0
VERTEX
  8
0
  5
78C
 10
-0.221524
 20
10.8902
 30
0.000000
  70
    32
  0
VERTEX
  8
0
  5
78D
 10
-0.221536
 20
10.8900
 30
0.000000
  70
    32
  0
VERTEX
  8
0
  5
78E
 10
-0.221546
 20
10.8897
 30
0.000000
  70
    32
  0
VERTEX
  8
0
  5
78F
 10
-0.221552
 20
10.8894
 30
0.000000
  70
    32
  0
SEQEND
  8
0
  5
790
  0
POLYLINE
  8
0
  5
791
  66
     1
 10
0.000000
 20
0.000000
 30
0.000000
  70
     8
  0
VERTEX
  8
0
  5
792
 10
-0.481469
 20
10.3306
 30
0.000000
  70
    32
  0
VERTEX
  8
0
  5
793
 10
-0.477952
 20
10.3316
 30
0.000000
  70
    32
  0
VERTEX
  8
0
  5
794
 10
-0.474452
 20
10.3326
 30
0.000000
  70
    32
  0
VERTEX
  8
0
  5
795
 10
-0.470969
 20
10.3337
 30
0.000000
  70
    32
  0
VERTEX
  8
0
  5
796
 10
-0.467504
 20
10.3348
 30
0.000000
  70
    32
  0
VERTEX
  8
0
  5
797
 10
-0.464056
 20
10.3360
 30
0.000000
  70
    32
  0
VERTEX
  8
0
  5
798
 10
-0.460625
 20
10.3372
 30
0.000000
  70
    32
  0
VERTEX
  8
0
  5
799
 10
-0.457213
 20
10.3384
 30
0.000000
  70
    32
  0
VERTEX
  8
0
  5
79A
 10
-0.453818
 20
10.3396
 30
0.000000
  70
    32
  0
VERTEX
  8
0
  5
79B
 10
-0.450442
 20
10.3409
 30
0.000000
  70
    32
  0
VERTEX
  8
0
  5
79C
 10
-0.447084
 20
10.3423
 30
0.000000
  70
    32
  0
VERTEX
  8
0
  5
79D
 10
-0.443744
 20
10.3436
 30
0.000000
  70
    32
  0
VERTEX
  8
0
  5
79E
 10
-0.440423
 20
10.3450
 30
0.000000
  70
    32
  0
VERTEX
  8
0
  5
79F
 10
-0.437121
 20
10.3464
 30
0.000000
  70
    32
  0
VERTEX
  8
0
  5
7A0
 10
-0.433837
 20
10.3479
 30
0.000000
  70
    32
  0
VERTEX
  8
0
  5
7A1
 10
-0.430573
 20
10.3493
 30
0.000000
  70
    32
  0
VERTEX
  8
0
  5
7A2
 10
-0.427328
 20
10.3508
 30
0.000000
  70
    32
  0
VERTEX
  8
0
  5
7A3
 10
-0.424103
 20
10.3524
 30
0.000000
  70
    32
  0
VERTEX
  8
0
  5
7A4
 10
-0.420897
 20
10.3540
 30
0.000000
  70
    32
  0
VERTEX
  8
0
  5
7A5
 10
-0.417711
 20
10.3556
 30
0.000000
  70
    32
  0
VERTEX
  8
0
  5
7A6
 10
-0.414545
 20
10.3572
 30
0.000000
  70
    32
  0
VERTEX
  8
0
  5
7A7
 10
-0.411400
 20
10.3588
 30
0.000000
  70
    32
  0
VERTEX
  8
0
  5
7A8
 10
-0.408274
 20
10.3605
 30
0.000000
  70
    32
  0
VERTEX
  8
0
  5
7A9
 10
-0.405169
 20
10.3623
 30
0.000000
  70
    32
  0
VERTEX
  8
0
  5
7AA
 10
-0.402084
 20
10.3640
 30
0.000000
  70
    32
  0
VERTEX
  8
0
  5
7AB
 10
-0.399020
 20
10.3658
 30
0.000000
  70
    32
  0
VERTEX
  8
0
  5
7AC
 10
-0.395978
 20
10.3676
 30
0.000000
  70
    32
  0
VERTEX
  8
0
  5
7AD
 10
-0.392956
 20
10.3694
 30
0.000000
  70
    32
  0
VERTEX
  8
0
  5
7AE
 10
-0.389955
 20
10.3713
 30
0.000000
  70
    32
  0
VERTEX
  8
0
  5
7AF
 10
-0.386976
 20
10.3732
 30
0.000000
  70
    32
  0
VERTEX
  8
0
  5
7B0
 10
-0.384019
 20
10.3751
 30
0.000000
  70
    32
  0
VERTEX
  8
0
  5
7B1
 10
-0.381083
 20
10.3771
 30
0.000000
  70
    32
  0
VERTEX
  8
0
  5
7B2
 10
-0.378170
 20
10.3791
 30
0.000000
  70
    32
  0
VERTEX
  8
0
  5
7B3
 10
-0.375278
 20
10.3811
 30
0.000000
  70
    32
  0
VERTEX
  8
0
  5
7B4
 10
-0.372408
 20
10.3831
 30
0.000000
  70
    32
  0
VERTEX
  8
0
  5
7B5
 10
-0.369562
 20
10.3852
 30
0.000000
  70
    32
  0
VERTEX
  8
0
  5
7B6
 10
-0.366737
 20
10.3873
 30
0.000000
  70
    32
  0
VERTEX
  8
0
  5
7B7
 10
-0.363935
 20
10.3894
 30
0.000000
  70
    32
  0
VERTEX
  8
0
  5
7B8
 10
-0.361157
 20
10.3915
 30
0.000000
  70
    32
  0
VERTEX
  8
0
  5
7B9
 10
-0.358401
 20
10.3937
 30
0.000000
  70
    32
  0
VERTEX
  8
0
  5
7BA
 10
-0.355669
 20
10.3959
 30
0.000000
  70
    32
  0
VERTEX
  8
0
  5
7BB
 10
-0.352960
 20
10.3981
 30
0.000000
  70
    32
  0
VERTEX
  8
0
  5
7BC
 10
-0.350274
 20
10.4004
 30
0.000000
  70
    32
  0
VERTEX
  8
0
  5
7BD
 10
-0.347612
 20
10.4026
 30
0.000000
  70
    32
  0
VERTEX
  8
0
  5
7BE
 10
-0.344974
 20
10.4049
 30
0.000000
  70
    32
  0
VERTEX
  8
0
  5
7BF
 10
-0.342361
 20
10.4073
 30
0.000000
  70
    32
  0
VERTEX
  8
0
  5
7C0
 10
-0.339771
 20
10.4096
 30
0.000000
  70
    32
  0
VERTEX
  8
0
  5
7C1
 10
-0.337206
 20
10.4120
 30
0.000000
  70
    32
  0
VERTEX
  8
0
  5
7C2
 10
-0.334665
 20
10.4144
 30
0.000000
  70
    32
  0
VERTEX
  8
0
  5
7C3
 10
-0.332149
 20
10.4168
 30
0.000000
  70
    32
  0
VERTEX
  8
0
  5
7C4
 10
-0.329658
 20
10.4193
 30
0.000000
  70
    32
  0
VERTEX
  8
0
  5
7C5
 10
-0.327192
 20
10.4217
 30
0.000000
  70
    32
  0
VERTEX
  8
0
  5
7C6
 10
-0.324752
 20
10.4242
 30
0.000000
  70
    32
  0
VERTEX
  8
0
  5
7C7
 10
-0.322336
 20
10.4267
 30
0.000000
  70
    32
  0
VERTEX
  8
0
  5
7C8
 10
-0.319946
 20
10.4293
 30
0.000000
  70
    32
  0
VERTEX
  8
0
  5
7C9
 10
-0.317582
 20
10.4318
 30
0.000000
  70
    32
  0
VERTEX
  8
0
  5
7CA
 10
-0.315244
 20
10.4344
 30
0.000000
  70
    32
  0
VERTEX
  8
0
  5
7CB
 10
-0.312932
 20
10.4370
 30
0.000000
  70
    32
  0
VERTEX
  8
0
  5
7CC
 10
-0.310645
 20
10.4397
 30
0.000000
  70
    32
  0
VERTEX
  8
0
  5
7CD
 10
-0.308386
 20
10.4423
 30
0.000000
  70
    32
  0
VERTEX
  8
0
  5
7CE
 10
-0.306152
 20
10.4450
 30
0.000000
  70
    32
  0
VERTEX
  8
0
  5
7CF
 10
-0.303946
 20
10.4477
 30
0.000000
  70
    32
  0
VERTEX
  8
0
  5
7D0
 10
-0.301766
 20
10.4504
 30
0.000000
  70
    32
  0
VERTEX
  8
0
  5
7D1
 10
-0.299614
 20
10.4531
 30
0.000000
  70
    32
  0
VERTEX
  8
0
  5
7D2
 10
-0.297488
 20
10.4559
 30
0.000000
  70
    32
  0
VERTEX
  8
0
  5
7D3
 10
-0.295390
 20
10.4587
 30
0.000000
  70
    32
  0
VERTEX
  8
0
  5
7D4
 10
-0.293319
 20
10.4615
 30
0.000000
  70
    32
  0
VERTEX
  8
0
  5
7D5
 10
-0.291276
 20
10.4643
 30
0.000000
  70
    32
  0
VERTEX
  8
0
  5
7D6
 10
-0.289261
 20
10.4672
 30
0.000000
  70
    32
  0
VERTEX
  8
0
  5
7D7
 10
-0.287274
 20
10.4700
 30
0.000000
  70
    32
  0
VERTEX
  8
0
  5
7D8
 10
-0.285315
 20
10.4729
 30
0.000000
  70
    32
  0
VERTEX
  8
0
  5
7D9
 10
-0.283385
 20
10.4758
 30
0.000000
  70
    32
  0
VERTEX
  8
0
  5
7DA
 10
-0.281482
 20
10.4787
 30
0.000000
  70
    32
  0
VERTEX
  8
0
  5
7DB
 10
-0.279609
 20
10.4817
 30
0.000000
  70
    32
  0
VERTEX
  8
0
  5
7DC
 10
-0.277764
 20
10.4846
 30
0.000000
  70
    32
  0
VERTEX
  8
0
  5
7DD
 10
-0.275949
 20
10.4876
 30
0.000000
  70
    32
  0
VERTEX
  8
0
  5
7DE
 10
-0.274162
 20
10.4906
 30
0.000000
  70
    32
  0
VERTEX
  8
0
  5
7DF
 10
-0.272405
 20
10.4936
 30
0.000000
  70
    32
  0
VERTEX
  8
0
  5
7E0
 10
-0.270677
 20
10.4967
 30
0.000000
  70
    32
  0
VERTEX
  8
0
  5
7E1
 10
-0.268979
 20
10.4997
 30
0.000000
  70
    32
  0
VERTEX
  8
0
  5
7E2
 10
-0.267311
 20
10.5028
 30
0.000000
  70
    32
  0
VERTEX
  8
0
  5
7E3
 10
-0.265672
 20
10.5059
 30
0.000000
  70
    32
  0
VERTEX
  8
0
  5
7E4
 10
-0.264064
 20
10.5090
 30
0.000000
  70
    32
  0
VERTEX
  8
0
  5
7E5
 10
-0.262486
 20
10.5121
 30
0.000000
  70
    32
  0
VERTEX
  8
0
  5
7E6
 10
-0.260939
 20
10.5152
 30
0.000000
  70
    32
  0
VERTEX
  8
0
  5
7E7
 10
-0.259422
 20
10.5184
 30
0.000000
  70
    32
  0
VERTEX
  8
0
  5
7E8
 10
-0.257936
 20
10.5215
 30
0.000000
  70
    32
  0
VERTEX
  8
0
  5
7E9
 10
-0.256481
 20
10.5247
 30
0.000000
  70
    32
  0
VERTEX
  8
0
  5
7EA
 10
-0.255057
 20
10.5279
 30
0.000000
  70
    32
  0
VERTEX
  8
0
  5
7EB
 10
-0.253664
 20
10.5312
 30
0.000000
  70
    32
  0
VERTEX
  8
0
  5
7EC
 10
-0.252303
 20
10.5344
 30
0.000000
  70
    32
  0
VERTEX
  8
0
  5
7ED
 10
-0.250974
 20
10.5376
 30
0.000000
  70
    32
  0
VERTEX
  8
0
  5
7EE
 10
-0.249676
 20
10.5409
 30
0.000000
  70
    32
  0
VERTEX
  8
0
  5
7EF
 10
-0.248410
 20
10.5442
 30
0.000000
  70
    32
  0
VERTEX
  8
0
  5
7F0
 10
-0.247176
 20
10.5475
 30
0.000000
  70
    32
  0
VERTEX
  8
0
  5
7F1
 10
-0.245975
 20
10.5508
 30
0.000000
  70
    32
  0
VERTEX
  8
0
  5
7F2
 10
-0.244806
 20
10.5541
 30
0.000000
  70
    32
  0
VERTEX
  8
0
  5
7F3
 10
-0.243669
 20
10.5574
 30
0.000000
  70
    32
  0
VERTEX
  8
0
  5
7F4
 10
-0.242565
 20
10.5608
 30
0.000000
  70
    32
  0
VERTEX
  8
0
  5
7F5
 10
-0.241495
 20
10.5642
 30
0.000000
  70
    32
  0
VERTEX
  8
0
  5
7F6
 10
-0.240457
 20
10.5675
 30
0.000000
  70
    32
  0
VERTEX
  8
0
  5
7F7
 10
-0.239452
 20
10.5709
 30
0.000000
  70
    32
  0
VERTEX
  8
0
  5
7F8
 10
-0.238481
 20
10.5743
 30
0.000000
  70
    32
  0
VERTEX
  8
0
  5
7F9
 10
-0.237544
 20
10.5778
 30
0.000000
  70
    32
  0
VERTEX
  8
0
  5
7FA
 10
-0.236640
 20
10.5812
 30
0.000000
  70
    32
  0
VERTEX
  8
0
  5
7FB
 10
-0.235770
 20
10.5846
 30
0.000000
  70
    32
  0
VERTEX
  8
0
  5
7FC
 10
-0.234935
 20
10.5881
 30
0.000000
  70
    32
  0
VERTEX
  8
0
  5
7FD
 10
-0.234133
 20
10.5915
 30
0.000000
  70
    32
  0
VERTEX
  8
0
  5
7FE
 10
-0.233366
 20
10.5950
 30
0.000000
  70
    32
  0
VERTEX
  8
0
  5
7FF
 10
-0.232634
 20
10.5985
 30
0.000000
  70
    32
  0
VERTEX
  8
0
  5
800
 10
-0.231936
 20
10.6020
 30
0.000000
  70
    32
  0
VERTEX
  8
0
  5
801
 10
-0.231273
 20
10.6055
 30
0.000000
  70
    32
  0
VERTEX
  8
0
  5
802
 10
-0.230645
 20
10.6090
 30
0.000000
  70
    32
  0
VERTEX
  8
0
  5
803
 10
-0.230052
 20
10.6126
 30
0.000000
  70
    32
  0
VERTEX
  8
0
  5
804
 10
-0.229495
 20
10.6161
 30
0.000000
  70
    32
  0
VERTEX
  8
0
  5
805
 10
-0.228974
 20
10.6197
 30
0.000000
  70
    32
  0
VERTEX
  8
0
  5
806
 10
-0.228488
 20
10.6232
 30
0.000000
  70
    32
  0
VERTEX
  8
0
  5
807
 10
-0.228038
 20
10.6268
 30
0.000000
  70
    32
  0
VERTEX
  8
0
  5
808
 10
-0.227624
 20
10.6304
 30
0.000000
  70
    32
  0
VERTEX
  8
0
  5
809
 10
-0.227246
 20
10.6340
 30
0.000000
  70
    32
  0
VERTEX
  8
0
  5
80A
 10
-0.226904
 20
10.6376
 30
0.000000
  70
    32
  0
VERTEX
  8
0
  5
80B
 10
-0.226599
 20
10.6412
 30
0.000000
  70
    32
  0
VERTEX
  8
0
  5
80C
 10
-0.226331
 20
10.6448
 30
0.000000
  70
    32
  0
VERTEX
  8
0
  5
80D
 10
-0.226100
 20
10.6485
 30
0.000000
  70
    32
  0
VERTEX
  8
0
  5
80E
 10
-0.225906
 20
10.6521
 30
0.000000
  70
    32
  0
VERTEX
  8
0
  5
80F
 10
-0.225748
 20
10.6557
 30
0.000000
  70
    32
  0
VERTEX
  8
0
  5
810
 10
-0.225629
 20
10.6594
 30
0.000000
  70
    32
  0
VERTEX
  8
0
  5
811
 10
-0.225546
 20
10.6631
 30
0.000000
  70
    32
  0
SEQEND
  8
0
  5
812
  0
POLYLINE
  8
0
  5
813
  66
     1
 10
0.000000
 20
0.000000
 30
0.000000
  70
     8
  0
VERTEX
  8
0
  5
814
 10
1.12626
 20
0.140809
 30
0.000000
  70
    32
  0
VERTEX
  8
0
  5
815
 10
1.12626
 20
0.141202
 30
0.000000
  70
    32
  0
VERTEX
  8
0
  5
816
 10
1.12625
 20
0.141595
 30
0.000000
  70
    32
  0
VERTEX
  8
0
  5
817
 10
1.12624
 20
0.141986
 30
0.000000
  70
    32
  0
VERTEX
  8
0
  5
818
 10
1.12622
 20
0.142375
 30
0.000000
  70
    32
  0
VERTEX
  8
0
  5
819
 10
1.12620
 20
0.142764
 30
0.000000
  70
    32
  0
VERTEX
  8
0
  5
81A
 10
1.12617
 20
0.143151
 30
0.000000
  70
    32
  0
VERTEX
  8
0
  5
81B
 10
1.12614
 20
0.143537
 30
0.000000
  70
    32
  0
VERTEX
  8
0
  5
81C
 10
1.12610
 20
0.143921
 30
0.000000
  70
    32
  0
VERTEX
  8
0
  5
81D
 10
1.12606
 20
0.144304
 30
0.000000
  70
    32
  0
VERTEX
  8
0
  5
81E
 10
1.12602
 20
0.144686
 30
0.000000
  70
    32
  0
VERTEX
  8
0
  5
81F
 10
1.12596
 20
0.145066
 30
0.000000
  70
    32
  0
VERTEX
  8
0
  5
820
 10
1.12591
 20
0.145445
 30
0.000000
  70
    32
  0
VERTEX
  8
0
  5
821
 10
1.12585
 20
0.145822
 30
0.000000
  70
    32
  0
VERTEX
  8
0
  5
822
 10
1.12578
 20
0.146198
 30
0.000000
  70
    32
  0
VERTEX
  8
0
  5
823
 10
1.12571
 20
0.146572
 30
0.000000
  70
    32
  0
VERTEX
  8
0
  5
824
 10
1.12564
 20
0.146944
 30
0.000000
  70
    32
  0
VERTEX
  8
0
  5
825
 10
1.12556
 20
0.147315
 30
0.000000
  70
    32
  0
VERTEX
  8
0
  5
826
 10
1.12548
 20
0.147684
 30
0.000000
  70
    32
  0
VERTEX
  8
0
  5
827
 10
1.12539
 20
0.148051
 30
0.000000
  70
    32
  0
VERTEX
  8
0
  5
828
 10
1.12530
 20
0.148416
 30
0.000000
  70
    32
  0
VERTEX
  8
0
  5
829
 10
1.12520
 20
0.148780
 30
0.000000
  70
    32
  0
VERTEX
  8
0
  5
82A
 10
1.12510
 20
0.149142
 30
0.000000
  70
    32
  0
VERTEX
  8
0
  5
82B
 10
1.12499
 20
0.149502
 30
0.000000
  70
    32
  0
VERTEX
  8
0
  5
82C
 10
1.12488
 20
0.149861
 30
0.000000
  70
    32
  0
VERTEX
  8
0
  5
82D
 10
1.12477
 20
0.150217
 30
0.000000
  70
    32
  0
VERTEX
  8
0
  5
82E
 10
1.12465
 20
0.150571
 30
0.000000
  70
    32
  0
VERTEX
  8
0
  5
82F
 10
1.12453
 20
0.150924
 30
0.000000
  70
    32
  0
VERTEX
  8
0
  5
830
 10
1.12440
 20
0.151274
 30
0.000000
  70
    32
  0
VERTEX
  8
0
  5
831
 10
1.12427
 20
0.151623
 30
0.000000
  70
    32
  0
VERTEX
  8
0
  5
832
 10
1.12414
 20
0.151969
 30
0.000000
  70
    32
  0
VERTEX
  8
0
  5
833
 10
1.12400
 20
0.152314
 30
0.000000
  70
    32
  0
VERTEX
  8
0
  5
834
 10
1.12385
 20
0.152656
 30
0.000000
  70
    32
  0
VERTEX
  8
0
  5
835
 10
1.12371
 20
0.152996
 30
0.000000
  70
    32
  0
VERTEX
  8
0
  5
836
 10
1.12355
 20
0.153334
 30
0.000000
  70
    32
  0
VERTEX
  8
0
  5
837
 10
1.12340
 20
0.153670
 30
0.000000
  70
    32
  0
VERTEX
  8
0
  5
838
 10
1.12324
 20
0.154003
 30
0.000000
  70
    32
  0
VERTEX
  8
0
  5
839
 10
1.12308
 20
0.154334
 30
0.000000
  70
    32
  0
VERTEX
  8
0
  5
83A
 10
1.12291
 20
0.154663
 30
0.000000
  70
    32
  0
VERTEX
  8
0
  5
83B
 10
1.12274
 20
0.154990
 30
0.000000
  70
    32
  0
VERTEX
  8
0
  5
83C
 10
1.12256
 20
0.155314
 30
0.000000
  70
    32
  0
VERTEX
  8
0
  5
83D
 10
1.12239
 20
0.155636
 30
0.000000
  70
    32
  0
VERTEX
  8
0
  5
83E
 10
1.12220
 20
0.155955
 30
0.000000
  70
    32
  0
VERTEX
  8
0
  5
83F
 10
1.12202
 20
0.156272
 30
0.000000
  70
    32
  0
VERTEX
  8
0
  5
840
 10
1.12183
 20
0.156587
 30
0.000000
  70
    32
  0
VERTEX
  8
0
  5
841
 10
1.12163
 20
0.156899
 30
0.000000
  70
    32
  0
VERTEX
  8
0
  5
842
 10
1.12144
 20
0.157208
 30
0.000000
  70
    32
  0
VERTEX
  8
0
  5
843
 10
1.12123
 20
0.157515
 30
0.000000
  70
    32
  0
VERTEX
  8
0
  5
844
 10
1.12103
 20
0.157819
 30
0.000000
  70
    32
  0
VERTEX
  8
0
  5
845
 10
1.12082
 20
0.158121
 30
0.000000
  70
    32
  0
VERTEX
  8
0
  5
846
 10
1.12061
 20
0.158420
 30
0.000000
  70
    32
  0
VERTEX
  8
0
  5
847
 10
1.12039
 20
0.158716
 30
0.000000
  70
    32
  0
VERTEX
  8
0
  5
848
 10
1.12018
 20
0.159010
 30
0.000000
  70
    32
  0
VERTEX
  8
0
  5
849
 10
1.11995
 20
0.159301
 30
0.000000
  70
    32
  0
VERTEX
  8
0
  5
84A
 10
1.11973
 20
0.159589
 30
0.000000
  70
    32
  0
VERTEX
  8
0
  5
84B
 10
1.11950
 20
0.159874
 30
0.000000
  70
    32
  0
VERTEX
  8
0
  5
84C
 10
1.11927
 20
0.160157
 30
0.000000
  70
    32
  0
VERTEX
  8
0
  5
84D
 10
1.11903
 20
0.160436
 30
0.000000
  70
    32
  0
VERTEX
  8
0
  5
84E
 10
1.11879
 20
0.160713
 30
0.000000
  70
    32
  0
VERTEX
  8
0
  5
84F
 10
1.11855
 20
0.160986
 30
0.000000
  70
    32
  0
VERTEX
  8
0
  5
850
 10
1.11831
 20
0.161257
 30
0.000000
  70
    32
  0
VERTEX
  8
0
  5
851
 10
1.11806
 20
0.161525
 30
0.000000
  70
    32
  0
VERTEX
  8
0
  5
852
 10
1.11781
 20
0.161790
 30
0.000000
  70
    32
  0
VERTEX
  8
0
  5
853
 10
1.11755
 20
0.162051
 30
0.000000
  70
    32
  0
VERTEX
  8
0
  5
854
 10
1.11729
 20
0.162310
 30
0.000000
  70
    32
  0
VERTEX
  8
0
  5
855
 10
1.11703
 20
0.162565
 30
0.000000
  70
    32
  0
VERTEX
  8
0
  5
856
 10
1.11677
 20
0.162818
 30
0.000000
  70
    32
  0
VERTEX
  8
0
  5
857
 10
1.11650
 20
0.163067
 30
0.000000
  70
    32
  0
VERTEX
  8
0
  5
858
 10
1.11623
 20
0.163313
 30
0.000000
  70
    32
  0
VERTEX
  8
0
  5
859
 10
1.11596
 20
0.163555
 30
0.000000
  70
    32
  0
VERTEX
  8
0
  5
85A
 10
1.11568
 20
0.163795
 30
0.000000
  70
    32
  0
VERTEX
  8
0
  5
85B
 10
1.11540
 20
0.164031
 30
0.000000
  70
    32
  0
VERTEX
  8
0
  5
85C
 10
1.11512
 20
0.164264
 30
0.000000
  70
    32
  0
VERTEX
  8
0
  5
85D
 10
1.11484
 20
0.164493
 30
0.000000
  70
    32
  0
VERTEX
  8
0
  5
85E
 10
1.11455
 20
0.164719
 30
0.000000
  70
    32
  0
VERTEX
  8
0
  5
85F
 10
1.11426
 20
0.164941
 30
0.000000
  70
    32
  0
VERTEX
  8
0
  5
860
 10
1.11396
 20
0.165161
 30
0.000000
  70
    32
  0
VERTEX
  8
0
  5
861
 10
1.11367
 20
0.165376
 30
0.000000
  70
    32
  0
VERTEX
  8
0
  5
862
 10
1.11337
 20
0.165588
 30
0.000000
  70
    32
  0
VERTEX
  8
0
  5
863
 10
1.11307
 20
0.165797
 30
0.000000
  70
    32
  0
VERTEX
  8
0
  5
864
 10
1.11277
 20
0.166002
 30
0.000000
  70
    32
  0
VERTEX
  8
0
  5
865
 10
1.11246
 20
0.166203
 30
0.000000
  70
    32
  0
VERTEX
  8
0
  5
866
 10
1.11215
 20
0.166401
 30
0.000000
  70
    32
  0
VERTEX
  8
0
  5
867
 10
1.11184
 20
0.166595
 30
0.000000
  70
    32
  0
VERTEX
  8
0
  5
868
 10
1.11153
 20
0.166786
 30
0.000000
  70
    32
  0
VERTEX
  8
0
  5
869
 10
1.11121
 20
0.166972
 30
0.000000
  70
    32
  0
VERTEX
  8
0
  5
86A
 10
1.11089
 20
0.167155
 30
0.000000
  70
    32
  0
VERTEX
  8
0
  5
86B
 10
1.11057
 20
0.167334
 30
0.000000
  70
    32
  0
VERTEX
  8
0
  5
86C
 10
1.11025
 20
0.167510
 30
0.000000
  70
    32
  0
VERTEX
  8
0
  5
86D
 10
1.10992
 20
0.167681
 30
0.000000
  70
    32
  0
VERTEX
  8
0
  5
86E
 10
1.10959
 20
0.167849
 30
0.000000
  70
    32
  0
VERTEX
  8
0
  5
86F
 10
1.10926
 20
0.168012
 30
0.000000
  70
    32
  0
VERTEX
  8
0
  5
870
 10
1.10893
 20
0.168172
 30
0.000000
  70
    32
  0
VERTEX
  8
0
  5
871
 10
1.10859
 20
0.168328
 30
0.000000
  70
    32
  0
VERTEX
  8
0
  5
872
 10
1.10826
 20
0.168480
 30
0.000000
  70
    32
  0
VERTEX
  8
0
  5
873
 10
1.10792
 20
0.168627
 30
0.000000
  70
    32
  0
VERTEX
  8
0
  5
874
 10
1.10758
 20
0.168771
 30
0.000000
  70
    32
  0
VERTEX
  8
0
  5
875
 10
1.10723
 20
0.168910
 30
0.000000
  70
    32
  0
VERTEX
  8
0
  5
876
 10
1.10689
 20
0.169046
 30
0.000000
  70
    32
  0
VERTEX
  8
0
  5
877
 10
1.10654
 20
0.169177
 30
0.000000
  70
    32
  0
VERTEX
  8
0
  5
878
 10
1.10619
 20
0.169304
 30
0.000000
  70
    32
  0
VERTEX
  8
0
  5
879
 10
1.10584
 20
0.169427
 30
0.000000
  70
    32
  0
VERTEX
  8
0
  5
87A
 10
1.10548
 20
0.169546
 30
0.000000
  70
    32
  0
VERTEX
  8
0
  5
87B
 10
1.10513
 20
0.169660
 30
0.000000
  70
    32
  0
VERTEX
  8
0
  5
87C
 10
1.10477
 20
0.169770
 30
0.000000
  70
    32
  0
VERTEX
  8
0
  5
87D
 10
1.10441
 20
0.169876
 30
0.000000
  70
    32
  0
VERTEX
  8
0
  5
87E
 10
1.10405
 20
0.169977
 30
0.000000
  70
    32
  0
VERTEX
  8
0
  5
87F
 10
1.10369
 20
0.170074
 30
0.000000
  70
    32
  0
VERTEX
  8
0
  5
880
 10
1.10332
 20
0.170166
 30
0.000000
  70
    32
  0
VERTEX
  8
0
  5
881
 10
1.10295
 20
0.170254
 30
0.000000
  70
    32
  0
VERTEX
  8
0
  5
882
 10
1.10259
 20
0.170338
 30
0.000000
  70
    32
  0
VERTEX
  8
0
  5
883
 10
1.10222
 20
0.170417
 30
0.000000
  70
    32
  0
VERTEX
  8
0
  5
884
 10
1.10185
 20
0.170492
 30
0.000000
  70
    32
  0
VERTEX
  8
0
  5
885
 10
1.10147
 20
0.170561
 30
0.000000
  70
    32
  0
VERTEX
  8
0
  5
886
 10
1.10110
 20
0.170627
 30
0.000000
  70
    32
  0
VERTEX
  8
0
  5
887
 10
1.10072
 20
0.170687
 30
0.000000
  70
    32
  0
VERTEX
  8
0
  5
888
 10
1.10034
 20
0.170743
 30
0.000000
  70
    32
  0
VERTEX
  8
0
  5
889
 10
1.09996
 20
0.170794
 30
0.000000
  70
    32
  0
VERTEX
  8
0
  5
88A
 10
1.09958
 20
0.170841
 30
0.000000
  70
    32
  0
VERTEX
  8
0
  5
88B
 10
1.09920
 20
0.170883
 30
0.000000
  70
    32
  0
VERTEX
  8
0
  5
88C
 10
1.09882
 20
0.170920
 30
0.000000
  70
    32
  0
VERTEX
  8
0
  5
88D
 10
1.09843
 20
0.170952
 30
0.000000
  70
    32
  0
VERTEX
  8
0
  5
88E
 10
1.09805
 20
0.170979
 30
0.000000
  70
    32
  0
VERTEX
  8
0
  5
88F
 10
1.09766
 20
0.171001
 30
0.000000
  70
    32
  0
VERTEX
  8
0
  5
890
 10
1.09727
 20
0.171019
 30
0.000000
  70
    32
  0
VERTEX
  8
0
  5
891
 10
1.09688
 20
0.171031
 30
0.000000
  70
    32
  0
VERTEX
  8
0
  5
892
 10
1.09649
 20
0.171039
 30
0.000000
  70
    32
  0
VERTEX
  8
0
  5
893
 10
1.09609
 20
0.171041
 30
0.000000
  70
    32
  0
SEQEND
  8
0
  5
894
  0
POLYLINE
  8
0
  5
895
  66
     1
 10
0.000000
 20
0.000000
 30
0.000000
  70
     8
  0
VERTEX
  8
0
  5
896
 10
1.09609
 20
0.000000
 30
0.000000
  70
    32
  0
VERTEX
  8
0
  5
897
 10
1.09649
 20
2.51522e-006
 30
0.000000
  70
    32
  0
VERTEX
  8
0
  5
898
 10
1.09688
 20
1.00403e-005
 30
0.000000
  70
    32
  0
VERTEX
  8
0
  5
899
 10
1.09727
 20
2.25443e-005
 30
0.000000
  70
    32
  0
VERTEX
  8
0
  5
89A
 10
1.09766
 20
3.99965e-005
 30
0.000000
  70
    32
  0
VERTEX
  8
0
  5
89B
 10
1.09805
 20
6.23658e-005
 30
0.000000
  70
    32
  0
VERTEX
  8
0
  5
89C
 10
1.09843
 20
8.96213e-005
 30
0.000000
  70
    32
  0
VERTEX
  8
0
  5
89D
 10
1.09882
 20
0.000121732
 30
0.000000
  70
    32
  0
VERTEX
  8
0
  5
89E
 10
1.09920
 20
0.000158668
 30
0.000000
  70
    32
  0
VERTEX
  8
0
  5
89F
 10
1.09958
 20
0.000200397
 30
0.000000
  70
    32
  0
VERTEX
  8
0
  5
8A0
 10
1.09996
 20
0.000246889
 30
0.000000
  70
    32
  0
VERTEX
  8
0
  5
8A1
 10
1.10034
 20
0.000298112
 30
0.000000
  70
    32
  0
VERTEX
  8
0
  5
8A2
 10
1.10072
 20
0.000354037
 30
0.000000
  70
    32
  0
VERTEX
  8
0
  5
8A3
 10
1.10110
 20
0.000414632
 30
0.000000
  70
    32
  0
VERTEX
  8
0
  5
8A4
 10
1.10147
 20
0.000479865
 30
0.000000
  70
    32
  0
VERTEX
  8
0
  5
8A5
 10
1.10185
 20
0.000549707
 30
0.000000
  70
    32
  0
VERTEX
  8
0
  5
8A6
 10
1.10222
 20
0.000624127
 30
0.000000
  70
    32
  0
VERTEX
  8
0
  5
8A7
 10
1.10259
 20
0.000703093
 30
0.000000
  70
    32
  0
VERTEX
  8
0
  5
8A8
 10
1.10295
 20
0.000786574
 30
0.000000
  70
    32
  0
VERTEX
  8
0
  5
8A9
 10
1.10332
 20
0.000874541
 30
0.000000
  70
    32
  0
VERTEX
  8
0
  5
8AA
 10
1.10369
 20
0.000966961
 30
0.000000
  70
    32
  0
VERTEX
  8
0
  5
8AB
 10
1.10405
 20
0.00106380
 30
0.000000
  70
    32
  0
VERTEX
  8
0
  5
8AC
 10
1.10441
 20
0.00116504
 30
0.000000
  70
    32
  0
VERTEX
  8
0
  5
8AD
 10
1.10477
 20
0.00127063
 30
0.000000
  70
    32
  0
VERTEX
  8
0
  5
8AE
 10
1.10513
 20
0.00138056
 30
0.000000
  70
    32
  0
VERTEX
  8
0
  5
8AF
 10
1.10548
 20
0.00149479
 30
0.000000
  70
    32
  0
VERTEX
  8
0
  5
8B0
 10
1.10584
 20
0.00161328
 30
0.000000
  70
    32
  0
VERTEX
  8
0
  5
8B1
 10
1.10619
 20
0.00173601
 30
0.000000
  70
    32
  0
VERTEX
  8
0
  5
8B2
 10
1.10654
 20
0.00186295
 30
0.000000
  70
    32
  0
VERTEX
  8
0
  5
8B3
 10
1.10689
 20
0.00199407
 30
0.000000
  70
    32
  0
VERTEX
  8
0
  5
8B4
 10
1.10723
 20
0.00212932
 30
0.000000
  70
    32
  0
VERTEX
  8
0
  5
8B5
 10
1.10758
 20
0.00226870
 30
0.000000
  70
    32
  0
VERTEX
  8
0
  5
8B6
 10
1.10792
 20
0.00241215
 30
0.000000
  70
    32
  0
VERTEX
  8
0
  5
8B7
 10
1.10826
 20
0.00255966
 30
0.000000
  70
    32
  0
VERTEX
  8
0
  5
8B8
 10
1.10859
 20
0.00271119
 30
0.000000
  70
    32
  0
VERTEX
  8
0
  5
8B9
 10
1.10893
 20
0.00286671
 30
0.000000
  70
    32
  0
VERTEX
  8
0
  5
8BA
 10
1.10926
 20
0.00302619
 30
0.000000
  70
    32
  0
VERTEX
  8
0
  5
8BB
 10
1.10959
 20
0.00318960
 30
0.000000
  70
    32
  0
VERTEX
  8
0
  5
8BC
 10
1.10992
 20
0.00335691
 30
0.000000
  70
    32
  0
VERTEX
  8
0
  5
8BD
 10
1.11025
 20
0.00352808
 30
0.000000
  70
    32
  0
VERTEX
  8
0
  5
8BE
 10
1.11057
 20
0.00370309
 30
0.000000
  70
    32
  0
VERTEX
  8
0
  5
8BF
 10
1.11089
 20
0.00388190
 30
0.000000
  70
    32
  0
VERTEX
  8
0
  5
8C0
 10
1.11121
 20
0.00406449
 30
0.000000
  70
    32
  0
VERTEX
  8
0
  5
8C1
 10
1.11153
 20
0.00425082
 30
0.000000
  70
    32
  0
VERTEX
  8
0
  5
8C2
 10
1.11184
 20
0.00444087
 30
0.000000
  70
    32
  0
VERTEX
  8
0
  5
8C3
 10
1.11215
 20
0.00463459
 30
0.000000
  70
    32
  0
VERTEX
  8
0
  5
8C4
 10
1.11246
 20
0.00483197
 30
0.000000
  70
    32
  0
VERTEX
  8
0
  5
8C5
 10
1.11277
 20
0.00503296
 30
0.000000
  70
    32
  0
VERTEX
  8
0
  5
8C6
 10
1.11307
 20
0.00523755
 30
0.000000
  70
    32
  0
VERTEX
  8
0
  5
8C7
 10
1.11337
 20
0.00544569
 30
0.000000
  70
    32
  0
VERTEX
  8
0
  5
8C8
 10
1.11367
 20
0.00565736
 30
0.000000
  70
    32
  0
VERTEX
  8
0
  5
8C9
 10
1.11396
 20
0.00587253
 30
0.000000
  70
    32
  0
VERTEX
  8
0
  5
8CA
 10
1.11426
 20
0.00609116
 30
0.000000
  70
    32
  0
VERTEX
  8
0
  5
8CB
 10
1.11455
 20
0.00631322
 30
0.000000
  70
    32
  0
VERTEX
  8
0
  5
8CC
 10
1.11484
 20
0.00653869
 30
0.000000
  70
    32
  0
VERTEX
  8
0
  5
8CD
 10
1.11512
 20
0.00676753
 30
0.000000
  70
    32
  0
VERTEX
  8
0
  5
8CE
 10
1.11540
 20
0.00699972
 30
0.000000
  70
    32
  0
VERTEX
  8
0
  5
8CF
 10
1.11568
 20
0.00723521
 30
0.000000
  70
    32
  0
VERTEX
  8
0
  5
8D0
 10
1.11596
 20
0.00747398
 30
0.000000
  70
    32
  0
VERTEX
  8
0
  5
8D1
 10
1.11623
 20
0.00771601
 30
0.000000
  70
    32
  0
VERTEX
  8
0
  5
8D2
 10
1.11650
 20
0.00796125
 30
0.000000
  70
    32
  0
VERTEX
  8
0
  5
8D3
 10
1.11677
 20
0.00820968
 30
0.000000
  70
    32
  0
VERTEX
  8
0
  5
8D4
 10
1.11703
 20
0.00846126
 30
0.000000
  70
    32
  0
VERTEX
  8
0
  5
8D5
 10
1.11729
 20
0.00871597
 30
0.000000
  70
    32
  0
VERTEX
  8
0
  5
8D6
 10
1.11755
 20
0.00897378
 30
0.000000
  70
    32
  0
VERTEX
  8
0
  5
8D7
 10
1.11781
 20
0.00923465
 30
0.000000
  70
    32
  0
VERTEX
  8
0
  5
8D8
 10
1.11806
 20
0.00949855
 30
0.000000
  70
    32
  0
VERTEX
  8
0
  5
8D9
 10
1.11831
 20
0.00976545
 30
0.000000
  70
    32
  0
VERTEX
  8
0
  5
8DA
 10
1.11855
 20
0.0100353
 30
0.000000
  70
    32
  0
VERTEX
  8
0
  5
8DB
 10
1.11879
 20
0.0103081
 30
0.000000
  70
    32
  0
VERTEX
  8
0
  5
8DC
 10
1.11903
 20
0.0105839
 30
0.000000
  70
    32
  0
VERTEX
  8
0
  5
8DD
 10
1.11927
 20
0.0108625
 30
0.000000
  70
    32
  0
VERTEX
  8
0
  5
8DE
 10
1.11950
 20
0.0111439
 30
0.000000
  70
    32
  0
VERTEX
  8
0
  5
8DF
 10
1.11973
 20
0.0114282
 30
0.000000
  70
    32
  0
VERTEX
  8
0
  5
8E0
 10
1.11995
 20
0.0117152
 30
0.000000
  70
    32
  0
VERTEX
  8
0
  5
8E1
 10
1.12018
 20
0.0120050
 30
0.000000
  70
    32
  0
VERTEX
  8
0
  5
8E2
 10
1.12039
 20
0.0122976
 30
0.000000
  70
    32
  0
VERTEX
  8
0
  5
8E3
 10
1.12061
 20
0.0125928
 30
0.000000
  70
    32
  0
VERTEX
  8
0
  5
8E4
 10
1.12082
 20
0.0128907
 30
0.000000
  70
    32
  0
VERTEX
  8
0
  5
8E5
 10
1.12103
 20
0.0131912
 30
0.000000
  70
    32
  0
VERTEX
  8
0
  5
8E6
 10
1.12123
 20
0.0134943
 30
0.000000
  70
    32
  0
VERTEX
  8
0
  5
8E7
 10
1.12144
 20
0.0138000
 30
0.000000
  70
    32
  0
VERTEX
  8
0
  5
8E8
 10
1.12163
 20
0.0141082
 30
0.000000
  70
    32
  0
VERTEX
  8
0
  5
8E9
 10
1.12183
 20
0.0144190
 30
0.000000
  70
    32
  0
VERTEX
  8
0
  5
8EA
 10
1.12202
 20
0.0147322
 30
0.000000
  70
    32
  0
VERTEX
  8
0
  5
8EB
 10
1.12220
 20
0.0150478
 30
0.000000
  70
    32
  0
VERTEX
  8
0
  5
8EC
 10
1.12239
 20
0.0153659
 30
0.000000
  70
    32
  0
VERTEX
  8
0
  5
8ED
 10
1.12256
 20
0.0156863
 30
0.000000
  70
    32
  0
VERTEX
  8
0
  5
8EE
 10
1.12274
 20
0.0160092
 30
0.000000
  70
    32
  0
VERTEX
  8
0
  5
8EF
 10
1.12291
 20
0.0163343
 30
0.000000
  70
    32
  0
VERTEX
  8
0
  5
8F0
 10
1.12308
 20
0.0166617
 30
0.000000
  70
    32
  0
VERTEX
  8
0
  5
8F1
 10
1.12324
 20
0.0169914
 30
0.000000
  70
    32
  0
VERTEX
  8
0
  5
8F2
 10
1.12340
 20
0.0173233
 30
0.000000
  70
    32
  0
VERTEX
  8
0
  5
8F3
 10
1.12355
 20
0.0176574
 30
0.000000
  70
    32
  0
VERTEX
  8
0
  5
8F4
 10
1.12371
 20
0.0179937
 30
0.000000
  70
    32
  0
VERTEX
  8
0
  5
8F5
 10
1.12385
 20
0.0183321
 30
0.000000
  70
    32
  0
VERTEX
  8
0
  5
8F6
 10
1.12400
 20
0.0186726
 30
0.000000
  70
    32
  0
VERTEX
  8
0
  5
8F7
 10
1.12414
 20
0.0190152
 30
0.000000
  70
    32
  0
VERTEX
  8
0
  5
8F8
 10
1.12427
 20
0.0193599
 30
0.000000
  70
    32
  0
VERTEX
  8
0
  5
8F9
 10
1.12440
 20
0.0197065
 30
0.000000
  70
    32
  0
VERTEX
  8
0
  5
8FA
 10
1.12453
 20
0.0200551
 30
0.000000
  70
    32
  0
VERTEX
  8
0
  5
8FB
 10
1.12465
 20
0.0204057
 30
0.000000
  70
    32
  0
VERTEX
  8
0
  5
8FC
 10
1.12477
 20
0.0207582
 30
0.000000
  70
    32
  0
VERTEX
  8
0
  5
8FD
 10
1.12488
 20
0.0211126
 30
0.000000
  70
    32
  0
VERTEX
  8
0
  5
8FE
 10
1.12499
 20
0.0214689
 30
0.000000
  70
    32
  0
VERTEX
  8
0
  5
8FF
 10
1.12510
 20
0.0218270
 30
0.000000
  70
    32
  0
VERTEX
  8
0
  5
900
 10
1.12520
 20
0.0221869
 30
0.000000
  70
    32
  0
VERTEX
  8
0
  5
901
 10
1.12530
 20
0.0225485
 30
0.000000
  70
    32
  0
VERTEX
  8
0
  5
902
 10
1.12539
 20
0.0229119
 30
0.000000
  70
    32
  0
VERTEX
  8
0
  5
903
 10
1.12548
 20
0.0232770
 30
0.000000
  70
    32
  0
VERTEX
  8
0
  5
904
 10
1.12556
 20
0.0236437
 30
0.000000
  70
    32
  0
VERTEX
  8
0
  5
905
 10
1.12564
 20
0.0240122
 30
0.000000
  70
    32
  0
VERTEX
  8
0
  5
906
 10
1.12571
 20
0.0243822
 30
0.000000
  70
    32
  0
VERTEX
  8
0
  5
907
 10
1.12578
 20
0.0247538
 30
0.000000
  70
    32
  0
VERTEX
  8
0
  5
908
 10
1.12585
 20
0.0251269
 30
0.000000
  70
    32
  0
VERTEX
  8
0
  5
909
 10
1.12591
 20
0.0255016
 30
0.000000
  70
    32
  0
VERTEX
  8
0
  5
90A
 10
1.12596
 20
0.0258777
 30
0.000000
  70
    32
  0
VERTEX
  8
0
  5
90B
 10
1.12602
 20
0.0262553
 30
0.000000
  70
    32
  0
VERTEX
  8
0
  5
90C
 10
1.12606
 20
0.0266344
 30
0.000000
  70
    32
  0
VERTEX
  8
0
  5
90D
 10
1.12610
 20
0.0270148
 30
0.000000
  70
    32
  0
VERTEX
  8
0
  5
90E
 10
1.12614
 20
0.0273966
 30
0.000000
  70
    32
  0
VERTEX
  8
0
  5
90F
 10
1.12617
 20
0.0277798
 30
0.000000
  70
    32
  0
VERTEX
  8
0
  5
910
 10
1.12620
 20
0.0281642
 30
0.000000
  70
    32
  0
VERTEX
  8
0
  5
911
 10
1.12622
 20
0.0285499
 30
0.000000
  70
    32
  0
VERTEX
  8
0
  5
912
 10
1.12624
 20
0.0289368
 30
0.000000
  70
    32
  0
VERTEX
  8
0
  5
913
 10
1.12625
 20
0.0293250
 30
0.000000
  70
    32
  0
VERTEX
  8
0
  5
914
 10
1.12626
 20
0.0297143
 30
0.000000
  70
    32
  0
VERTEX
  8
0
  5
915
 10
1.12626
 20
0.0301048
 30
0.000000
  70
    32
  0
SEQEND
  8
0
  5
916
  0
POLYLINE
  8
0
  5
917
  66
     1
 10
0.000000
 20
0.000000
 30
0.000000
  70
     8
  0
VERTEX
  8
0
  5
918
 10
0.915081
 20
0.351926
 30
0.000000
  70
    32
  0
VERTEX
  8
0
  5
919
 10
0.915096
 20
0.349570
 30
0.000000
  70
    32
  0
VERTEX
  8
0
  5
91A
 10
0.915141
 20
0.347221
 30
0.000000
  70
    32
  0
VERTEX
  8
0
  5
91B
 10
0.915216
 20
0.344879
 30
0.000000
  70
    32
  0
VERTEX
  8
0
  5
91C
 10
0.915321
 20
0.342545
 30
0.000000
  70
    32
  0
VERTEX
  8
0
  5
91D
 10
0.915454
 20
0.340218
 30
0.000000
  70
    32
  0
VERTEX
  8
0
  5
91E
 10
0.915618
 20
0.337900
 30
0.000000
  70
    32
  0
VERTEX
  8
0
  5
91F
 10
0.915810
 20
0.335590
 30
0.000000
  70
    32
  0
VERTEX
  8
0
  5
920
 10
0.916031
 20
0.333288
 30
0.000000
  70
    32
  0
VERTEX
  8
0
  5
921
 10
0.916281
 20
0.330994
 30
0.000000
  70
    32
  0
VERTEX
  8
0
  5
922
 10
0.916559
 20
0.328709
 30
0.000000
  70
    32
  0
VERTEX
  8
0
  5
923
 10
0.916866
 20
0.326433
 30
0.000000
  70
    32
  0
VERTEX
  8
0
  5
924
 10
0.917200
 20
0.324166
 30
0.000000
  70
    32
  0
VERTEX
  8
0
  5
925
 10
0.917563
 20
0.321909
 30
0.000000
  70
    32
  0
VERTEX
  8
0
  5
926
 10
0.917954
 20
0.319660
 30
0.000000
  70
    32
  0
VERTEX
  8
0
  5
927
 10
0.918372
 20
0.317422
 30
0.000000
  70
    32
  0
VERTEX
  8
0
  5
928
 10
0.918817
 20
0.315193
 30
0.000000
  70
    32
  0
VERTEX
  8
0
  5
929
 10
0.919290
 20
0.312974
 30
0.000000
  70
    32
  0
VERTEX
  8
0
  5
92A
 10
0.919790
 20
0.310765
 30
0.000000
  70
    32
  0
VERTEX
  8
0
  5
92B
 10
0.920317
 20
0.308566
 30
0.000000
  70
    32
  0
VERTEX
  8
0
  5
92C
 10
0.920870
 20
0.306378
 30
0.000000
  70
    32
  0
VERTEX
  8
0
  5
92D
 10
0.921450
 20
0.304201
 30
0.000000
  70
    32
  0
VERTEX
  8
0
  5
92E
 10
0.922057
 20
0.302034
 30
0.000000
  70
    32
  0
VERTEX
  8
0
  5
92F
 10
0.922689
 20
0.299879
 30
0.000000
  70
    32
  0
VERTEX
  8
0
  5
930
 10
0.923348
 20
0.297734
 30
0.000000
  70
    32
  0
VERTEX
  8
0
  5
931
 10
0.924032
 20
0.295602
 30
0.000000
  70
    32
  0
VERTEX
  8
0
  5
932
 10
0.924742
 20
0.293480
 30
0.000000
  70
    32
  0
VERTEX
  8
0
  5
933
 10
0.925477
 20
0.291371
 30
0.000000
  70
    32
  0
VERTEX
  8
0
  5
934
 10
0.926238
 20
0.289273
 30
0.000000
  70
    32
  0
VERTEX
  8
0
  5
935
 10
0.927023
 20
0.287188
 30
0.000000
  70
    32
  0
VERTEX
  8
0
  5
936
 10
0.927834
 20
0.285115
 30
0.000000
  70
    32
  0
VERTEX
  8
0
  5
937
 10
0.928669
 20
0.283054
 30
0.000000
  70
    32
  0
VERTEX
  8
0
  5
938
 10
0.929528
 20
0.281006
 30
0.000000
  70
    32
  0
VERTEX
  8
0
  5
939
 10
0.930412
 20
0.278971
 30
0.000000
  70
    32
  0
VERTEX
  8
0
  5
93A
 10
0.931320
 20
0.276949
 30
0.000000
  70
    32
  0
VERTEX
  8
0
  5
93B
 10
0.932253
 20
0.274940
 30
0.000000
  70
    32
  0
VERTEX
  8
0
  5
93C
 10
0.933208
 20
0.272944
 30
0.000000
  70
    32
  0
VERTEX
  8
0
  5
93D
 10
0.934188
 20
0.270962
 30
0.000000
  70
    32
  0
VERTEX
  8
0
  5
93E
 10
0.935191
 20
0.268994
 30
0.000000
  70
    32
  0
VERTEX
  8
0
  5
93F
 10
0.936217
 20
0.267040
 30
0.000000
  70
    32
  0
VERTEX
  8
0
  5
940
 10
0.937266
 20
0.265100
 30
0.000000
  70
    32
  0
VERTEX
  8
0
  5
941
 10
0.938338
 20
0.263174
 30
0.000000
  70
    32
  0
VERTEX
  8
0
  5
942
 10
0.939433
 20
0.261263
 30
0.000000
  70
    32
  0
VERTEX
  8
0
  5
943
 10
0.940550
 20
0.259366
 30
0.000000
  70
    32
  0
VERTEX
  8
0
  5
944
 10
0.941690
 20
0.257485
 30
0.000000
  70
    32
  0
VERTEX
  8
0
  5
945
 10
0.942851
 20
0.255618
 30
0.000000
  70
    32
  0
VERTEX
  8
0
  5
946
 10
0.944035
 20
0.253766
 30
0.000000
  70
    32
  0
VERTEX
  8
0
  5
947
 10
0.945240
 20
0.251930
 30
0.000000
  70
    32
  0
VERTEX
  8
0
  5
948
 10
0.946468
 20
0.250110
 30
0.000000
  70
    32
  0
VERTEX
  8
0
  5
949
 10
0.947716
 20
0.248305
 30
0.000000
  70
    32
  0
VERTEX
  8
0
  5
94A
 10
0.948986
 20
0.246516
 30
0.000000
  70
    32
  0
VERTEX
  8
0
  5
94B
 10
0.950276
 20
0.244744
 30
0.000000
  70
    32
  0
VERTEX
  8
0
  5
94C
 10
0.951588
 20
0.242987
 30
0.000000
  70
    32
  0
VERTEX
  8
0
  5
94D
 10
0.952920
 20
0.241248
 30
0.000000
  70
    32
  0
VERTEX
  8
0
  5
94E
 10
0.954273
 20
0.239524
 30
0.000000
  70
    32
  0
VERTEX
  8
0
  5
94F
 10
0.955646
 20
0.237818
 30
0.000000
  70
    32
  0
VERTEX
  8
0
  5
950
 10
0.957039
 20
0.236129
 30
0.000000
  70
    32
  0
VERTEX
  8
0
  5
951
 10
0.958453
 20
0.234457
 30
0.000000
  70
    32
  0
VERTEX
  8
0
  5
952
 10
0.959886
 20
0.232802
 30
0.000000
  70
    32
  0
VERTEX
  8
0
  5
953
 10
0.961338
 20
0.231165
 30
0.000000
  70
    32
  0
VERTEX
  8
0
  5
954
 10
0.962810
 20
0.229546
 30
0.000000
  70
    32
  0
VERTEX
  8
0
  5
955
 10
0.964301
 20
0.227944
 30
0.000000
  70
    32
  0
VERTEX
  8
0
  5
956
 10
0.965812
 20
0.226361
 30
0.000000
  70
    32
  0
VERTEX
  8
0
  5
957
 10
0.967341
 20
0.224796
 30
0.000000
  70
    32
  0
VERTEX
  8
0
  5
958
 10
0.968888
 20
0.223250
 30
0.000000
  70
    32
  0
VERTEX
  8
0
  5
959
 10
0.970455
 20
0.221722
 30
0.000000
  70
    32
  0
VERTEX
  8
0
  5
95A
 10
0.972039
 20
0.220213
 30
0.000000
  70
    32
  0
VERTEX
  8
0
  5
95B
 10
0.973642
 20
0.218723
 30
0.000000
  70
    32
  0
VERTEX
  8
0
  5
95C
 10
0.975263
 20
0.217252
 30
0.000000
  70
    32
  0
VERTEX
  8
0
  5
95D
 10
0.976901
 20
0.215801
 30
0.000000
  70
    32
  0
VERTEX
  8
0
  5
95E
 10
0.978557
 20
0.214369
 30
0.000000
  70
    32
  0
VERTEX
  8
0
  5
95F
 10
0.980230
 20
0.212957
 30
0.000000
  70
    32
  0
VERTEX
  8
0
  5
960
 10
0.981921
 20
0.211565
 30
0.000000
  70
    32
  0
VERTEX
  8
0
  5
961
 10
0.983629
 20
0.210194
 30
0.000000
  70
    32
  0
VERTEX
  8
0
  5
962
 10
0.985353
 20
0.208842
 30
0.000000
  70
    32
  0
VERTEX
  8
0
  5
963
 10
0.987095
 20
0.207511
 30
0.000000
  70
    32
  0
VERTEX
  8
0
  5
964
 10
0.988852
 20
0.206201
 30
0.000000
  70
    32
  0
VERTEX
  8
0
  5
965
 10
0.990626
 20
0.204911
 30
0.000000
  70
    32
  0
VERTEX
  8
0
  5
966
 10
0.992416
 20
0.203643
 30
0.000000
  70
    32
  0
VERTEX
  8
0
  5
967
 10
0.994223
 20
0.202395
 30
0.000000
  70
    32
  0
VERTEX
  8
0
  5
968
 10
0.996044
 20
0.201169
 30
0.000000
  70
    32
  0
VERTEX
  8
0
  5
969
 10
0.997882
 20
0.199965
 30
0.000000
  70
    32
  0
VERTEX
  8
0
  5
96A
 10
0.999735
 20
0.198783
 30
0.000000
  70
    32
  0
VERTEX
  8
0
  5
96B
 10
1.00160
 20
0.197622
 30
0.000000
  70
    32
  0
VERTEX
  8
0
  5
96C
 10
1.00349
 20
0.196484
 30
0.000000
  70
    32
  0
VERTEX
  8
0
  5
96D
 10
1.00538
 20
0.195367
 30
0.000000
  70
    32
  0
VERTEX
  8
0
  5
96E
 10
1.00730
 20
0.194274
 30
0.000000
  70
    32
  0
VERTEX
  8
0
  5
96F
 10
1.00922
 20
0.193203
 30
0.000000
  70
    32
  0
VERTEX
  8
0
  5
970
 10
1.01116
 20
0.192155
 30
0.000000
  70
    32
  0
VERTEX
  8
0
  5
971
 10
1.01312
 20
0.191130
 30
0.000000
  70
    32
  0
VERTEX
  8
0
  5
972
 10
1.01509
 20
0.190128
 30
0.000000
  70
    32
  0
VERTEX
  8
0
  5
973
 10
1.01707
 20
0.189149
 30
0.000000
  70
    32
  0
VERTEX
  8
0
  5
974
 10
1.01907
 20
0.188194
 30
0.000000
  70
    32
  0
VERTEX
  8
0
  5
975
 10
1.02108
 20
0.187263
 30
0.000000
  70
    32
  0
VERTEX
  8
0
  5
976
 10
1.02310
 20
0.186356
 30
0.000000
  70
    32
  0
VERTEX
  8
0
  5
977
 10
1.02514
 20
0.185473
 30
0.000000
  70
    32
  0
VERTEX
  8
0
  5
978
 10
1.02719
 20
0.184614
 30
0.000000
  70
    32
  0
VERTEX
  8
0
  5
979
 10
1.02925
 20
0.183780
 30
0.000000
  70
    32
  0
VERTEX
  8
0
  5
97A
 10
1.03133
 20
0.182970
 30
0.000000
  70
    32
  0
VERTEX
  8
0
  5
97B
 10
1.03341
 20
0.182186
 30
0.000000
  70
    32
  0
VERTEX
  8
0
  5
97C
 10
1.03551
 20
0.181426
 30
0.000000
  70
    32
  0
VERTEX
  8
0
  5
97D
 10
1.03762
 20
0.180691
 30
0.000000
  70
    32
  0
VERTEX
  8
0
  5
97E
 10
1.03974
 20
0.179982
 30
0.000000
  70
    32
  0
VERTEX
  8
0
  5
97F
 10
1.04188
 20
0.179299
 30
0.000000
  70
    32
  0
VERTEX
  8
0
  5
980
 10
1.04402
 20
0.178641
 30
0.000000
  70
    32
  0
VERTEX
  8
0
  5
981
 10
1.04618
 20
0.178009
 30
0.000000
  70
    32
  0
VERTEX
  8
0
  5
982
 10
1.04835
 20
0.177404
 30
0.000000
  70
    32
  0
VERTEX
  8
0
  5
983
 10
1.05053
 20
0.176824
 30
0.000000
  70
    32
  0
VERTEX
  8
0
  5
984
 10
1.05272
 20
0.176271
 30
0.000000
  70
    32
  0
VERTEX
  8
0
  5
985
 10
1.05492
 20
0.175745
 30
0.000000
  70
    32
  0
VERTEX
  8
0
  5
986
 10
1.05713
 20
0.175246
 30
0.000000
  70
    32
  0
VERTEX
  8
0
  5
987
 10
1.05935
 20
0.174773
 30
0.000000
  70
    32
  0
VERTEX
  8
0
  5
988
 10
1.06158
 20
0.174328
 30
0.000000
  70
    32
  0
VERTEX
  8
0
  5
989
 10
1.06382
 20
0.173911
 30
0.000000
  70
    32
  0
VERTEX
  8
0
  5
98A
 10
1.06606
 20
0.173520
 30
0.000000
  70
    32
  0
VERTEX
  8
0
  5
98B
 10
1.06832
 20
0.173158
 30
0.000000
  70
    32
  0
VERTEX
  8
0
  5
98C
 10
1.07059
 20
0.172824
 30
0.000000
  70
    32
  0
VERTEX
  8
0
  5
98D
 10
1.07287
 20
0.172517
 30
0.000000
  70
    32
  0
VERTEX
  8
0
  5
98E
 10
1.07515
 20
0.172239
 30
0.000000
  70
    32
  0
VERTEX
  8
0
  5
98F
 10
1.07745
 20
0.171990
 30
0.000000
  70
    32
  0
VERTEX
  8
0
  5
990
 10
1.07975
 20
0.171769
 30
0.000000
  70
    32
  0
VERTEX
  8
0
  5
991
 10
1.08206
 20
0.171577
 30
0.000000
  70
    32
  0
VERTEX
  8
0
  5
992
 10
1.08438
 20
0.171414
 30
0.000000
  70
    32
  0
VERTEX
  8
0
  5
993
 10
1.08671
 20
0.171280
 30
0.000000
  70
    32
  0
VERTEX
  8
0
  5
994
 10
1.08904
 20
0.171176
 30
0.000000
  70
    32
  0
VERTEX
  8
0
  5
995
 10
1.09139
 20
0.171101
 30
0.000000
  70
    32
  0
VERTEX
  8
0
  5
996
 10
1.09374
 20
0.171056
 30
0.000000
  70
    32
  0
VERTEX
  8
0
  5
997
 10
1.09609
 20
0.171041
 30
0.000000
  70
    32
  0
SEQEND
  8
0
  5
998
  0
POLYLINE
  8
0
  5
999
  66
     1
 10
0.000000
 20
0.000000
 30
0.000000
  70
     8
  0
VERTEX
  8
0
  5
99A
 10
0.718984
 20
9.51300
 30
0.000000
  70
    32
  0
VERTEX
  8
0
  5
99B
 10
0.718989
 20
9.51221
 30
0.000000
  70
    32
  0
VERTEX
  8
0
  5
99C
 10
0.719004
 20
9.51143
 30
0.000000
  70
    32
  0
VERTEX
  8
0
  5
99D
 10
0.719029
 20
9.51064
 30
0.000000
  70
    32
  0
VERTEX
  8
0
  5
99E
 10
0.719064
 20
9.50986
 30
0.000000
  70
    32
  0
VERTEX
  8
0
  5
99F
 10
0.719109
 20
9.50909
 30
0.000000
  70
    32
  0
VERTEX
  8
0
  5
9A0
 10
0.719163
 20
9.50831
 30
0.000000
  70
    32
  0
VERTEX
  8
0
  5
9A1
 10
0.719227
 20
9.50754
 30
0.000000
  70
    32
  0
VERTEX
  8
0
  5
9A2
 10
0.719301
 20
9.50677
 30
0.000000
  70
    32
  0
VERTEX
  8
0
  5
9A3
 10
0.719384
 20
9.50601
 30
0.000000
  70
    32
  0
VERTEX
  8
0
  5
9A4
 10
0.719477
 20
9.50524
 30
0.000000
  70
    32
  0
VERTEX
  8
0
  5
9A5
 10
0.719579
 20
9.50448
 30
0.000000
  70
    32
  0
VERTEX
  8
0
  5
9A6
 10
0.719691
 20
9.50373
 30
0.000000
  70
    32
  0
VERTEX
  8
0
  5
9A7
 10
0.719812
 20
9.50297
 30
0.000000
  70
    32
  0
VERTEX
  8
0
  5
9A8
 10
0.719942
 20
9.50222
 30
0.000000
  70
    32
  0
VERTEX
  8
0
  5
9A9
 10
0.720082
 20
9.50147
 30
0.000000
  70
    32
  0
VERTEX
  8
0
  5
9AA
 10
0.720230
 20
9.50073
 30
0.000000
  70
    32
  0
VERTEX
  8
0
  5
9AB
 10
0.720388
 20
9.49999
 30
0.000000
  70
    32
  0
VERTEX
  8
0
  5
9AC
 10
0.720555
 20
9.49925
 30
0.000000
  70
    32
  0
VERTEX
  8
0
  5
9AD
 10
0.720730
 20
9.49852
 30
0.000000
  70
    32
  0
VERTEX
  8
0
  5
9AE
 10
0.720915
 20
9.49779
 30
0.000000
  70
    32
  0
VERTEX
  8
0
  5
9AF
 10
0.721108
 20
9.49706
 30
0.000000
  70
    32
  0
VERTEX
  8
0
  5
9B0
 10
0.721310
 20
9.49633
 30
0.000000
  70
    32
  0
VERTEX
  8
0
  5
9B1
 10
0.721521
 20
9.49561
 30
0.000000
  70
    32
  0
VERTEX
  8
0
  5
9B2
 10
0.721741
 20
9.49490
 30
0.000000
  70
    32
  0
VERTEX
  8
0
  5
9B3
 10
0.721969
 20
9.49419
 30
0.000000
  70
    32
  0
VERTEX
  8
0
  5
9B4
 10
0.722206
 20
9.49348
 30
0.000000
  70
    32
  0
VERTEX
  8
0
  5
9B5
 10
0.722451
 20
9.49277
 30
0.000000
  70
    32
  0
VERTEX
  8
0
  5
9B6
 10
0.722704
 20
9.49207
 30
0.000000
  70
    32
  0
VERTEX
  8
0
  5
9B7
 10
0.722966
 20
9.49138
 30
0.000000
  70
    32
  0
VERTEX
  8
0
  5
9B8
 10
0.723237
 20
9.49068
 30
0.000000
  70
    32
  0
VERTEX
  8
0
  5
9B9
 10
0.723515
 20
9.49000
 30
0.000000
  70
    32
  0
VERTEX
  8
0
  5
9BA
 10
0.723802
 20
9.48931
 30
0.000000
  70
    32
  0
VERTEX
  8
0
  5
9BB
 10
0.724096
 20
9.48863
 30
0.000000
  70
    32
  0
VERTEX
  8
0
  5
9BC
 10
0.724399
 20
9.48796
 30
0.000000
  70
    32
  0
VERTEX
  8
0
  5
9BD
 10
0.724710
 20
9.48729
 30
0.000000
  70
    32
  0
VERTEX
  8
0
  5
9BE
 10
0.725029
 20
9.48662
 30
0.000000
  70
    32
  0
VERTEX
  8
0
  5
9BF
 10
0.725355
 20
9.48596
 30
0.000000
  70
    32
  0
VERTEX
  8
0
  5
9C0
 10
0.725690
 20
9.48530
 30
0.000000
  70
    32
  0
VERTEX
  8
0
  5
9C1
 10
0.726032
 20
9.48465
 30
0.000000
  70
    32
  0
VERTEX
  8
0
  5
9C2
 10
0.726382
 20
9.48400
 30
0.000000
  70
    32
  0
VERTEX
  8
0
  5
9C3
 10
0.726739
 20
9.48336
 30
0.000000
  70
    32
  0
VERTEX
  8
0
  5
9C4
 10
0.727104
 20
9.48272
 30
0.000000
  70
    32
  0
VERTEX
  8
0
  5
9C5
 10
0.727476
 20
9.48209
 30
0.000000
  70
    32
  0
VERTEX
  8
0
  5
9C6
 10
0.727856
 20
9.48146
 30
0.000000
  70
    32
  0
VERTEX
  8
0
  5
9C7
 10
0.728244
 20
9.48083
 30
0.000000
  70
    32
  0
VERTEX
  8
0
  5
9C8
 10
0.728638
 20
9.48022
 30
0.000000
  70
    32
  0
VERTEX
  8
0
  5
9C9
 10
0.729040
 20
9.47960
 30
0.000000
  70
    32
  0
VERTEX
  8
0
  5
9CA
 10
0.729449
 20
9.47900
 30
0.000000
  70
    32
  0
VERTEX
  8
0
  5
9CB
 10
0.729866
 20
9.47839
 30
0.000000
  70
    32
  0
VERTEX
  8
0
  5
9CC
 10
0.730289
 20
9.47780
 30
0.000000
  70
    32
  0
VERTEX
  8
0
  5
9CD
 10
0.730719
 20
9.47720
 30
0.000000
  70
    32
  0
VERTEX
  8
0
  5
9CE
 10
0.731156
 20
9.47662
 30
0.000000
  70
    32
  0
VERTEX
  8
0
  5
9CF
 10
0.731601
 20
9.47604
 30
0.000000
  70
    32
  0
VERTEX
  8
0
  5
9D0
 10
0.732052
 20
9.47546
 30
0.000000
  70
    32
  0
VERTEX
  8
0
  5
9D1
 10
0.732509
 20
9.47489
 30
0.000000
  70
    32
  0
VERTEX
  8
0
  5
9D2
 10
0.732974
 20
9.47433
 30
0.000000
  70
    32
  0
VERTEX
  8
0
  5
9D3
 10
0.733445
 20
9.47377
 30
0.000000
  70
    32
  0
VERTEX
  8
0
  5
9D4
 10
0.733923
 20
9.47322
 30
0.000000
  70
    32
  0
VERTEX
  8
0
  5
9D5
 10
0.734407
 20
9.47267
 30
0.000000
  70
    32
  0
VERTEX
  8
0
  5
9D6
 10
0.734898
 20
9.47213
 30
0.000000
  70
    32
  0
VERTEX
  8
0
  5
9D7
 10
0.735395
 20
9.47159
 30
0.000000
  70
    32
  0
VERTEX
  8
0
  5
9D8
 10
0.735898
 20
9.47107
 30
0.000000
  70
    32
  0
VERTEX
  8
0
  5
9D9
 10
0.736408
 20
9.47054
 30
0.000000
  70
    32
  0
VERTEX
  8
0
  5
9DA
 10
0.736924
 20
9.47003
 30
0.000000
  70
    32
  0
VERTEX
  8
0
  5
9DB
 10
0.737446
 20
9.46952
 30
0.000000
  70
    32
  0
VERTEX
  8
0
  5
9DC
 10
0.737975
 20
9.46901
 30
0.000000
  70
    32
  0
VERTEX
  8
0
  5
9DD
 10
0.738509
 20
9.46852
 30
0.000000
  70
    32
  0
VERTEX
  8
0
  5
9DE
 10
0.739049
 20
9.46802
 30
0.000000
  70
    32
  0
VERTEX
  8
0
  5
9DF
 10
0.739595
 20
9.46754
 30
0.000000
  70
    32
  0
VERTEX
  8
0
  5
9E0
 10
0.740147
 20
9.46706
 30
0.000000
  70
    32
  0
VERTEX
  8
0
  5
9E1
 10
0.740705
 20
9.46659
 30
0.000000
  70
    32
  0
VERTEX
  8
0
  5
9E2
 10
0.741269
 20
9.46613
 30
0.000000
  70
    32
  0
VERTEX
  8
0
  5
9E3
 10
0.741838
 20
9.46567
 30
0.000000
  70
    32
  0
VERTEX
  8
0
  5
9E4
 10
0.742413
 20
9.46522
 30
0.000000
  70
    32
  0
VERTEX
  8
0
  5
9E5
 10
0.742993
 20
9.46477
 30
0.000000
  70
    32
  0
VERTEX
  8
0
  5
9E6
 10
0.743579
 20
9.46433
 30
0.000000
  70
    32
  0
VERTEX
  8
0
  5
9E7
 10
0.744171
 20
9.46390
 30
0.000000
  70
    32
  0
VERTEX
  8
0
  5
9E8
 10
0.744767
 20
9.46348
 30
0.000000
  70
    32
  0
VERTEX
  8
0
  5
9E9
 10
0.745369
 20
9.46306
 30
0.000000
  70
    32
  0
VERTEX
  8
0
  5
9EA
 10
0.745977
 20
9.46265
 30
0.000000
  70
    32
  0
VERTEX
  8
0
  5
9EB
 10
0.746589
 20
9.46225
 30
0.000000
  70
    32
  0
VERTEX
  8
0
  5
9EC
 10
0.747207
 20
9.46186
 30
0.000000
  70
    32
  0
VERTEX
  8
0
  5
9ED
 10
0.747830
 20
9.46147
 30
0.000000
  70
    32
  0
VERTEX
  8
0
  5
9EE
 10
0.748457
 20
9.46109
 30
0.000000
  70
    32
  0
VERTEX
  8
0
  5
9EF
 10
0.749090
 20
9.46072
 30
0.000000
  70
    32
  0
VERTEX
  8
0
  5
9F0
 10
0.749727
 20
9.46035
 30
0.000000
  70
    32
  0
VERTEX
  8
0
  5
9F1
 10
0.750370
 20
9.45999
 30
0.000000
  70
    32
  0
VERTEX
  8
0
  5
9F2
 10
0.751017
 20
9.45964
 30
0.000000
  70
    32
  0
VERTEX
  8
0
  5
9F3
 10
0.751669
 20
9.45930
 30
0.000000
  70
    32
  0
VERTEX
  8
0
  5
9F4
 10
0.752325
 20
9.45897
 30
0.000000
  70
    32
  0
VERTEX
  8
0
  5
9F5
 10
0.752986
 20
9.45864
 30
0.000000
  70
    32
  0
VERTEX
  8
0
  5
9F6
 10
0.753652
 20
9.45832
 30
0.000000
  70
    32
  0
VERTEX
  8
0
  5
9F7
 10
0.754322
 20
9.45801
 30
0.000000
  70
    32
  0
VERTEX
  8
0
  5
9F8
 10
0.754996
 20
9.45771
 30
0.000000
  70
    32
  0
VERTEX
  8
0
  5
9F9
 10
0.755675
 20
9.45741
 30
0.000000
  70
    32
  0
VERTEX
  8
0
  5
9FA
 10
0.756358
 20
9.45713
 30
0.000000
  70
    32
  0
VERTEX
  8
0
  5
9FB
 10
0.757045
 20
9.45685
 30
0.000000
  70
    32
  0
VERTEX
  8
0
  5
9FC
 10
0.757737
 20
9.45658
 30
0.000000
  70
    32
  0
VERTEX
  8
0
  5
9FD
 10
0.758432
 20
9.45632
 30
0.000000
  70
    32
  0
VERTEX
  8
0
  5
9FE
 10
0.759132
 20
9.45606
 30
0.000000
  70
    32
  0
VERTEX
  8
0
  5
9FF
 10
0.759835
 20
9.45582
 30
0.000000
  70
    32
  0
VERTEX
  8
0
  5
A00
 10
0.760543
 20
9.45558
 30
0.000000
  70
    32
  0
VERTEX
  8
0
  5
A01
 10
0.761254
 20
9.45535
 30
0.000000
  70
    32
  0
VERTEX
  8
0
  5
A02
 10
0.761969
 20
9.45513
 30
0.000000
  70
    32
  0
VERTEX
  8
0
  5
A03
 10
0.762688
 20
9.45492
 30
0.000000
  70
    32
  0
VERTEX
  8
0
  5
A04
 10
0.763410
 20
9.45472
 30
0.000000
  70
    32
  0
VERTEX
  8
0
  5
A05
 10
0.764136
 20
9.45453
 30
0.000000
  70
    32
  0
VERTEX
  8
0
  5
A06
 10
0.764866
 20
9.45434
 30
0.000000
  70
    32
  0
VERTEX
  8
0
  5
A07
 10
0.765599
 20
9.45417
 30
0.000000
  70
    32
  0
VERTEX
  8
0
  5
A08
 10
0.766336
 20
9.45400
 30
0.000000
  70
    32
  0
VERTEX
  8
0
  5
A09
 10
0.767076
 20
9.45384
 30
0.000000
  70
    32
  0
VERTEX
  8
0
  5
A0A
 10
0.767819
 20
9.45369
 30
0.000000
  70
    32
  0
VERTEX
  8
0
  5
A0B
 10
0.768565
 20
9.45355
 30
0.000000
  70
    32
  0
VERTEX
  8
0
  5
A0C
 10
0.769315
 20
9.45342
 30
0.000000
  70
    32
  0
VERTEX
  8
0
  5
A0D
 10
0.770068
 20
9.45330
 30
0.000000
  70
    32
  0
VERTEX
  8
0
  5
A0E
 10
0.770823
 20
9.45319
 30
0.000000
  70
    32
  0
VERTEX
  8
0
  5
A0F
 10
0.771582
 20
9.45309
 30
0.000000
  70
    32
  0
VERTEX
  8
0
  5
A10
 10
0.772344
 20
9.45300
 30
0.000000
  70
    32
  0
VERTEX
  8
0
  5
A11
 10
0.773109
 20
9.45291
 30
0.000000
  70
    32
  0
VERTEX
  8
0
  5
A12
 10
0.773876
 20
9.45284
 30
0.000000
  70
    32
  0
VERTEX
  8
0
  5
A13
 10
0.774646
 20
9.45277
 30
0.000000
  70
    32
  0
VERTEX
  8
0
  5
A14
 10
0.775419
 20
9.45272
 30
0.000000
  70
    32
  0
VERTEX
  8
0
  5
A15
 10
0.776195
 20
9.45267
 30
0.000000
  70
    32
  0
VERTEX
  8
0
  5
A16
 10
0.776973
 20
9.45264
 30
0.000000
  70
    32
  0
VERTEX
  8
0
  5
A17
 10
0.777753
 20
9.45262
 30
0.000000
  70
    32
  0
VERTEX
  8
0
  5
A18
 10
0.778536
 20
9.45260
 30
0.000000
  70
    32
  0
VERTEX
  8
0
  5
A19
 10
0.779322
 20
9.45260
 30
0.000000
  70
    32
  0
SEQEND
  8
0
  5
A1A
  0
POLYLINE
  8
0
  5
A1B
  66
     1
 10
0.000000
 20
0.000000
 30
0.000000
  70
     8
  0
VERTEX
  8
0
  5
A1C
 10
0.201130
 20
10.9093
 30
0.000000
  70
    32
  0
VERTEX
  8
0
  5
A1D
 10
0.201393
 20
10.9093
 30
0.000000
  70
    32
  0
VERTEX
  8
0
  5
A1E
 10
0.201654
 20
10.9093
 30
0.000000
  70
    32
  0
VERTEX
  8
0
  5
A1F
 10
0.201915
 20
10.9093
 30
0.000000
  70
    32
  0
VERTEX
  8
0
  5
A20
 10
0.202175
 20
10.9093
 30
0.000000
  70
    32
  0
VERTEX
  8
0
  5
A21
 10
0.202433
 20
10.9093
 30
0.000000
  70
    32
  0
VERTEX
  8
0
  5
A22
 10
0.202691
 20
10.9093
 30
0.000000
  70
    32
  0
VERTEX
  8
0
  5
A23
 10
0.202949
 20
10.9093
 30
0.000000
  70
    32
  0
VERTEX
  8
0
  5
A24
 10
0.203205
 20
10.9094
 30
0.000000
  70
    32
  0
VERTEX
  8
0
  5
A25
 10
0.203460
 20
10.9094
 30
0.000000
  70
    32
  0
VERTEX
  8
0
  5
A26
 10
0.203714
 20
10.9094
 30
0.000000
  70
    32
  0
VERTEX
  8
0
  5
A27
 10
0.203967
 20
10.9095
 30
0.000000
  70
    32
  0
VERTEX
  8
0
  5
A28
 10
0.204220
 20
10.9095
 30
0.000000
  70
    32
  0
VERTEX
  8
0
  5
A29
 10
0.204471
 20
10.9095
 30
0.000000
  70
    32
  0
VERTEX
  8
0
  5
A2A
 10
0.204721
 20
10.9096
 30
0.000000
  70
    32
  0
VERTEX
  8
0
  5
A2B
 10
0.204970
 20
10.9096
 30
0.000000
  70
    32
  0
VERTEX
  8
0
  5
A2C
 10
0.205218
 20
10.9097
 30
0.000000
  70
    32
  0
VERTEX
  8
0
  5
A2D
 10
0.205465
 20
10.9097
 30
0.000000
  70
    32
  0
VERTEX
  8
0
  5
A2E
 10
0.205711
 20
10.9098
 30
0.000000
  70
    32
  0
VERTEX
  8
0
  5
A2F
 10
0.205955
 20
10.9098
 30
0.000000
  70
    32
  0
VERTEX
  8
0
  5
A30
 10
0.206199
 20
10.9099
 30
0.000000
  70
    32
  0
VERTEX
  8
0
  5
A31
 10
0.206441
 20
10.9100
 30
0.000000
  70
    32
  0
VERTEX
  8
0
  5
A32
 10
0.206682
 20
10.9100
 30
0.000000
  70
    32
  0
VERTEX
  8
0
  5
A33
 10
0.206921
 20
10.9101
 30
0.000000
  70
    32
  0
VERTEX
  8
0
  5
A34
 10
0.207160
 20
10.9102
 30
0.000000
  70
    32
  0
VERTEX
  8
0
  5
A35
 10
0.207397
 20
10.9102
 30
0.000000
  70
    32
  0
VERTEX
  8
0
  5
A36
 10
0.207633
 20
10.9103
 30
0.000000
  70
    32
  0
VERTEX
  8
0
  5
A37
 10
0.207867
 20
10.9104
 30
0.000000
  70
    32
  0
VERTEX
  8
0
  5
A38
 10
0.208101
 20
10.9105
 30
0.000000
  70
    32
  0
VERTEX
  8
0
  5
A39
 10
0.208333
 20
10.9106
 30
0.000000
  70
    32
  0
VERTEX
  8
0
  5
A3A
 10
0.208563
 20
10.9107
 30
0.000000
  70
    32
  0
VERTEX
  8
0
  5
A3B
 10
0.208792
 20
10.9108
 30
0.000000
  70
    32
  0
VERTEX
  8
0
  5
A3C
 10
0.209020
 20
10.9109
 30
0.000000
  70
    32
  0
VERTEX
  8
0
  5
A3D
 10
0.209246
 20
10.9110
 30
0.000000
  70
    32
  0
VERTEX
  8
0
  5
A3E
 10
0.209471
 20
10.9111
 30
0.000000
  70
    32
  0
VERTEX
  8
0
  5
A3F
 10
0.209694
 20
10.9112
 30
0.000000
  70
    32
  0
VERTEX
  8
0
  5
A40
 10
0.209916
 20
10.9113
 30
0.000000
  70
    32
  0
VERTEX
  8
0
  5
A41
 10
0.210136
 20
10.9114
 30
0.000000
  70
    32
  0
VERTEX
  8
0
  5
A42
 10
0.210355
 20
10.9115
 30
0.000000
  70
    32
  0
VERTEX
  8
0
  5
A43
 10
0.210572
 20
10.9116
 30
0.000000
  70
    32
  0
VERTEX
  8
0
  5
A44
 10
0.210788
 20
10.9117
 30
0.000000
  70
    32
  0
VERTEX
  8
0
  5
A45
 10
0.211002
 20
10.9118
 30
0.000000
  70
    32
  0
VERTEX
  8
0
  5
A46
 10
0.211214
 20
10.9120
 30
0.000000
  70
    32
  0
VERTEX
  8
0
  5
A47
 10
0.211425
 20
10.9121
 30
0.000000
  70
    32
  0
VERTEX
  8
0
  5
A48
 10
0.211634
 20
10.9122
 30
0.000000
  70
    32
  0
VERTEX
  8
0
  5
A49
 10
0.211842
 20
10.9123
 30
0.000000
  70
    32
  0
VERTEX
  8
0
  5
A4A
 10
0.212047
 20
10.9125
 30
0.000000
  70
    32
  0
VERTEX
  8
0
  5
A4B
 10
0.212251
 20
10.9126
 30
0.000000
  70
    32
  0
VERTEX
  8
0
  5
A4C
 10
0.212454
 20
10.9127
 30
0.000000
  70
    32
  0
VERTEX
  8
0
  5
A4D
 10
0.212654
 20
10.9129
 30
0.000000
  70
    32
  0
VERTEX
  8
0
  5
A4E
 10
0.212853
 20
10.9130
 30
0.000000
  70
    32
  0
VERTEX
  8
0
  5
A4F
 10
0.213050
 20
10.9131
 30
0.000000
  70
    32
  0
VERTEX
  8
0
  5
A50
 10
0.213245
 20
10.9133
 30
0.000000
  70
    32
  0
VERTEX
  8
0
  5
A51
 10
0.213438
 20
10.9134
 30
0.000000
  70
    32
  0
VERTEX
  8
0
  5
A52
 10
0.213630
 20
10.9136
 30
0.000000
  70
    32
  0
VERTEX
  8
0
  5
A53
 10
0.213819
 20
10.9137
 30
0.000000
  70
    32
  0
VERTEX
  8
0
  5
A54
 10
0.214007
 20
10.9139
 30
0.000000
  70
    32
  0
VERTEX
  8
0
  5
A55
 10
0.214193
 20
10.9141
 30
0.000000
  70
    32
  0
VERTEX
  8
0
  5
A56
 10
0.214376
 20
10.9142
 30
0.000000
  70
    32
  0
VERTEX
  8
0
  5
A57
 10
0.214558
 20
10.9144
 30
0.000000
  70
    32
  0
VERTEX
  8
0
  5
A58
 10
0.214738
 20
10.9145
 30
0.000000
  70
    32
  0
VERTEX
  8
0
  5
A59
 10
0.214916
 20
10.9147
 30
0.000000
  70
    32
  0
VERTEX
  8
0
  5
A5A
 10
0.215092
 20
10.9149
 30
0.000000
  70
    32
  0
VERTEX
  8
0
  5
A5B
 10
0.215266
 20
10.9150
 30
0.000000
  70
    32
  0
VERTEX
  8
0
  5
A5C
 10
0.215437
 20
10.9152
 30
0.000000
  70
    32
  0
VERTEX
  8
0
  5
A5D
 10
0.215607
 20
10.9154
 30
0.000000
  70
    32
  0
VERTEX
  8
0
  5
A5E
 10
0.215775
 20
10.9156
 30
0.000000
  70
    32
  0
VERTEX
  8
0
  5
A5F
 10
0.215940
 20
10.9157
 30
0.000000
  70
    32
  0
VERTEX
  8
0
  5
A60
 10
0.216103
 20
10.9159
 30
0.000000
  70
    32
  0
VERTEX
  8
0
  5
A61
 10
0.216265
 20
10.9161
 30
0.000000
  70
    32
  0
VERTEX
  8
0
  5
A62
 10
0.216423
 20
10.9163
 30
0.000000
  70
    32
  0
VERTEX
  8
0
  5
A63
 10
0.216580
 20
10.9165
 30
0.000000
  70
    32
  0
VERTEX
  8
0
  5
A64
 10
0.216735
 20
10.9167
 30
0.000000
  70
    32
  0
VERTEX
  8
0
  5
A65
 10
0.216887
 20
10.9168
 30
0.000000
  70
    32
  0
VERTEX
  8
0
  5
A66
 10
0.217037
 20
10.9170
 30
0.000000
  70
    32
  0
VERTEX
  8
0
  5
A67
 10
0.217185
 20
10.9172
 30
0.000000
  70
    32
  0
VERTEX
  8
0
  5
A68
 10
0.217330
 20
10.9174
 30
0.000000
  70
    32
  0
VERTEX
  8
0
  5
A69
 10
0.217474
 20
10.9176
 30
0.000000
  70
    32
  0
VERTEX
  8
0
  5
A6A
 10
0.217614
 20
10.9178
 30
0.000000
  70
    32
  0
VERTEX
  8
0
  5
A6B
 10
0.217753
 20
10.9180
 30
0.000000
  70
    32
  0
VERTEX
  8
0
  5
A6C
 10
0.217889
 20
10.9182
 30
0.000000
  70
    32
  0
VERTEX
  8
0
  5
A6D
 10
0.218023
 20
10.9184
 30
0.000000
  70
    32
  0
VERTEX
  8
0
  5
A6E
 10
0.218154
 20
10.9186
 30
0.000000
  70
    32
  0
VERTEX
  8
0
  5
A6F
 10
0.218283
 20
10.9188
 30
0.000000
  70
    32
  0
VERTEX
  8
0
  5
A70
 10
0.218409
 20
10.9190
 30
0.000000
  70
    32
  0
VERTEX
  8
0
  5
A71
 10
0.218533
 20
10.9193
 30
0.000000
  70
    32
  0
VERTEX
  8
0
  5
A72
 10
0.218654
 20
10.9195
 30
0.000000
  70
    32
  0
VERTEX
  8
0
  5
A73
 10
0.218773
 20
10.9197
 30
0.000000
  70
    32
  0
VERTEX
  8
0
  5
A74
 10
0.218890
 20
10.9199
 30
0.000000
  70
    32
  0
VERTEX
  8
0
  5
A75
 10
0.219003
 20
10.9201
 30
0.000000
  70
    32
  0
VERTEX
  8
0
  5
A76
 10
0.219115
 20
10.9203
 30
0.000000
  70
    32
  0
VERTEX
  8
0
  5
A77
 10
0.219223
 20
10.9205
 30
0.000000
  70
    32
  0
VERTEX
  8
0
  5
A78
 10
0.219329
 20
10.9208
 30
0.000000
  70
    32
  0
VERTEX
  8
0
  5
A79
 10
0.219432
 20
10.9210
 30
0.000000
  70
    32
  0
VERTEX
  8
0
  5
A7A
 10
0.219533
 20
10.9212
 30
0.000000
  70
    32
  0
VERTEX
  8
0
  5
A7B
 10
0.219631
 20
10.9214
 30
0.000000
  70
    32
  0
VERTEX
  8
0
  5
A7C
 10
0.219726
 20
10.9217
 30
0.000000
  70
    32
  0
VERTEX
  8
0
  5
A7D
 10
0.219819
 20
10.9219
 30
0.000000
  70
    32
  0
VERTEX
  8
0
  5
A7E
 10
0.219909
 20
10.9221
 30
0.000000
  70
    32
  0
VERTEX
  8
0
  5
A7F
 10
0.219996
 20
10.9224
 30
0.000000
  70
    32
  0
VERTEX
  8
0
  5
A80
 10
0.220080
 20
10.9226
 30
0.000000
  70
    32
  0
VERTEX
  8
0
  5
A81
 10
0.220162
 20
10.9228
 30
0.000000
  70
    32
  0
VERTEX
  8
0
  5
A82
 10
0.220240
 20
10.9231
 30
0.000000
  70
    32
  0
VERTEX
  8
0
  5
A83
 10
0.220316
 20
10.9233
 30
0.000000
  70
    32
  0
VERTEX
  8
0
  5
A84
 10
0.220389
 20
10.9235
 30
0.000000
  70
    32
  0
VERTEX
  8
0
  5
A85
 10
0.220459
 20
10.9238
 30
0.000000
  70
    32
  0
VERTEX
  8
0
  5
A86
 10
0.220526
 20
10.9240
 30
0.000000
  70
    32
  0
VERTEX
  8
0
  5
A87
 10
0.220591
 20
10.9243
 30
0.000000
  70
    32
  0
VERTEX
  8
0
  5
A88
 10
0.220652
 20
10.9245
 30
0.000000
  70
    32
  0
VERTEX
  8
0
  5
A89
 10
0.220710
 20
10.9248
 30
0.000000
  70
    32
  0
VERTEX
  8
0
  5
A8A
 10
0.220766
 20
10.9250
 30
0.000000
  70
    32
  0
VERTEX
  8
0
  5
A8B
 10
0.220818
 20
10.9252
 30
0.000000
  70
    32
  0
VERTEX
  8
0
  5
A8C
 10
0.220868
 20
10.9255
 30
0.000000
  70
    32
  0
VERTEX
  8
0
  5
A8D
 10
0.220914
 20
10.9257
 30
0.000000
  70
    32
  0
VERTEX
  8
0
  5
A8E
 10
0.220957
 20
10.9260
 30
0.000000
  70
    32
  0
VERTEX
  8
0
  5
A8F
 10
0.220997
 20
10.9262
 30
0.000000
  70
    32
  0
VERTEX
  8
0
  5
A90
 10
0.221034
 20
10.9265
 30
0.000000
  70
    32
  0
VERTEX
  8
0
  5
A91
 10
0.221068
 20
10.9267
 30
0.000000
  70
    32
  0
VERTEX
  8
0
  5
A92
 10
0.221099
 20
10.9270
 30
0.000000
  70
    32
  0
VERTEX
  8
0
  5
A93
 10
0.221127
 20
10.9273
 30
0.000000
  70
    32
  0
VERTEX
  8
0
  5
A94
 10
0.221151
 20
10.9275
 30
0.000000
  70
    32
  0
VERTEX
  8
0
  5
A95
 10
0.221173
 20
10.9278
 30
0.000000
  70
    32
  0
VERTEX
  8
0
  5
A96
 10
0.221191
 20
10.9280
 30
0.000000
  70
    32
  0
VERTEX
  8
0
  5
A97
 10
0.221206
 20
10.9283
 30
0.000000
  70
    32
  0
VERTEX
  8
0
  5
A98
 10
0.221217
 20
10.9285
 30
0.000000
  70
    32
  0
VERTEX
  8
0
  5
A99
 10
0.221225
 20
10.9288
 30
0.000000
  70
    32
  0
VERTEX
  8
0
  5
A9A
 10
0.221230
 20
10.9291
 30
0.000000
  70
    32
  0
VERTEX
  8
0
  5
A9B
 10
0.221232
 20
10.9293
 30
0.000000
  70
    32
  0
SEQEND
  8
0
  5
A9C
  0
POLYLINE
  8
0
  5
A9D
  66
     1
 10
0.000000
 20
0.000000
 30
0.000000
  70
     8
  0
VERTEX
  8
0
  5
A9E
 10
0.221616
 20
10.8894
 30
0.000000
  70
    32
  0
VERTEX
  8
0
  5
A9F
 10
0.221608
 20
10.8897
 30
0.000000
  70
    32
  0
VERTEX
  8
0
  5
AA0
 10
0.221597
 20
10.8900
 30
0.000000
  70
    32
  0
VERTEX
  8
0
  5
AA1
 10
0.221583
 20
10.8902
 30
0.000000
  70
    32
  0
VERTEX
  8
0
  5
AA2
 10
0.221566
 20
10.8905
 30
0.000000
  70
    32
  0
VERTEX
  8
0
  5
AA3
 10
0.221546
 20
10.8907
 30
0.000000
  70
    32
  0
VERTEX
  8
0
  5
AA4
 10
0.221522
 20
10.8910
 30
0.000000
  70
    32
  0
VERTEX
  8
0
  5
AA5
 10
0.221495
 20
10.8912
 30
0.000000
  70
    32
  0
VERTEX
  8
0
  5
AA6
 10
0.221466
 20
10.8915
 30
0.000000
  70
    32
  0
VERTEX
  8
0
  5
AA7
 10
0.221433
 20
10.8917
 30
0.000000
  70
    32
  0
VERTEX
  8
0
  5
AA8
 10
0.221397
 20
10.8920
 30
0.000000
  70
    32
  0
VERTEX
  8
0
  5
AA9
 10
0.221359
 20
10.8922
 30
0.000000
  70
    32
  0
VERTEX
  8
0
  5
AAA
 10
0.221317
 20
10.8925
 30
0.000000
  70
    32
  0
VERTEX
  8
0
  5
AAB
 10
0.221272
 20
10.8927
 30
0.000000
  70
    32
  0
VERTEX
  8
0
  5
AAC
 10
0.221224
 20
10.8930
 30
0.000000
  70
    32
  0
VERTEX
  8
0
  5
AAD
 10
0.221173
 20
10.8932
 30
0.000000
  70
    32
  0
VERTEX
  8
0
  5
AAE
 10
0.221120
 20
10.8935
 30
0.000000
  70
    32
  0
VERTEX
  8
0
  5
AAF
 10
0.221063
 20
10.8937
 30
0.000000
  70
    32
  0
VERTEX
  8
0
  5
AB0
 10
0.221004
 20
10.8939
 30
0.000000
  70
    32
  0
VERTEX
  8
0
  5
AB1
 10
0.220941
 20
10.8942
 30
0.000000
  70
    32
  0
VERTEX
  8
0
  5
AB2
 10
0.220876
 20
10.8944
 30
0.000000
  70
    32
  0
VERTEX
  8
0
  5
AB3
 10
0.220808
 20
10.8947
 30
0.000000
  70
    32
  0
VERTEX
  8
0
  5
AB4
 10
0.220737
 20
10.8949
 30
0.000000
  70
    32
  0
VERTEX
  8
0
  5
AB5
 10
0.220664
 20
10.8951
 30
0.000000
  70
    32
  0
VERTEX
  8
0
  5
AB6
 10
0.220587
 20
10.8954
 30
0.000000
  70
    32
  0
VERTEX
  8
0
  5
AB7
 10
0.220508
 20
10.8956
 30
0.000000
  70
    32
  0
VERTEX
  8
0
  5
AB8
 10
0.220426
 20
10.8958
 30
0.000000
  70
    32
  0
VERTEX
  8
0
  5
AB9
 10
0.220341
 20
10.8961
 30
0.000000
  70
    32
  0
VERTEX
  8
0
  5
ABA
 10
0.220254
 20
10.8963
 30
0.000000
  70
    32
  0
VERTEX
  8
0
  5
ABB
 10
0.220164
 20
10.8965
 30
0.000000
  70
    32
  0
VERTEX
  8
0
  5
ABC
 10
0.220071
 20
10.8968
 30
0.000000
  70
    32
  0
VERTEX
  8
0
  5
ABD
 10
0.219976
 20
10.8970
 30
0.000000
  70
    32
  0
VERTEX
  8
0
  5
ABE
 10
0.219878
 20
10.8972
 30
0.000000
  70
    32
  0
VERTEX
  8
0
  5
ABF
 10
0.219778
 20
10.8974
 30
0.000000
  70
    32
  0
VERTEX
  8
0
  5
AC0
 10
0.219674
 20
10.8977
 30
0.000000
  70
    32
  0
VERTEX
  8
0
  5
AC1
 10
0.219569
 20
10.8979
 30
0.000000
  70
    32
  0
VERTEX
  8
0
  5
AC2
 10
0.219460
 20
10.8981
 30
0.000000
  70
    32
  0
VERTEX
  8
0
  5
AC3
 10
0.219350
 20
10.8983
 30
0.000000
  70
    32
  0
VERTEX
  8
0
  5
AC4
 10
0.219236
 20
10.8985
 30
0.000000
  70
    32
  0
VERTEX
  8
0
  5
AC5
 10
0.219121
 20
10.8987
 30
0.000000
  70
    32
  0
VERTEX
  8
0
  5
AC6
 10
0.219002
 20
10.8990
 30
0.000000
  70
    32
  0
VERTEX
  8
0
  5
AC7
 10
0.218882
 20
10.8992
 30
0.000000
  70
    32
  0
VERTEX
  8
0
  5
AC8
 10
0.218758
 20
10.8994
 30
0.000000
  70
    32
  0
VERTEX
  8
0
  5
AC9
 10
0.218633
 20
10.8996
 30
0.000000
  70
    32
  0
VERTEX
  8
0
  5
ACA
 10
0.218505
 20
10.8998
 30
0.000000
  70
    32
  0
VERTEX
  8
0
  5
ACB
 10
0.218375
 20
10.9000
 30
0.000000
  70
    32
  0
VERTEX
  8
0
  5
ACC
 10
0.218242
 20
10.9002
 30
0.000000
  70
    32
  0
VERTEX
  8
0
  5
ACD
 10
0.218107
 20
10.9004
 30
0.000000
  70
    32
  0
VERTEX
  8
0
  5
ACE
 10
0.217970
 20
10.9006
 30
0.000000
  70
    32
  0
VERTEX
  8
0
  5
ACF
 10
0.217830
 20
10.9008
 30
0.000000
  70
    32
  0
VERTEX
  8
0
  5
AD0
 10
0.217688
 20
10.9010
 30
0.000000
  70
    32
  0
VERTEX
  8
0
  5
AD1
 10
0.217544
 20
10.9012
 30
0.000000
  70
    32
  0
VERTEX
  8
0
  5
AD2
 10
0.217398
 20
10.9014
 30
0.000000
  70
    32
  0
VERTEX
  8
0
  5
AD3
 10
0.217249
 20
10.9016
 30
0.000000
  70
    32
  0
VERTEX
  8
0
  5
AD4
 10
0.217098
 20
10.9018
 30
0.000000
  70
    32
  0
VERTEX
  8
0
  5
AD5
 10
0.216945
 20
10.9019
 30
0.000000
  70
    32
  0
VERTEX
  8
0
  5
AD6
 10
0.216790
 20
10.9021
 30
0.000000
  70
    32
  0
VERTEX
  8
0
  5
AD7
 10
0.216633
 20
10.9023
 30
0.000000
  70
    32
  0
VERTEX
  8
0
  5
AD8
 10
0.216473
 20
10.9025
 30
0.000000
  70
    32
  0
VERTEX
  8
0
  5
AD9
 10
0.216312
 20
10.9027
 30
0.000000
  70
    32
  0
VERTEX
  8
0
  5
ADA
 10
0.216148
 20
10.9028
 30
0.000000
  70
    32
  0
VERTEX
  8
0
  5
ADB
 10
0.215983
 20
10.9030
 30
0.000000
  70
    32
  0
VERTEX
  8
0
  5
ADC
 10
0.215815
 20
10.9032
 30
0.000000
  70
    32
  0
VERTEX
  8
0
  5
ADD
 10
0.215645
 20
10.9034
 30
0.000000
  70
    32
  0
VERTEX
  8
0
  5
ADE
 10
0.215473
 20
10.9035
 30
0.000000
  70
    32
  0
VERTEX
  8
0
  5
ADF
 10
0.215300
 20
10.9037
 30
0.000000
  70
    32
  0
VERTEX
  8
0
  5
AE0
 10
0.215124
 20
10.9039
 30
0.000000
  70
    32
  0
VERTEX
  8
0
  5
AE1
 10
0.214946
 20
10.9040
 30
0.000000
  70
    32
  0
VERTEX
  8
0
  5
AE2
 10
0.214767
 20
10.9042
 30
0.000000
  70
    32
  0
VERTEX
  8
0
  5
AE3
 10
0.214585
 20
10.9044
 30
0.000000
  70
    32
  0
VERTEX
  8
0
  5
AE4
 10
0.214402
 20
10.9045
 30
0.000000
  70
    32
  0
VERTEX
  8
0
  5
AE5
 10
0.214217
 20
10.9047
 30
0.000000
  70
    32
  0
VERTEX
  8
0
  5
AE6
 10
0.214029
 20
10.9048
 30
0.000000
  70
    32
  0
VERTEX
  8
0
  5
AE7
 10
0.213841
 20
10.9050
 30
0.000000
  70
    32
  0
VERTEX
  8
0
  5
AE8
 10
0.213650
 20
10.9051
 30
0.000000
  70
    32
  0
VERTEX
  8
0
  5
AE9
 10
0.213457
 20
10.9053
 30
0.000000
  70
    32
  0
VERTEX
  8
0
  5
AEA
 10
0.213263
 20
10.9054
 30
0.000000
  70
    32
  0
VERTEX
  8
0
  5
AEB
 10
0.213067
 20
10.9055
 30
0.000000
  70
    32
  0
VERTEX
  8
0
  5
AEC
 10
0.212869
 20
10.9057
 30
0.000000
  70
    32
  0
VERTEX
  8
0
  5
AED
 10
0.212669
 20
10.9058
 30
0.000000
  70
    32
  0
VERTEX
  8
0
  5
AEE
 10
0.212468
 20
10.9060
 30
0.000000
  70
    32
  0
VERTEX
  8
0
  5
AEF
 10
0.212265
 20
10.9061
 30
0.000000
  70
    32
  0
VERTEX
  8
0
  5
AF0
 10
0.212061
 20
10.9062
 30
0.000000
  70
    32
  0
VERTEX
  8
0
  5
AF1
 10
0.211855
 20
10.9063
 30
0.000000
  70
    32
  0
VERTEX
  8
0
  5
AF2
 10
0.211647
 20
10.9065
 30
0.000000
  70
    32
  0
VERTEX
  8
0
  5
AF3
 10
0.211437
 20
10.9066
 30
0.000000
  70
    32
  0
VERTEX
  8
0
  5
AF4
 10
0.211226
 20
10.9067
 30
0.000000
  70
    32
  0
VERTEX
  8
0
  5
AF5
 10
0.211014
 20
10.9068
 30
0.000000
  70
    32
  0
VERTEX
  8
0
  5
AF6
 10
0.210800
 20
10.9069
 30
0.000000
  70
    32
  0
VERTEX
  8
0
  5
AF7
 10
0.210584
 20
10.9071
 30
0.000000
  70
    32
  0
VERTEX
  8
0
  5
AF8
 10
0.210367
 20
10.9072
 30
0.000000
  70
    32
  0
VERTEX
  8
0
  5
AF9
 10
0.210148
 20
10.9073
 30
0.000000
  70
    32
  0
VERTEX
  8
0
  5
AFA
 10
0.209928
 20
10.9074
 30
0.000000
  70
    32
  0
VERTEX
  8
0
  5
AFB
 10
0.209706
 20
10.9075
 30
0.000000
  70
    32
  0
VERTEX
  8
0
  5
AFC
 10
0.209483
 20
10.9076
 30
0.000000
  70
    32
  0
VERTEX
  8
0
  5
AFD
 10
0.209259
 20
10.9077
 30
0.000000
  70
    32
  0
VERTEX
  8
0
  5
AFE
 10
0.209033
 20
10.9078
 30
0.000000
  70
    32
  0
VERTEX
  8
0
  5
AFF
 10
0.208806
 20
10.9079
 30
0.000000
  70
    32
  0
VERTEX
  8
0
  5
B00
 10
0.208578
 20
10.9080
 30
0.000000
  70
    32
  0
VERTEX
  8
0
  5
B01
 10
0.208348
 20
10.9080
 30
0.000000
  70
    32
  0
VERTEX
  8
0
  5
B02
 10
0.208117
 20
10.9081
 30
0.000000
  70
    32
  0
VERTEX
  8
0
  5
B03
 10
0.207884
 20
10.9082
 30
0.000000
  70
    32
  0
VERTEX
  8
0
  5
B04
 10
0.207650
 20
10.9083
 30
0.000000
  70
    32
  0
VERTEX
  8
0
  5
B05
 10
0.207416
 20
10.9084
 30
0.000000
  70
    32
  0
VERTEX
  8
0
  5
B06
 10
0.207179
 20
10.9084
 30
0.000000
  70
    32
  0
VERTEX
  8
0
  5
B07
 10
0.206942
 20
10.9085
 30
0.000000
  70
    32
  0
VERTEX
  8
0
  5
B08
 10
0.206703
 20
10.9086
 30
0.000000
  70
    32
  0
VERTEX
  8
0
  5
B09
 10
0.206463
 20
10.9086
 30
0.000000
  70
    32
  0
VERTEX
  8
0
  5
B0A
 10
0.206222
 20
10.9087
 30
0.000000
  70
    32
  0
VERTEX
  8
0
  5
B0B
 10
0.205980
 20
10.9087
 30
0.000000
  70
    32
  0
VERTEX
  8
0
  5
B0C
 10
0.205737
 20
10.9088
 30
0.000000
  70
    32
  0
VERTEX
  8
0
  5
B0D
 10
0.205493
 20
10.9089
 30
0.000000
  70
    32
  0
VERTEX
  8
0
  5
B0E
 10
0.205247
 20
10.9089
 30
0.000000
  70
    32
  0
VERTEX
  8
0
  5
B0F
 10
0.205001
 20
10.9089
 30
0.000000
  70
    32
  0
VERTEX
  8
0
  5
B10
 10
0.204754
 20
10.9090
 30
0.000000
  70
    32
  0
VERTEX
  8
0
  5
B11
 10
0.204505
 20
10.9090
 30
0.000000
  70
    32
  0
VERTEX
  8
0
  5
B12
 10
0.204255
 20
10.9091
 30
0.000000
  70
    32
  0
VERTEX
  8
0
  5
B13
 10
0.204005
 20
10.9091
 30
0.000000
  70
    32
  0
VERTEX
  8
0
  5
B14
 10
0.203753
 20
10.9091
 30
0.000000
  70
    32
  0
VERTEX
  8
0
  5
B15
 10
0.203501
 20
10.9092
 30
0.000000
  70
    32
  0
VERTEX
  8
0
  5
B16
 10
0.203248
 20
10.9092
 30
0.000000
  70
    32
  0
VERTEX
  8
0
  5
B17
 10
0.202993
 20
10.9092
 30
0.000000
  70
    32
  0
VERTEX
  8
0
  5
B18
 10
0.202738
 20
10.9092
 30
0.000000
  70
    32
  0
VERTEX
  8
0
  5
B19
 10
0.202482
 20
10.9092
 30
0.000000
  70
    32
  0
VERTEX
  8
0
  5
B1A
 10
0.202225
 20
10.9092
 30
0.000000
  70
    32
  0
VERTEX
  8
0
  5
B1B
 10
0.201968
 20
10.9093
 30
0.000000
  70
    32
  0
VERTEX
  8
0
  5
B1C
 10
0.201709
 20
10.9093
 30
0.000000
  70
    32
  0
VERTEX
  8
0
  5
B1D
 10
0.201450
 20
10.9093
 30
0.000000
  70
    32
  0
SEQEND
  8
0
  5
B1E
  0
POLYLINE
  8
0
  5
B1F
  66
     1
 10
0.000000
 20
0.000000
 30
0.000000
  70
     8
  0
VERTEX
  8
0
  5
B20
 10
0.887853
 20
10.3019
 30
0.000000
  70
    32
  0
VERTEX
  8
0
  5
B21
 10
0.887836
 20
10.3023
 30
0.000000
  70
    32
  0
VERTEX
  8
0
  5
B22
 10
0.887814
 20
10.3027
 30
0.000000
  70
    32
  0
VERTEX
  8
0
  5
B23
 10
0.887788
 20
10.3031
 30
0.000000
  70
    32
  0
VERTEX
  8
0
  5
B24
 10
0.887758
 20
10.3034
 30
0.000000
  70
    32
  0
VERTEX
  8
0
  5
B25
 10
0.887722
 20
10.3038
 30
0.000000
  70
    32
  0
VERTEX
  8
0
  5
B26
 10
0.887682
 20
10.3042
 30
0.000000
  70
    32
  0
VERTEX
  8
0
  5
B27
 10
0.887638
 20
10.3046
 30
0.000000
  70
    32
  0
VERTEX
  8
0
  5
B28
 10
0.887589
 20
10.3049
 30
0.000000
  70
    32
  0
VERTEX
  8
0
  5
B29
 10
0.887535
 20
10.3053
 30
0.000000
  70
    32
  0
VERTEX
  8
0
  5
B2A
 10
0.887477
 20
10.3057
 30
0.000000
  70
    32
  0
VERTEX
  8
0
  5
B2B
 10
0.887414
 20
10.3061
 30
0.000000
  70
    32
  0
VERTEX
  8
0
  5
B2C
 10
0.887347
 20
10.3064
 30
0.000000
  70
    32
  0
VERTEX
  8
0
  5
B2D
 10
0.887276
 20
10.3068
 30
0.000000
  70
    32
  0
VERTEX
  8
0
  5
B2E
 10
0.887200
 20
10.3072
 30
0.000000
  70
    32
  0
VERTEX
  8
0
  5
B2F
 10
0.887120
 20
10.3075
 30
0.000000
  70
    32
  0
VERTEX
  8
0
  5
B30
 10
0.887036
 20
10.3079
 30
0.000000
  70
    32
  0
VERTEX
  8
0
  5
B31
 10
0.886947
 20
10.3082
 30
0.000000
  70
    32
  0
VERTEX
  8
0
  5
B32
 10
0.886854
 20
10.3086
 30
0.000000
  70
    32
  0
VERTEX
  8
0
  5
B33
 10
0.886757
 20
10.3090
 30
0.000000
  70
    32
  0
VERTEX
  8
0
  5
B34
 10
0.886656
 20
10.3093
 30
0.000000
  70
    32
  0
VERTEX
  8
0
  5
B35
 10
0.886550
 20
10.3097
 30
0.000000
  70
    32
  0
VERTEX
  8
0
  5
B36
 10
0.886440
 20
10.3100
 30
0.000000
  70
    32
  0
VERTEX
  8
0
  5
B37
 10
0.886327
 20
10.3104
 30
0.000000
  70
    32
  0
VERTEX
  8
0
  5
B38
 10
0.886209
 20
10.3107
 30
0.000000
  70
    32
  0
VERTEX
  8
0
  5
B39
 10
0.886087
 20
10.3111
 30
0.000000
  70
    32
  0
VERTEX
  8
0
  5
B3A
 10
0.885961
 20
10.3114
 30
0.000000
  70
    32
  0
VERTEX
  8
0
  5
B3B
 10
0.885831
 20
10.3117
 30
0.000000
  70
    32
  0
VERTEX
  8
0
  5
B3C
 10
0.885697
 20
10.3121
 30
0.000000
  70
    32
  0
VERTEX
  8
0
  5
B3D
 10
0.885560
 20
10.3124
 30
0.000000
  70
    32
  0
VERTEX
  8
0
  5
B3E
 10
0.885418
 20
10.3128
 30
0.000000
  70
    32
  0
VERTEX
  8
0
  5
B3F
 10
0.885272
 20
10.3131
 30
0.000000
  70
    32
  0
VERTEX
  8
0
  5
B40
 10
0.885123
 20
10.3134
 30
0.000000
  70
    32
  0
VERTEX
  8
0
  5
B41
 10
0.884970
 20
10.3137
 30
0.000000
  70
    32
  0
VERTEX
  8
0
  5
B42
 10
0.884813
 20
10.3141
 30
0.000000
  70
    32
  0
VERTEX
  8
0
  5
B43
 10
0.884652
 20
10.3144
 30
0.000000
  70
    32
  0
VERTEX
  8
0
  5
B44
 10
0.884487
 20
10.3147
 30
0.000000
  70
    32
  0
VERTEX
  8
0
  5
B45
 10
0.884319
 20
10.3150
 30
0.000000
  70
    32
  0
VERTEX
  8
0
  5
B46
 10
0.884147
 20
10.3154
 30
0.000000
  70
    32
  0
VERTEX
  8
0
  5
B47
 10
0.883972
 20
10.3157
 30
0.000000
  70
    32
  0
VERTEX
  8
0
  5
B48
 10
0.883793
 20
10.3160
 30
0.000000
  70
    32
  0
VERTEX
  8
0
  5
B49
 10
0.883610
 20
10.3163
 30
0.000000
  70
    32
  0
VERTEX
  8
0
  5
B4A
 10
0.883424
 20
10.3166
 30
0.000000
  70
    32
  0
VERTEX
  8
0
  5
B4B
 10
0.883234
 20
10.3169
 30
0.000000
  70
    32
  0
VERTEX
  8
0
  5
B4C
 10
0.883040
 20
10.3172
 30
0.000000
  70
    32
  0
VERTEX
  8
0
  5
B4D
 10
0.882844
 20
10.3175
 30
0.000000
  70
    32
  0
VERTEX
  8
0
  5
B4E
 10
0.882643
 20
10.3178
 30
0.000000
  70
    32
  0
VERTEX
  8
0
  5
B4F
 10
0.882440
 20
10.3181
 30
0.000000
  70
    32
  0
VERTEX
  8
0
  5
B50
 10
0.882233
 20
10.3184
 30
0.000000
  70
    32
  0
VERTEX
  8
0
  5
B51
 10
0.882022
 20
10.3187
 30
0.000000
  70
    32
  0
VERTEX
  8
0
  5
B52
 10
0.881809
 20
10.3190
 30
0.000000
  70
    32
  0
VERTEX
  8
0
  5
B53
 10
0.881592
 20
10.3193
 30
0.000000
  70
    32
  0
VERTEX
  8
0
  5
B54
 10
0.881371
 20
10.3196
 30
0.000000
  70
    32
  0
VERTEX
  8
0
  5
B55
 10
0.881148
 20
10.3198
 30
0.000000
  70
    32
  0
VERTEX
  8
0
  5
B56
 10
0.880921
 20
10.3201
 30
0.000000
  70
    32
  0
VERTEX
  8
0
  5
B57
 10
0.880691
 20
10.3204
 30
0.000000
  70
    32
  0
VERTEX
  8
0
  5
B58
 10
0.880458
 20
10.3207
 30
0.000000
  70
    32
  0
VERTEX
  8
0
  5
B59
 10
0.880222
 20
10.3209
 30
0.000000
  70
    32
  0
VERTEX
  8
0
  5
B5A
 10
0.879983
 20
10.3212
 30
0.000000
  70
    32
  0
VERTEX
  8
0
  5
B5B
 10
0.879740
 20
10.3215
 30
0.000000
  70
    32
  0
VERTEX
  8
0
  5
B5C
 10
0.879495
 20
10.3217
 30
0.000000
  70
    32
  0
VERTEX
  8
0
  5
B5D
 10
0.879247
 20
10.3220
 30
0.000000
  70
    32
  0
VERTEX
  8
0
  5
B5E
 10
0.878995
 20
10.3222
 30
0.000000
  70
    32
  0
VERTEX
  8
0
  5
B5F
 10
0.878741
 20
10.3225
 30
0.000000
  70
    32
  0
VERTEX
  8
0
  5
B60
 10
0.878484
 20
10.3227
 30
0.000000
  70
    32
  0
VERTEX
  8
0
  5
B61
 10
0.878224
 20
10.3230
 30
0.000000
  70
    32
  0
VERTEX
  8
0
  5
B62
 10
0.877961
 20
10.3232
 30
0.000000
  70
    32
  0
VERTEX
  8
0
  5
B63
 10
0.877695
 20
10.3235
 30
0.000000
  70
    32
  0
VERTEX
  8
0
  5
B64
 10
0.877426
 20
10.3237
 30
0.000000
  70
    32
  0
VERTEX
  8
0
  5
B65
 10
0.877155
 20
10.3239
 30
0.000000
  70
    32
  0
VERTEX
  8
0
  5
B66
 10
0.876880
 20
10.3242
 30
0.000000
  70
    32
  0
VERTEX
  8
0
  5
B67
 10
0.876604
 20
10.3244
 30
0.000000
  70
    32
  0
VERTEX
  8
0
  5
B68
 10
0.876324
 20
10.3246
 30
0.000000
  70
    32
  0
VERTEX
  8
0
  5
B69
 10
0.876042
 20
10.3248
 30
0.000000
  70
    32
  0
VERTEX
  8
0
  5
B6A
 10
0.875757
 20
10.3251
 30
0.000000
  70
    32
  0
VERTEX
  8
0
  5
B6B
 10
0.875470
 20
10.3253
 30
0.000000
  70
    32
  0
VERTEX
  8
0
  5
B6C
 10
0.875179
 20
10.3255
 30
0.000000
  70
    32
  0
VERTEX
  8
0
  5
B6D
 10
0.874887
 20
10.3257
 30
0.000000
  70
    32
  0
VERTEX
  8
0
  5
B6E
 10
0.874592
 20
10.3259
 30
0.000000
  70
    32
  0
VERTEX
  8
0
  5
B6F
 10
0.874294
 20
10.3261
 30
0.000000
  70
    32
  0
VERTEX
  8
0
  5
B70
 10
0.873994
 20
10.3263
 30
0.000000
  70
    32
  0
VERTEX
  8
0
  5
B71
 10
0.873692
 20
10.3265
 30
0.000000
  70
    32
  0
VERTEX
  8
0
  5
B72
 10
0.873387
 20
10.3267
 30
0.000000
  70
    32
  0
VERTEX
  8
0
  5
B73
 10
0.873080
 20
10.3269
 30
0.000000
  70
    32
  0
VERTEX
  8
0
  5
B74
 10
0.872770
 20
10.3270
 30
0.000000
  70
    32
  0
VERTEX
  8
0
  5
B75
 10
0.872458
 20
10.3272
 30
0.000000
  70
    32
  0
VERTEX
  8
0
  5
B76
 10
0.872144
 20
10.3274
 30
0.000000
  70
    32
  0
VERTEX
  8
0
  5
B77
 10
0.871827
 20
10.3276
 30
0.000000
  70
    32
  0
VERTEX
  8
0
  5
B78
 10
0.871509
 20
10.3277
 30
0.000000
  70
    32
  0
VERTEX
  8
0
  5
B79
 10
0.871188
 20
10.3279
 30
0.000000
  70
    32
  0
VERTEX
  8
0
  5
B7A
 10
0.870865
 20
10.3281
 30
0.000000
  70
    32
  0
VERTEX
  8
0
  5
B7B
 10
0.870540
 20
10.3282
 30
0.000000
  70
    32
  0
VERTEX
  8
0
  5
B7C
 10
0.870212
 20
10.3284
 30
0.000000
  70
    32
  0
VERTEX
  8
0
  5
B7D
 10
0.869883
 20
10.3285
 30
0.000000
  70
    32
  0
VERTEX
  8
0
  5
B7E
 10
0.869552
 20
10.3287
 30
0.000000
  70
    32
  0
VERTEX
  8
0
  5
B7F
 10
0.869218
 20
10.3288
 30
0.000000
  70
    32
  0
VERTEX
  8
0
  5
B80
 10
0.868883
 20
10.3290
 30
0.000000
  70
    32
  0
VERTEX
  8
0
  5
B81
 10
0.868545
 20
10.3291
 30
0.000000
  70
    32
  0
VERTEX
  8
0
  5
B82
 10
0.868206
 20
10.3292
 30
0.000000
  70
    32
  0
VERTEX
  8
0
  5
B83
 10
0.867865
 20
10.3293
 30
0.000000
  70
    32
  0
VERTEX
  8
0
  5
B84
 10
0.867522
 20
10.3295
 30
0.000000
  70
    32
  0
VERTEX
  8
0
  5
B85
 10
0.867177
 20
10.3296
 30
0.000000
  70
    32
  0
VERTEX
  8
0
  5
B86
 10
0.866830
 20
10.3297
 30
0.000000
  70
    32
  0
VERTEX
  8
0
  5
B87
 10
0.866481
 20
10.3298
 30
0.000000
  70
    32
  0
VERTEX
  8
0
  5
B88
 10
0.866131
 20
10.3299
 30
0.000000
  70
    32
  0
VERTEX
  8
0
  5
B89
 10
0.865779
 20
10.3300
 30
0.000000
  70
    32
  0
VERTEX
  8
0
  5
B8A
 10
0.865425
 20
10.3301
 30
0.000000
  70
    32
  0
VERTEX
  8
0
  5
B8B
 10
0.865069
 20
10.3302
 30
0.000000
  70
    32
  0
VERTEX
  8
0
  5
B8C
 10
0.864712
 20
10.3303
 30
0.000000
  70
    32
  0
VERTEX
  8
0
  5
B8D
 10
0.864353
 20
10.3304
 30
0.000000
  70
    32
  0
VERTEX
  8
0
  5
B8E
 10
0.863993
 20
10.3305
 30
0.000000
  70
    32
  0
VERTEX
  8
0
  5
B8F
 10
0.863631
 20
10.3305
 30
0.000000
  70
    32
  0
VERTEX
  8
0
  5
B90
 10
0.863268
 20
10.3306
 30
0.000000
  70
    32
  0
VERTEX
  8
0
  5
B91
 10
0.862903
 20
10.3307
 30
0.000000
  70
    32
  0
VERTEX
  8
0
  5
B92
 10
0.862536
 20
10.3307
 30
0.000000
  70
    32
  0
VERTEX
  8
0
  5
B93
 10
0.862169
 20
10.3308
 30
0.000000
  70
    32
  0
VERTEX
  8
0
  5
B94
 10
0.861799
 20
10.3308
 30
0.000000
  70
    32
  0
VERTEX
  8
0
  5
B95
 10
0.861429
 20
10.3309
 30
0.000000
  70
    32
  0
VERTEX
  8
0
  5
B96
 10
0.861057
 20
10.3309
 30
0.000000
  70
    32
  0
VERTEX
  8
0
  5
B97
 10
0.860683
 20
10.3310
 30
0.000000
  70
    32
  0
VERTEX
  8
0
  5
B98
 10
0.860309
 20
10.3310
 30
0.000000
  70
    32
  0
VERTEX
  8
0
  5
B99
 10
0.859933
 20
10.3310
 30
0.000000
  70
    32
  0
VERTEX
  8
0
  5
B9A
 10
0.859555
 20
10.3311
 30
0.000000
  70
    32
  0
VERTEX
  8
0
  5
B9B
 10
0.859177
 20
10.3311
 30
0.000000
  70
    32
  0
VERTEX
  8
0
  5
B9C
 10
0.858797
 20
10.3311
 30
0.000000
  70
    32
  0
VERTEX
  8
0
  5
B9D
 10
0.858417
 20
10.3311
 30
0.000000
  70
    32
  0
VERTEX
  8
0
  5
B9E
 10
0.858035
 20
10.3311
 30
0.000000
  70
    32
  0
VERTEX
  8
0
  5
B9F
 10
0.857652
 20
10.3311
 30
0.000000
  70
    32
  0
SEQEND
  8
0
  5
BA0
  0
LINE
  5
36
  8
0
 10
0.9150811825702191
 20
9.4525951077672374
 30
0.0
 11
0.9150811825702191
 21
0.3519260300858491
 31
0.0
  0
LINE
  5
37
  8
0
 10
-0.9151450993936904
 20
9.4525951077672374
 30
0.0
 11
-0.9151450993936904
 21
0.3519260300858491
 31
0.0
  0
LINE
  5
38
  8
0
 10
-0.9151450993936904
 20
0.3820947707688447
 30
0.0
 11
0.9150811825702191
 21
0.3820947707688447
 31
0.0
  0
LINE
  5
39
  8
0
 10
-1.096093626668128
 20
0.0
 30
0.0
 11
1.0960936266681349
 21
0.0
 31
0.0
  0
LINE
  5
3A
  8
0
 10
-1.1262943257628559
 20
0.1408087621284295
 30
0.0
 11
-1.1262943257628559
 21
0.0301048238595172
 31
0.0
  0
ATTDEF
  5
3B
  8
0
 10
-0.0018
 20
-0.0165
 30
0.0
 40
0.003
  1
BRASS
  3

  2
MATERIAL
 70
     2
  0
ATTDEF
  5
3C
  8
0
 10
-0.0018
 20
-0.0132
 30
0.0
 40
0.003
  1
FAUCET
  3

  2
PRODUCT
 70
     2
  0
ATTDEF
  5
3D
  8
0
 10
-0.0018
 20
-0.0098
 30
0.0
 40
0.003
  1
PURIST
  3

  2
TRADENAME
 70
     2
  0
ATTDEF
  5
3E
  8
0
 10
-0.0018
 20
-0.0065
 30
0.0
 40
0.003
  1
K-14404-4
  3

  2
MODELNUMBER
 70
     2
  0
LINE
  5
3F
  8
0
 10
1.1262623673511241
 20
0.1408087621284295
 30
0.0
 11
1.1262623673511241
 21
0.0301048238595172
 31
0.0
  0
LINE
  5
40
  8
0
 10
0.2212321052732804
 20
10.92932939747001
 30
0.0
 11
0.2212321052732804
 21
11.94528730669896
 31
0.0
  0
LINE
  5
41
  8
0
 10
-0.2212321052732733
 20
10.92932939747001
 30
0.0
 11
-0.2212321052732733
 21
11.94528730669896
 31
0.0
  0
LINE
  5
42
  8
0
 10
0.4082846891901398
 20
7.5922320435320776
 30
0.0
 11
0.4082846891901398
 21
6.5622763499608112
 31
0.0
  0
LINE
  5
43
  8
0
 10
-0.4082846891901326
 20
7.5922320435320776
 30
0.0
 11
-0.4082846891901326
 21
6.5622763499608112
 31
0.0
  0
POLYLINE
  5
44
  8
0
 66
     1
 10
0.0
 20
0.0
 30
0.0
  0
VERTEX
  5
45
  8
0
 10
-0.4082846891901326
 20
6.5622763499608112
 30
0.0
  0
VERTEX
  5
46
  8
0
 10
-0.408029021896212
 20
6.5704577033663716
 30
0.0
  0
VERTEX
  5
47
  8
0
 10
-0.4072939784261749
 20
6.5785751399484411
 30
0.0
  0
VERTEX
  5
48
  8
0
 10
-0.4060476003683036
 20
6.5867564933540024
 30
0.0
  0
VERTEX
  5
49
  8
0
 10
-0.4042898877225767
 20
6.5948100131125917
 30
0.0
  0
VERTEX
  5
4A
  8
0
 10
-0.4020527989007477
 20
6.602863532871182
 30
0.0
  0
VERTEX
  5
4B
  8
0
 10
-0.3993682923145485
 20
6.6108531358062939
 30
0.0
  0
VERTEX
  5
4C
  8
0
 10
-0.3961724511405009
 20
6.6188427387414057
 30
0.0
  0
VERTEX
  5
4D
  8
0
 10
-0.3924333169668657
 20
6.6267684248530401
 30
0.0
  0
VERTEX
  5
4E
  8
0
 10
-0.3883106818523529
 20
6.6346301941411951
 30
0.0
  0
VERTEX
  5
4F
  8
0
 10
-0.3836767121499847
 20
6.6423002129588999
 30
0.0
  0
VERTEX
  5
50
  8
0
 10
-0.3785633662715142
 20
6.6499702317766056
 30
0.0
  0
VERTEX
  5
51
  8
0
 10
-0.3729386858051953
 20
6.657448500123877
 30
0.0
  0
VERTEX
  5
52
  8
0
 10
-0.3669944212214702
 20
6.664862851647654
 30
0.0
  0
VERTEX
  5
53
  8
0
 10
-0.360442946814679
 20
6.6721493695244902
 30
0.0
  0
VERTEX
  5
54
  8
0
 10
-0.3535718882904817
 20
6.6793080537543403
 30
0.0
  0
VERTEX
  5
55
  8
0
 10
-0.3462214535901751
 20
6.686338904337247
 30
0.0
  0
VERTEX
  5
56
  8
0
 10
-0.3384555595372447
 20
6.6932419212731844
 30
0.0
  0
VERTEX
  5
57
  8
0
 10
-0.330338122955169
 20
6.6998892709151932
 30
0.0
  0
VERTEX
  5
58
  8
0
 10
-0.321741310196991
 20
6.7063448700867658
 30
0.0
  0
VERTEX
  5
59
  8
0
 10
-0.3127290380861822
 20
6.7128004692583403
 30
0.0
  0
VERTEX
  5
5A
  8
0
 10
-0.3034291402697136
 20
6.7189364843125068
 30
0.0
  0
VERTEX
  5
5B
  8
0
 10
-0.2936818246888748
 20
6.7249446657197041
 30
0.0
  0
VERTEX
  5
5C
  8
0
 10
-0.2836788418141154
 20
6.7306332630095076
 30
0.0
  0
VERTEX
  5
5D
  8
0
 10
-0.2731964827632467
 20
6.7362579434758336
 30
0.0
  0
VERTEX
  5
5E
  8
0
 10
-0.2624584564184502
 20
6.7415630398247401
 30
0.0
  0
VERTEX
  5
5F
  8
0
 10
-0.2513369291327763
 20
6.7467403025267032
 30
0.0
  0
VERTEX
  5
60
  8
0
 10
-0.2400236513766529
 20
6.7516618979347243
 30
0.0
  0
VERTEX
  5
61
  8
0
 10
-0.2282949142679129
 20
6.7563917428723101
 30
0.0
  0
VERTEX
  5
62
  8
0
 10
-0.2163744266887235
 20
6.760802003692489
 30
0.0
  0
VERTEX
  5
63
  8
0
 10
-0.2041343549921279
 20
6.7650205140422344
 30
0.0
  0
VERTEX
  5
64
  8
0
 10
-0.1917025328250901
 20
6.7689833570980511
 30
0.0
  0
VERTEX
  5
65
  8
0
 10
-0.1789511265406531
 20
6.7727544496834318
 30
0.0
  0
VERTEX
  5
66
  8
0
 10
-0.1660399281975131
 20
6.7761420413279154
 30
0.0
  0
VERTEX
  5
67
  8
0
 10
-0.1529689377956629
 20
6.779337882501963
 30
0.0
  0
VERTEX
  5
68
  8
0
 10
-0.1396103216881599
 20
6.7822780563820819
 30
0.0
  0
VERTEX
  5
69
  8
0
 10
-0.1261877887571714
 20
6.7849625629682739
 30
0.0
  0
VERTEX
  5
6A
  8
0
 10
-0.1125095885322551
 20
6.787327485437074
 30
0.0
  0
VERTEX
  5
6B
  8
0
 10
-0.0987674714838605
 20
6.7894367406119471
 30
0.0
  0
VERTEX
  5
6C
  8
0
 10
-0.0848975207885019
 20
6.7913542453163691
 30
0.0
  0
VERTEX
  5
6D
  8
0
 10
-0.0709636532696649
 20
6.792824332256429
 30
0.0
  0
VERTEX
  5
6E
  8
0
 10
-0.0568060768686465
 20
6.794166585549533
 30
0.0
  0
VERTEX
  5
6F
  8
0
 10
-0.0426804588793672
 20
6.7951253379017373
 30
0.0
  0
VERTEX
  5
70
  8
0
 10
-0.0284589656548704
 20
6.7958284229600281
 30
0.0
  0
VERTEX
  5
71
  8
0
 10
-0.0142694308421056
 20
6.7962119239009118
 30
0.0
  0
VERTEX
  5
72
  8
0
 10
-0.0000159792058625
 20
6.7963397575478828
 30
0.0
  0
VERTEX
  5
73
  8
0
 10
0.0142694308421128
 20
6.7962119239009118
 30
0.0
  0
VERTEX
  5
74
  8
0
 10
0.0284589656548775
 20
6.7958284229600281
 30
0.0
  0
VERTEX
  5
75
  8
0
 10
0.0426804588793743
 20
6.7951253379017373
 30
0.0
  0
VERTEX
  5
76
  8
0
 10
0.0568060768686536
 20
6.794166585549533
 30
0.0
  0
VERTEX
  5
77
  8
0
 10
0.0708677780344544
 20
6.792824332256429
 30
0.0
  0
VERTEX
  5
78
  8
0
 10
0.0848975207885161
 20
6.7913542453163691
 30
0.0
  0
VERTEX
  5
79
  8
0
 10
0.0987674714838676
 20
6.7894367406119471
 30
0.0
  0
VERTEX
  5
7A
  8
0
 10
0.1125735053557406
 20
6.787327485437074
 30
0.0
  0
VERTEX
  5
7B
  8
0
 10
0.126123871933693
 20
6.7849625629682739
 30
0.0
  0
VERTEX
  5
7C
  8
0
 10
0.139610321688167
 20
6.7822780563820819
 30
0.0
  0
VERTEX
  5
7D
  8
0
 10
0.1529689377956771
 20
6.779337882501963
 30
0.0
  0
VERTEX
  5
7E
  8
0
 10
0.1660399281975202
 20
6.7761420413279154
 30
0.0
  0
VERTEX
  5
7F
  8
0
 10
0.1789511265406602
 20
6.7727544496834318
 30
0.0
  0
VERTEX
  5
80
  8
0
 10
0.1917025328251043
 20
6.7689833570980511
 30
0.0
  0
VERTEX
  5
81
  8
0
 10
0.2041343549921351
 20
6.7650205140422344
 30
0.0
  0
VERTEX
  5
82
  8
0
 10
0.2163744266887306
 20
6.760802003692489
 30
0.0
  0
VERTEX
  5
83
  8
0
 10
0.22829491426792
 20
6.7563917428723101
 30
0.0
  0
VERTEX
  5
84
  8
0
 10
0.2399277761414424
 20
6.7516618979347243
 30
0.0
  0
VERTEX
  5
85
  8
0
 10
0.2513369291327834
 20
6.7467403025267032
 30
0.0
  0
VERTEX
  5
86
  8
0
 10
0.2624584564184644
 20
6.7415630398247401
 30
0.0
  0
VERTEX
  5
87
  8
0
 10
0.2731964827632538
 20
6.7362579434758336
 30
0.0
  0
VERTEX
  5
88
  8
0
 10
0.2835829665788978
 20
6.7306332630095076
 30
0.0
  0
VERTEX
  5
89
  8
0
 10
0.2936818246888819
 20
6.7249446657197041
 30
0.0
  0
VERTEX
  5
8A
  8
0
 10
0.3034291402697207
 20
6.7189364843125068
 30
0.0
  0
VERTEX
  5
8B
  8
0
 10
0.3127290380861893
 20
6.7128004692583403
 30
0.0
  0
VERTEX
  5
8C
  8
0
 10
0.3216773933735197
 20
6.7063448700867658
 30
0.0
  0
VERTEX
  5
8D
  8
0
 10
0.3303381229551832
 20
6.6998892709151932
 30
0.0
  0
VERTEX
  5
8E
  8
0
 10
0.3384555595372518
 20
6.6932419212731844
 30
0.0
  0
VERTEX
  5
8F
  8
0
 10
0.3462214535901822
 20
6.686338904337247
 30
0.0
  0
VERTEX
  5
90
  8
0
 10
0.3535718882904888
 20
6.6793080537543403
 30
0.0
  0
VERTEX
  5
91
  8
0
 10
0.3604429468146861
 20
6.6721493695244902
 30
0.0
  0
VERTEX
  5
92
  8
0
 10
0.3669305043979989
 20
6.664862851647654
 30
0.0
  0
VERTEX
  5
93
  8
0
 10
0.3729386858052024
 20
6.657448500123877
 30
0.0
  0
VERTEX
  5
94
  8
0
 10
0.3785633662715213
 20
6.6499702317766056
 30
0.0
  0
VERTEX
  5
95
  8
0
 10
0.3836767121499918
 20
6.6423002129588999
 30
0.0
  0
VERTEX
  5
96
  8
0
 10
0.38831068185236
 20
6.6346301941411951
 30
0.0
  0
VERTEX
  5
97
  8
0
 10
0.3924333169668799
 20
6.6267684248530401
 30
0.0
  0
VERTEX
  5
98
  8
0
 10
0.396172451140508
 20
6.6188427387414057
 30
0.0
  0
VERTEX
  5
99
  8
0
 10
0.3993043754910772
 20
6.6108531358062939
 30
0.0
  0
VERTEX
  5
9A
  8
0
 10
0.4020527989007548
 20
6.602863532871182
 30
0.0
  0
VERTEX
  5
9B
  8
0
 10
0.4042898877225838
 20
6.5948100131125917
 30
0.0
  0
VERTEX
  5
9C
  8
0
 10
0.4060476003683107
 20
6.5867564933540024
 30
0.0
  0
VERTEX
  5
9D
  8
0
 10
0.4072939784261891
 20
6.5785751399484411
 30
0.0
  0
VERTEX
  5
9E
  8
0
 10
0.4080290218962191
 20
6.5704577033663716
 30
0.0
  0
VERTEX
  5
9F
  8
0
 10
0.4082846891901398
 20
6.5622763499608112
 30
0.0
  0
SEQEND
  5
A0
  8
0
  0
POLYLINE
  5
A1
  8
0
 66
     1
 10
0.0
 20
0.0
 30
0.0
  0
VERTEX
  5
A2
  8
0
 10
-0.4082846891901326
 20
6.5622763499608112
 30
0.0
  0
VERTEX
  5
A3
  8
0
 10
-0.408029021896212
 20
6.5540949965552642
 30
0.0
  0
VERTEX
  5
A4
  8
0
 10
-0.4072939784261749
 20
6.545913643149702
 30
0.0
  0
VERTEX
  5
A5
  8
0
 10
-0.4060476003683036
 20
6.5377962065676343
 30
0.0
  0
VERTEX
  5
A6
  8
0
 10
-0.4042898877225767
 20
6.5296787699855514
 30
0.0
  0
VERTEX
  5
A7
  8
0
 10
-0.4020527989007477
 20
6.5215613334034819
 30
0.0
  0
VERTEX
  5
A8
  8
0
 10
-0.3993682923145485
 20
6.51357173046837
 30
0.0
  0
VERTEX
  5
A9
  8
0
 10
-0.3961724511405009
 20
6.505582127533259
 30
0.0
  0
VERTEX
  5
AA
  8
0
 10
-0.3924333169668657
 20
6.4976564414216247
 30
0.0
  0
VERTEX
  5
AB
  8
0
 10
-0.3883106818523529
 20
6.489858588956948
 30
0.0
  0
VERTEX
  5
AC
  8
0
 10
-0.3836767121499847
 20
6.4821246533157639
 30
0.0
  0
VERTEX
  5
AD
  8
0
 10
-0.3785633662715142
 20
6.4744546344980591
 30
0.0
  0
VERTEX
  5
AE
  8
0
 10
-0.3729386858051953
 20
6.467040282974267
 30
0.0
  0
VERTEX
  5
AF
  8
0
 10
-0.3669944212214702
 20
6.4595620146269956
 30
0.0
  0
VERTEX
  5
B0
  8
0
 10
-0.360442946814679
 20
6.4522754967501754
 30
0.0
  0
VERTEX
  5
B1
  8
0
 10
-0.3535718882904817
 20
6.4451807293438028
 30
0.0
  0
VERTEX
  5
B2
  8
0
 10
-0.3462214535901751
 20
6.4381498787608962
 30
0.0
  0
VERTEX
  5
B3
  8
0
 10
-0.3384555595372447
 20
6.431310778648438
 30
0.0
  0
VERTEX
  5
B4
  8
0
 10
-0.330338122955169
 20
6.42459951218295
 30
0.0
  0
VERTEX
  5
B5
  8
0
 10
-0.321741310196991
 20
6.418079996187898
 30
0.0
  0
VERTEX
  5
B6
  8
0
 10
-0.3127290380861822
 20
6.4116243970163254
 30
0.0
  0
VERTEX
  5
B7
  8
0
 10
-0.3034291402697136
 20
6.4055522987856364
 30
0.0
  0
VERTEX
  5
B8
  8
0
 10
-0.2936818246888748
 20
6.3995441173784391
 30
0.0
  0
VERTEX
  5
B9
  8
0
 10
-0.2836788418141154
 20
6.3937916032651572
 30
0.0
  0
VERTEX
  5
BA
  8
0
 10
-0.2731964827632467
 20
6.3882308396223086
 30
0.0
  0
VERTEX
  5
BB
  8
0
 10
-0.2624584564184502
 20
6.3828618264499113
 30
0.0
  0
VERTEX
  5
BC
  8
0
 10
-0.2513369291327763
 20
6.3776845637479624
 30
0.0
  0
VERTEX
  5
BD
  8
0
 10
-0.2400236513766529
 20
6.3727629683399414
 30
0.0
  0
VERTEX
  5
BE
  8
0
 10
-0.2282949142679129
 20
6.3680331234023546
 30
0.0
  0
VERTEX
  5
BF
  8
0
 10
-0.2163744266887235
 20
6.3636867794056542
 30
0.0
  0
VERTEX
  5
C0
  8
0
 10
-0.2041343549921279
 20
6.3594043522324313
 30
0.0
  0
VERTEX
  5
C1
  8
0
 10
-0.1917025328250901
 20
6.3555054260000921
 30
0.0
  0
VERTEX
  5
C2
  8
0
 10
-0.1789511265406531
 20
6.3517343334147114
 30
0.0
  0
VERTEX
  5
C3
  8
0
 10
-0.1660399281975131
 20
6.3482828249467502
 30
0.0
  0
VERTEX
  5
C4
  8
0
 10
-0.1529689377956629
 20
6.3450869837727017
 30
0.0
  0
VERTEX
  5
C5
  8
0
 10
-0.1396103216881599
 20
6.3422107267160612
 30
0.0
  0
VERTEX
  5
C6
  8
0
 10
-0.1261877887571714
 20
6.3395262201298692
 30
0.0
  0
VERTEX
  5
C7
  8
0
 10
-0.1125095885322551
 20
6.3370973808375899
 30
0.0
  0
VERTEX
  5
C8
  8
0
 10
-0.0987674714838605
 20
6.3349881256627176
 30
0.0
  0
VERTEX
  5
C9
  8
0
 10
-0.0848975207885019
 20
6.3331984546052524
 30
0.0
  0
VERTEX
  5
CA
  8
0
 10
-0.0709636532696649
 20
6.3316005340182349
 30
0.0
  0
VERTEX
  5
CB
  8
0
 10
-0.0568060768686465
 20
6.330322197548611
 30
0.0
  0
VERTEX
  5
CC
  8
0
 10
-0.0426804588793672
 20
6.3293634451964058
 30
0.0
  0
VERTEX
  5
CD
  8
0
 10
-0.0284589656548704
 20
6.3286603601381151
 30
0.0
  0
VERTEX
  5
CE
  8
0
 10
-0.0142694308421056
 20
6.3282129423737521
 30
0.0
  0
VERTEX
  5
CF
  8
0
 10
-0.0000159792058625
 20
6.3280851087267811
 30
0.0
  0
VERTEX
  5
D0
  8
0
 10
0.0142694308421128
 20
6.3282129423737521
 30
0.0
  0
VERTEX
  5
D1
  8
0
 10
0.0284589656548775
 20
6.3286603601381151
 30
0.0
  0
VERTEX
  5
D2
  8
0
 10
0.0426804588793743
 20
6.3293634451964058
 30
0.0
  0
VERTEX
  5
D3
  8
0
 10
0.0568060768686536
 20
6.330322197548611
 30
0.0
  0
VERTEX
  5
D4
  8
0
 10
0.0708677780344544
 20
6.3316005340182349
 30
0.0
  0
VERTEX
  5
D5
  8
0
 10
0.0848975207885161
 20
6.3331984546052524
 30
0.0
  0
VERTEX
  5
D6
  8
0
 10
0.0987674714838676
 20
6.3349881256627176
 30
0.0
  0
VERTEX
  5
D7
  8
0
 10
0.1125735053557406
 20
6.3370973808375899
 30
0.0
  0
VERTEX
  5
D8
  8
0
 10
0.126123871933693
 20
6.3395262201298692
 30
0.0
  0
VERTEX
  5
D9
  8
0
 10
0.139610321688167
 20
6.3422107267160612
 30
0.0
  0
VERTEX
  5
DA
  8
0
 10
0.1529689377956771
 20
6.3450869837727017
 30
0.0
  0
VERTEX
  5
DB
  8
0
 10
0.1660399281975202
 20
6.3482828249467502
 30
0.0
  0
VERTEX
  5
DC
  8
0
 10
0.1789511265406602
 20
6.3517343334147114
 30
0.0
  0
VERTEX
  5
DD
  8
0
 10
0.1917025328251043
 20
6.3555054260000921
 30
0.0
  0
VERTEX
  5
DE
  8
0
 10
0.2041343549921351
 20
6.3594043522324313
 30
0.0
  0
VERTEX
  5
DF
  8
0
 10
0.2163744266887306
 20
6.3636867794056542
 30
0.0
  0
VERTEX
  5
E0
  8
0
 10
0.22829491426792
 20
6.3680331234023546
 30
0.0
  0
VERTEX
  5
E1
  8
0
 10
0.2399277761414424
 20
6.3727629683399414
 30
0.0
  0
VERTEX
  5
E2
  8
0
 10
0.2513369291327834
 20
6.3776845637479624
 30
0.0
  0
VERTEX
  5
E3
  8
0
 10
0.2624584564184644
 20
6.3828618264499113
 30
0.0
  0
VERTEX
  5
E4
  8
0
 10
0.2731964827632538
 20
6.3882308396223086
 30
0.0
  0
VERTEX
  5
E5
  8
0
 10
0.2835829665788978
 20
6.3937916032651572
 30
0.0
  0
VERTEX
  5
E6
  8
0
 10
0.2936818246888819
 20
6.3995441173784391
 30
0.0
  0
VERTEX
  5
E7
  8
0
 10
0.3034291402697207
 20
6.4055522987856364
 30
0.0
  0
VERTEX
  5
E8
  8
0
 10
0.3127290380861893
 20
6.4116243970163254
 30
0.0
  0
VERTEX
  5
E9
  8
0
 10
0.3216773933735197
 20
6.418079996187898
 30
0.0
  0
VERTEX
  5
EA
  8
0
 10
0.3303381229551832
 20
6.42459951218295
 30
0.0
  0
VERTEX
  5
EB
  8
0
 10
0.3384555595372518
 20
6.431310778648438
 30
0.0
  0
VERTEX
  5
EC
  8
0
 10
0.3462214535901822
 20
6.4381498787608962
 30
0.0
  0
VERTEX
  5
ED
  8
0
 10
0.3535718882904888
 20
6.4451807293438028
 30
0.0
  0
VERTEX
  5
EE
  8
0
 10
0.3604429468146861
 20
6.4522754967501754
 30
0.0
  0
VERTEX
  5
EF
  8
0
 10
0.3669305043979989
 20
6.4595620146269956
 30
0.0
  0
VERTEX
  5
F0
  8
0
 10
0.3729386858052024
 20
6.467040282974267
 30
0.0
  0
VERTEX
  5
F1
  8
0
 10
0.3785633662715213
 20
6.4744546344980591
 30
0.0
  0
VERTEX
  5
F2
  8
0
 10
0.3836767121499918
 20
6.4821246533157639
 30
0.0
  0
VERTEX
  5
F3
  8
0
 10
0.38831068185236
 20
6.489858588956948
 30
0.0
  0
VERTEX
  5
F4
  8
0
 10
0.3924333169668799
 20
6.4976564414216247
 30
0.0
  0
VERTEX
  5
F5
  8
0
 10
0.396172451140508
 20
6.505582127533259
 30
0.0
  0
VERTEX
  5
F6
  8
0
 10
0.3993043754910772
 20
6.51357173046837
 30
0.0
  0
VERTEX
  5
F7
  8
0
 10
0.4020527989007548
 20
6.5215613334034819
 30
0.0
  0
VERTEX
  5
F8
  8
0
 10
0.4042898877225838
 20
6.5296787699855514
 30
0.0
  0
VERTEX
  5
F9
  8
0
 10
0.4060476003683107
 20
6.5377962065676343
 30
0.0
  0
VERTEX
  5
FA
  8
0
 10
0.4072939784261891
 20
6.545913643149702
 30
0.0
  0
VERTEX
  5
FB
  8
0
 10
0.4080290218962191
 20
6.5540949965552642
 30
0.0
  0
VERTEX
  5
FC
  8
0
 10
0.4082846891901398
 20
6.5622763499608112
 30
0.0
  0
SEQEND
  5
FD
  8
0
  0
LINE
  5
FE
  8
0
 10
0.8576519166726299
 20
10.33113184651225
 30
0.0
 11
-0.8577477919078405
 21
10.33113184651225
 31
0.0
  0
LINE
  5
FF
  8
0
 10
0.8829310203593223
 20
9.5215613603031244
 30
0.0
 11
-0.8829310203593153
 21
9.5215613603031244
 31
0.0
  0
LINE
  5
100
  8
0
 10
-0.9151450993936904
 20
9.4525951077672374
 30
0.0
 11
0.9150811825702191
 21
9.4525951077672374
 31
0.0
  0
LINE
  5
101
  8
0
 10
-0.8878526157673434
 20
10.301921858181471
 30
0.0
 11
-0.913898721335812
 21
9.5562681954532565
 31
0.0
  0
POLYLINE
  5
102
  8
0
 66
     1
 10
0.0
 20
0.0
 30
0.0
  0
VERTEX
  5
103
  8
0
 10
-0.913898721335812
 20
9.5551816094540811
 30
0.0
  0
VERTEX
  5
104
  8
0
 10
-0.9139626381592975
 20
9.5539032729844706
 30
0.0
  0
VERTEX
  5
105
  8
0
 10
-0.9139626381592975
 20
9.5518579346330768
 30
0.0
  0
VERTEX
  5
106
  8
0
 10
-0.9138348045123336
 20
9.5495569289877693
 30
0.0
  0
VERTEX
  5
107
  8
0
 10
-0.9135791372184058
 20
9.5470641728720125
 30
0.0
  0
VERTEX
  5
108
  8
0
 10
-0.9129719273953398
 20
9.5441879158153711
 30
0.0
  0
VERTEX
  5
109
  8
0
 10
-0.9119812166313892
 20
9.5409920746413235
 30
0.0
  0
SEQEND
  5
10A
  8
0
  0
POLYLINE
  5
10B
  8
0
 66
     1
 10
0.0
 20
0.0
 30
0.0
  0
VERTEX
  5
10C
  8
0
 10
-0.913898721335812
 20
9.5551816094540811
 30
0.0
  0
VERTEX
  5
10D
  8
0
 10
-0.9139626381592975
 20
9.5540950234549058
 30
0.0
  0
VERTEX
  5
10E
  8
0
 10
-0.913898721335812
 20
9.5530084374557305
 30
0.0
  0
VERTEX
  5
10F
  8
0
 10
-0.9138348045123336
 20
9.5523053523974397
 30
0.0
  0
VERTEX
  5
110
  8
0
 10
-0.9137069708653697
 20
9.5521136019270045
 30
0.0
  0
SEQEND
  5
111
  8
0
  0
LINE
  5
112
  8
0
 10
-0.9125245096309768
 20
9.5521136019270045
 30
0.0
 11
-0.9121729671018314
 21
9.5468085055780847
 31
0.0
  0
POLYLINE
  5
113
  8
0
 66
     1
 10
0.0
 20
0.0
 30
0.0
  0
VERTEX
  5
114
  8
0
 10
-0.9028411108736165
 20
9.5281447931216672
 30
0.0
  0
VERTEX
  5
115
  8
0
 10
-0.8991658935234667
 20
9.5255881201824337
 30
0.0
  0
VERTEX
  5
116
  8
0
 10
-0.8949793415854686
 20
9.5235427818310399
 30
0.0
  0
VERTEX
  5
117
  8
0
 10
-0.8904092887065787
 20
9.5221366117144584
 30
0.0
  0
VERTEX
  5
118
  8
0
 10
-0.8854876932985504
 20
9.5215613603031244
 30
0.0
  0
VERTEX
  5
119
  8
0
 10
-0.8836021470058668
 20
9.5215613603031244
 30
0.0
  0
SEQEND
  5
11A
  8
0
  0
POLYLINE
  5
11B
  8
0
 66
     1
 10
0.0
 20
0.0
 30
0.0
  0
VERTEX
  5
11C
  8
0
 10
-0.9121729671018314
 20
9.5468085055780847
 30
0.0
  0
VERTEX
  5
11D
  8
0
 10
-0.9110224642791706
 20
9.5416951596996142
 30
0.0
  0
VERTEX
  5
11E
  8
0
 10
-0.90884929228082
 20
9.5368374811150716
 30
0.0
  0
VERTEX
  5
11F
  8
0
 10
-0.9059091184007002
 20
9.5324911371183561
 30
0.0
  0
SEQEND
  5
120
  8
0
  0
POLYLINE
  5
121
  8
0
 66
     1
 10
0.0
 20
0.0
 30
0.0
  0
VERTEX
  5
122
  8
0
 10
-0.9119812166313892
 20
9.5409920746413235
 30
0.0
  0
VERTEX
  5
123
  8
0
 10
-0.9104791712795829
 20
9.5376044829968407
 30
0.0
  0
VERTEX
  5
124
  8
0
 10
-0.9084657913399354
 20
9.5341529745288653
 30
0.0
  0
VERTEX
  5
125
  8
0
 10
-0.9059091184007002
 20
9.5310849670017888
 30
0.0
  0
VERTEX
  5
126
  8
0
 10
-0.9028411108736165
 20
9.5281447931216672
 30
0.0
  0
SEQEND
  5
127
  8
0
  0
POLYLINE
  5
128
  8
0
 66
     1
 10
0.0
 20
0.0
 30
0.0
  0
VERTEX
  5
129
  8
0
 10
-0.9059091184007002
 20
9.5324911371183561
 30
0.0
  0
VERTEX
  5
12A
  8
0
 10
-0.9022978178740289
 20
9.5286561277095103
 30
0.0
  0
VERTEX
  5
12B
  8
0
 10
-0.8979834322890667
 20
9.5256520370059121
 30
0.0
  0
VERTEX
  5
12C
  8
0
 10
-0.89328554576322
 20
9.5233510313605905
 30
0.0
  0
VERTEX
  5
12D
  8
0
 10
-0.8881721998847496
 20
9.5219448612440232
 30
0.0
  0
VERTEX
  5
12E
  8
0
 10
-0.8829310203593153
 20
9.5215613603031244
 30
0.0
  0
SEQEND
  5
12F
  8
0
  0
LINE
  5
130
  8
0
 10
-0.7189843681307977
 20
9.5215613603031244
 30
0.0
 11
-0.7189843681307977
 21
9.5129965059566928
 31
0.0
  0
LINE
  5
131
  8
0
 10
0.221615606214165
 20
10.889445299617931
 30
0.0
 11
0.2255464908582425
 21
10.66305191084858
 31
0.0
  0
LINE
  5
132
  8
0
 10
-0.2215516893906724
 20
10.889445299617931
 30
0.0
 11
-0.2255464908582354
 21
10.66305191084858
 31
0.0
  0
LINE
  5
133
  8
0
 10
-0.2014498484059288
 20
10.909259514897011
 30
0.0
 11
0.2013859315824575
 21
10.909259514897011
 31
0.0
  0
LINE
  5
134
  8
0
 10
0.8878526157673576
 20
10.301921858181471
 30
0.0
 11
0.9138987213358191
 21
9.5562681954532565
 31
0.0
  0
POLYLINE
  5
135
  8
0
 66
     1
 10
0.0
 20
0.0
 30
0.0
  0
VERTEX
  5
136
  8
0
 10
0.9136110956301592
 20
9.5521136019270045
 30
0.0
  0
VERTEX
  5
137
  8
0
 10
0.9137708876888623
 20
9.5523053523974397
 30
0.0
  0
VERTEX
  5
138
  8
0
 10
0.9138987213358191
 20
9.5530084374557305
 30
0.0
  0
VERTEX
  5
139
  8
0
 10
0.9138987213358191
 20
9.5553733599245305
 30
0.0
  0
SEQEND
  5
13A
  8
0
  0
POLYLINE
  5
13B
  8
0
 66
     1
 10
0.0
 20
0.0
 30
0.0
  0
VERTEX
  5
13C
  8
0
 10
0.9124605928074984
 20
9.5521136019270045
 30
0.0
  0
VERTEX
  5
13D
  8
0
 10
0.9121729671018385
 20
9.5468085055780847
 30
0.0
  0
VERTEX
  5
13E
  8
0
 10
0.9109585474556993
 20
9.5416951596996142
 30
0.0
  0
VERTEX
  5
13F
  8
0
 10
0.9088492922808342
 20
9.5368374811150716
 30
0.0
  0
VERTEX
  5
140
  8
0
 10
0.9059091184007073
 20
9.5324911371183561
 30
0.0
  0
VERTEX
  5
141
  8
0
 10
0.9022978178740359
 20
9.5286561277095103
 30
0.0
  0
VERTEX
  5
142
  8
0
 10
0.8979834322890739
 20
9.5256520370059121
 30
0.0
  0
VERTEX
  5
143
  8
0
 10
0.8932855457632271
 20
9.5233510313605905
 30
0.0
  0
VERTEX
  5
144
  8
0
 10
0.8881721998847567
 20
9.5219448612440232
 30
0.0
  0
VERTEX
  5
145
  8
0
 10
0.8829310203593223
 20
9.5215613603031244
 30
0.0
  0
SEQEND
  5
146
  8
0
  0
POLYLINE
  5
147
  8
0
 66
     1
 10
0.0
 20
0.0
 30
0.0
  0
VERTEX
  5
148
  8
0
 10
0.8835062717706492
 20
9.5215613603031244
 30
0.0
  0
VERTEX
  5
149
  8
0
 10
0.8870536554738421
 20
9.5216891939500954
 30
0.0
  0
VERTEX
  5
14A
  8
0
 10
0.8922309181757981
 20
9.5226479463023121
 30
0.0
  0
VERTEX
  5
14B
  8
0
 10
0.8969927215251232
 20
9.5244376173597658
 30
0.0
  0
VERTEX
  5
14C
  8
0
 10
0.9011792734631214
 20
9.526994290299001
 30
0.0
  0
VERTEX
  5
14D
  8
0
 10
0.9049184076367566
 20
9.5299983810026134
 30
0.0
  0
VERTEX
  5
14E
  8
0
 10
0.9079224983403548
 20
9.5335138062940512
 30
0.0
  0
VERTEX
  5
14F
  8
0
 10
0.9102235039856694
 20
9.5370292315855067
 30
0.0
  0
VERTEX
  5
150
  8
0
 10
0.9118533829844324
 20
9.5406724905239173
 30
0.0
  0
VERTEX
  5
151
  8
0
 10
0.9129080105718685
 20
9.5440600821684001
 30
0.0
  0
VERTEX
  5
152
  8
0
 10
0.9134832619831954
 20
9.5470641728720125
 30
0.0
  0
VERTEX
  5
153
  8
0
 10
0.9137708876888623
 20
9.5493012616938415
 30
0.0
  0
VERTEX
  5
154
  8
0
 10
0.9138987213358191
 20
9.5511548495747842
 30
0.0
  0
VERTEX
  5
155
  8
0
 10
0.9139626381593046
 20
9.5544785243957904
 30
0.0
  0
SEQEND
  5
156
  8
0
  0
LINE
  5
157
  8
0
 10
0.7189843681308119
 20
9.5215613603031244
 30
0.0
 11
0.7189843681308119
 21
9.5129965059566928
 31
0.0
  0
POLYLINE
  5
158
  8
0
 66
     1
 10
0.0
 20
0.0
 30
0.0
  0
VERTEX
  5
159
  8
0
 10
0.1707697731351061
 20
11.91019697060794
 30
0.0
  0
VERTEX
  5
15A
  8
0
 10
0.1798459620693933
 20
11.913073227664579
 30
0.0
  0
VERTEX
  5
15B
  8
0
 10
0.1925014931186126
 20
11.91793090624914
 30
0.0
  0
VERTEX
  5
15C
  8
0
 10
0.203239519463402
 20
11.92336383624502
 30
0.0
  0
VERTEX
  5
15D
  8
0
 10
0.2117404569863623
 20
11.929308100828729
 30
0.0
  0
VERTEX
  5
15E
  8
0
 10
0.2175568879231235
 20
11.93525236541246
 30
0.0
  0
VERTEX
  5
15F
  8
0
 10
0.2206888122736927
 20
11.941452297290111
 30
0.0
  0
VERTEX
  5
160
  8
0
 10
0.2211042716263165
 20
11.94375330293542
 30
0.0
  0
SEQEND
  5
161
  8
0
  0
LINE
  5
162
  8
0
 10
0.2211042716263165
 20
11.94375330293542
 30
0.0
 11
0.2208166459206495
 21
11.949441900225221
 31
0.0
  0
LINE
  5
163
  8
0
 10
0.0086447503757938
 20
12.00818146100417
 30
0.0
 11
-0.0000159792058625
 21
12.00818146100417
 31
0.0
  0
LINE
  5
164
  8
0
 10
-0.0000159792058625
 20
12.00818146100417
 30
0.0
 11
-0.007206621847466
 21
12.00818146100417
 31
0.0
  0
POLYLINE
  5
165
  8
0
 66
     1
 10
0.0
 20
0.0
 30
0.0
  0
VERTEX
  5
166
  8
0
 10
-0.2211681884497878
 20
11.94375330293542
 30
0.0
  0
VERTEX
  5
167
  8
0
 10
-0.2206888122736856
 20
11.94132446364314
 30
0.0
  0
VERTEX
  5
168
  8
0
 10
-0.2171094701587535
 20
11.934677114001129
 30
0.0
  0
VERTEX
  5
169
  8
0
 10
-0.2103023284580345
 20
11.928093681182601
 30
0.0
  0
SEQEND
  5
16A
  8
0
  0
POLYLINE
  5
16B
  8
0
 66
     1
 10
0.0
 20
0.0
 30
0.0
  0
VERTEX
  5
16C
  8
0
 10
-0.2103023284580345
 20
11.928093681182601
 30
0.0
  0
VERTEX
  5
16D
  8
0
 10
-0.2006828465241597
 20
11.92195766612843
 30
0.0
  0
VERTEX
  5
16E
  8
0
 10
-0.1885066916510496
 20
11.916269068838631
 30
0.0
  0
VERTEX
  5
16F
  8
0
 10
-0.1742851984265457
 20
11.91115572296016
 30
0.0
  0
SEQEND
  5
170
  8
0
  0
POLYLINE
  5
171
  8
0
 66
     1
 10
0.0
 20
0.0
 30
0.0
  0
VERTEX
  5
172
  8
0
 10
-0.1742851984265457
 20
11.91115572296016
 30
0.0
  0
VERTEX
  5
173
  8
0
 10
-0.158465784615025
 20
11.906553711669529
 30
0.0
  0
VERTEX
  5
174
  8
0
 10
-0.1416237016278075
 20
11.90271870226068
 30
0.0
  0
VERTEX
  5
175
  8
0
 10
-0.1241104919940383
 20
11.899458944263159
 30
0.0
  0
VERTEX
  5
176
  8
0
 10
-0.1060220309489424
 20
11.896710520853469
 30
0.0
  0
VERTEX
  5
177
  8
0
 10
-0.0878376946686288
 20
11.894409515208171
 30
0.0
  0
VERTEX
  5
178
  8
0
 10
-0.0697172752117936
 20
11.89268376097418
 30
0.0
  0
VERTEX
  5
179
  8
0
 10
-0.0516288141666976
 20
11.89140542450455
 30
0.0
  0
VERTEX
  5
17A
  8
0
 10
-0.033891895650747
 20
11.890510588975831
 30
0.0
  0
VERTEX
  5
17B
  8
0
 10
-0.0166343533108986
 20
11.88999925438797
 30
0.0
  0
VERTEX
  5
17C
  8
0
 10
-0.0000159792058625
 20
11.889871420741009
 30
0.0
  0
SEQEND
  5
17D
  8
0
  0
POLYLINE
  5
17E
  8
0
 66
     1
 10
0.0
 20
0.0
 30
0.0
  0
VERTEX
  5
17F
  8
0
 10
-0.007206621847466
 20
12.00818146100417
 30
0.0
  0
VERTEX
  5
180
  8
0
 10
-0.0335083947098554
 20
12.00747837594588
 30
0.0
  0
VERTEX
  5
181
  8
0
 10
-0.0596823339252879
 20
12.0060722058293
 30
0.0
  0
VERTEX
  5
182
  8
0
 10
-0.0852810217293936
 20
12.003771200183991
 30
0.0
  0
VERTEX
  5
183
  8
0
 10
-0.1098889987695344
 20
12.00063927583342
 30
0.0
  0
VERTEX
  5
184
  8
0
 10
-0.1327392631639626
 20
11.996612515954119
 30
0.0
  0
VERTEX
  5
185
  8
0
 10
-0.1534802723835114
 20
11.99201050466351
 30
0.0
  0
VERTEX
  5
186
  8
0
 10
-0.1718244007225351
 20
11.986641491491101
 30
0.0
  0
VERTEX
  5
187
  8
0
 10
-0.1875159808870919
 20
11.980633310083901
 30
0.0
  0
VERTEX
  5
188
  8
0
 10
-0.2005550128771958
 20
11.97398596044189
 30
0.0
  0
VERTEX
  5
189
  8
0
 10
-0.2105579957519623
 20
11.9665716089181
 30
0.0
  0
VERTEX
  5
18A
  8
0
 10
-0.2174290542761597
 20
11.958390255512541
 30
0.0
  0
VERTEX
  5
18B
  8
0
 10
-0.2208166459206424
 20
11.94937798340173
 30
0.0
  0
VERTEX
  5
18C
  8
0
 10
-0.2211681884497878
 20
11.94375330293542
 30
0.0
  0
SEQEND
  5
18D
  8
0
  0
POLYLINE
  5
18E
  8
0
 66
     1
 10
0.0
 20
0.0
 30
0.0
  0
VERTEX
  5
18F
  8
0
 10
0.2208166459206495
 20
11.949441900225221
 30
0.0
  0
VERTEX
  5
190
  8
0
 10
0.2173651374526813
 20
11.95845417233603
 30
0.0
  0
VERTEX
  5
191
  8
0
 10
0.2104940789284839
 20
11.96663552574158
 30
0.0
  0
VERTEX
  5
192
  8
0
 10
0.2003952208185069
 20
11.974049877265371
 30
0.0
  0
VERTEX
  5
193
  8
0
 10
0.187515980887099
 20
11.980633310083901
 30
0.0
  0
VERTEX
  5
194
  8
0
 10
0.1719522343695061
 20
11.986641491491101
 30
0.0
  0
VERTEX
  5
195
  8
0
 10
0.1537359396774462
 20
11.991946587840021
 30
0.0
  0
VERTEX
  5
196
  8
0
 10
0.1331227641048542
 20
11.996548599130641
 30
0.0
  0
VERTEX
  5
197
  8
0
 10
0.1104962085926147
 20
12.000511442186459
 30
0.0
  0
VERTEX
  5
198
  8
0
 10
0.0861438988463945
 20
12.00364336653703
 30
0.0
  0
VERTEX
  5
199
  8
0
 10
0.0607369615127311
 20
12.00600828900582
 30
0.0
  0
VERTEX
  5
19A
  8
0
 10
0.034754772767748
 20
12.00747837594588
 30
0.0
  0
VERTEX
  5
19B
  8
0
 10
0.0086447503757938
 20
12.00818146100417
 30
0.0
  0
SEQEND
  5
19C
  8
0
  0
POLYLINE
  5
19D
  8
0
 66
     1
 10
0.0
 20
0.0
 30
0.0
  0
VERTEX
  5
19E
  8
0
 10
-0.0000159792058625
 20
11.889871420741009
 30
0.0
  0
VERTEX
  5
19F
  8
0
 10
0.015771476193919
 20
11.88999925438797
 30
0.0
  0
VERTEX
  5
1A0
  8
0
 10
0.0320063493580634
 20
11.890446672152351
 30
0.0
  0
VERTEX
  5
1A1
  8
0
 10
0.0487525571100633
 20
11.8912775908576
 30
0.0
  0
VERTEX
  5
1A2
  8
0
 10
0.0657224737442448
 20
11.89236417685677
 30
0.0
  0
VERTEX
  5
1A3
  8
0
 10
0.0828521824371222
 20
11.89389818062031
 30
0.0
  0
VERTEX
  5
1A4
  8
0
 10
0.100013849541746
 20
11.895815685324751
 30
0.0
  0
VERTEX
  5
1A5
  8
0
 10
0.1171435582346305
 20
11.898244524617009
 30
0.0
  0
VERTEX
  5
1A6
  8
0
 10
0.1339217243983697
 20
11.901120781673651
 30
0.0
  0
VERTEX
  5
1A7
  8
0
 10
0.1501565975625141
 20
11.90463620696511
 30
0.0
  0
VERTEX
  5
1A8
  8
0
 10
0.1655925104331501
 20
11.908535133197439
 30
0.0
  0
VERTEX
  5
1A9
  8
0
 10
0.1707697731351061
 20
11.91019697060794
 30
0.0
  0
SEQEND
  5
1AA
  8
0
  0
ENDSEC
  0
EOF
