  0
SECTION
  2
HEADER
  9
$ACADVER
  1
AC1009
  9
$INSBASE
 10
159.1780020536614018
 20
-20.5829918021529998
 30
0.0
  9
$EXTMIN
 10
153.9937951110314884
 20
-23.7719256314153604
 30
0.0
  9
$EXTMAX
 10
162.0067079222457096
 20
-16.8507316043832809
 30
0.0
  9
$LIMMIN
 10
0.0
 20
0.0
  9
$LIMMAX
 10
11.6929133858000007
 20
8.2677165353999982
  9
$ORTHOMODE
 70
     0
  9
$REGENMODE
 70
     1
  9
$FILLMODE
 70
     1
  9
$QTEXTMODE
 70
     0
  9
$MIRRTEXT
 70
     0
  9
$DRAGMODE
 70
     2
  9
$LTSCALE
 40
0.6431102362
  9
$OSMODE
 70
  4095
  9
$ATTMODE
 70
     1
  9
$TEXTSIZE
 40
0.2
  9
$TRACEWID
 40
0.05
  9
$TEXTSTYLE
  7
STANDARD
  9
$CLAYER
  8
0
  9
$CELTYPE
  6
BYLAYER
  9
$CECOLOR
 62
   256
  9
$DIMSCALE
 40
1.0
  9
$DIMASZ
 40
0.1875
  9
$DIMEXO
 40
0.0625
  9
$DIMDLI
 40
0.4443307087
  9
$DIMRND
 40
0.0
  9
$DIMDLE
 40
0.0
  9
$DIMEXE
 40
0.125
  9
$DIMTP
 40
0.01
  9
$DIMTM
 40
0.01
  9
$DIMTXT
 40
1.0
  9
$DIMCEN
 40
0.1052362205
  9
$DIMTSZ
 40
0.0
  9
$DIMTOL
 70
     1
  9
$DIMLIM
 70
     0
  9
$DIMTIH
 70
     1
  9
$DIMTOH
 70
     1
  9
$DIMSE1
 70
     0
  9
$DIMSE2
 70
     0
  9
$DIMTAD
 70
     0
  9
$DIMZIN
 70
     0
  9
$DIMBLK
  1

  9
$DIMASO
 70
     1
  9
$DIMSHO
 70
     1
  9
$DIMPOST
  1
\X
  9
$DIMAPOST
  1

  9
$DIMALT
 70
     1
  9
$DIMALTD
 70
     2
  9
$DIMALTF
 40
25.3999999999999986
  9
$DIMLFAC
 40
1.0
  9
$DIMTOFL
 70
     0
  9
$DIMTVP
 40
0.0
  9
$DIMTIX
 70
     0
  9
$DIMSOXD
 70
     0
  9
$DIMSAH
 70
     0
  9
$DIMBLK1
  1

  9
$DIMBLK2
  1

  9
$DIMSTYLE
  2
STANDARD
  9
$DIMCLRD
 70
     0
  9
$DIMCLRE
 70
     0
  9
$DIMCLRT
 70
     0
  9
$DIMTFAC
 40
1.0
  9
$DIMGAP
 40
0.09
  9
$LUNITS
 70
     2
  9
$LUPREC
 70
     4
  9
$SKETCHINC
 40
0.1
  9
$FILLETRAD
 40
0.0
  9
$AUNITS
 70
     0
  9
$AUPREC
 70
     0
  9
$MENU
  1
.
  9
$ELEVATION
 40
0.0
  9
$PELEVATION
 40
0.0
  9
$THICKNESS
 40
0.0
  9
$LIMCHECK
 70
     0
  9
$BLIPMODE
 70
     0
  9
$CHAMFERA
 40
0.0
  9
$CHAMFERB
 40
0.0
  9
$SKPOLY
 70
     0
  9
$TDCREATE
 40
2458172.4620254631154239
  9
$TDUPDATE
 40
2459405.1573379631154239
  9
$TDINDWG
 40
0.1253531597
  9
$TDUSRTIMER
 40
0.1253531597
  9
$USRTIMER
 70
     1
  9
$ANGBASE
 50
0.0
  9
$ANGDIR
 70
     0
  9
$PDMODE
 70
     0
  9
$PDSIZE
 40
0.3125
  9
$PLINEWID
 40
0.0
  9
$COORDS
 70
     1
  9
$SPLFRAME
 70
     0
  9
$SPLINETYPE
 70
     6
  9
$SPLINESEGS
 70
     8
  9
$ATTDIA
 70
     1
  9
$ATTREQ
 70
     1
  9
$HANDLING
 70
     1
  9
$HANDSEED
  5
59BC
  9
$SURFTAB1
 70
     6
  9
$SURFTAB2
 70
     6
  9
$SURFTYPE
 70
     6
  9
$SURFU
 70
     6
  9
$SURFV
 70
     6
  9
$UCSNAME
  2

  9
$UCSORG
 10
0.0
 20
0.0
 30
0.0
  9
$UCSXDIR
 10
1.0
 20
0.0
 30
0.0
  9
$UCSYDIR
 10
0.0
 20
1.0
 30
0.0
  9
$PUCSNAME
  2

  9
$PUCSORG
 10
0.0
 20
0.0
 30
0.0
  9
$PUCSXDIR
 10
1.0
 20
0.0
 30
0.0
  9
$PUCSYDIR
 10
0.0
 20
1.0
 30
0.0
  9
$USERI1
 70
     0
  9
$USERI2
 70
     0
  9
$USERI3
 70
     0
  9
$USERI4
 70
     0
  9
$USERI5
 70
     0
  9
$USERR1
 40
0.0
  9
$USERR2
 40
0.0
  9
$USERR3
 40
0.0
  9
$USERR4
 40
0.0
  9
$USERR5
 40
0.0
  9
$WORLDVIEW
 70
     1
  9
$SHADEDGE
 70
     3
  9
$SHADEDIF
 70
    70
  9
$TILEMODE
 70
     1
  9
$MAXACTVP
 70
    64
  9
$PLIMCHECK
 70
     0
  9
$PEXTMIN
 10
1.0000000000000000E+20
 20
1.0000000000000000E+20
 30
1.0000000000000000E+20
  9
$PEXTMAX
 10
-1.0000000000000000E+20
 20
-1.0000000000000000E+20
 30
-1.0000000000000000E+20
  9
$PLIMMIN
 10
0.0
 20
0.0
  9
$PLIMMAX
 10
12.0
 20
9.0
  9
$UNITMODE
 70
     0
  9
$VISRETAIN
 70
     1
  9
$PLINEGEN
 70
     0
  9
$PSLTSCALE
 70
     1
  0
ENDSEC
  0
SECTION
  2
TABLES
  0
TABLE
  2
VPORT
 70
     1
  0
VPORT
  2
*ACTIVE
 70
     0
 10
0.0
 20
0.0
 11
1.0
 21
1.0
 12
37.79442904044366
 22
-5.723099802069596
 13
0.0
 23
0.0
 14
1.0
 24
1.0
 15
0.0
 25
0.0
 16
-0.0000000000000142
 26
0.0
 36
56.7450775942271122
 17
124.5992279052733949
 27
-16.060665607452389
 37
0.0
 40
12.4940910219473498
 41
2.0416666666666661
 42
50.0
 43
0.0
 44
0.0
 50
0.0
 51
0.0
 71
     0
 72
   100
 73
     1
 74
     1
 75
     0
 76
     0
 77
     0
 78
     0
  0
ENDTAB
  0
TABLE
  2
LTYPE
 70
     2
  0
LTYPE
  2
CONTINUOUS
 70
     0
  3
Solid line
 72
    65
 73
     0
 40
0.0
  0
LTYPE
  2
PHANTOM2
 70
     0
  3
___ _ _ ___ _ _ ___ _ _ ___ _ _
 72
    65
 73
     6
 40
1.25
 49
0.625
 49
-0.125
 49
0.125
 49
-0.125
 49
0.125
 49
-0.125
  0
ENDTAB
  0
TABLE
  2
LAYER
 70
     2
  0
LAYER
  2
0
 70
     0
 62
   255
  6
CONTINUOUS
  0
LAYER
  2
DEFPOINTS
 70
     0
 62
     7
  6
CONTINUOUS
  0
ENDTAB
  0
TABLE
  2
STYLE
 70
     1
  0
STYLE
  2
STANDARD
 70
     0
 40
0.0
 41
0.8
 50
0.0
 71
     0
 42
0.2
  3
txt
  4

  0
ENDTAB
  0
TABLE
  2
VIEW
 70
     0
  0
ENDTAB
  0
TABLE
  2
UCS
 70
     0
  0
ENDTAB
  0
TABLE
  2
APPID
 70
     9
  0
APPID
  2
ACAD
 70
     0
  0
APPID
  2
ACAD_MLEADERVER
 70
     0
  0
APPID
  2
ACAD_EXEMPT_FROM_CAD_STANDARDS
 70
     0
  0
APPID
  2
ACAD_DSTYLE_DIMJAG
 70
     0
  0
APPID
  2
ACAD_DSTYLE_DIMTALN
 70
     0
  0
APPID
  2
ACAD_NAV_VCDISPLAY
 70
     0
  0
APPID
  2
ACAECLAYERSTANDARD
 70
     0
  0
APPID
  2
ACCMTRANSPARENCY
 70
     0
  0
APPID
  2
ACDBATTR
 70
     0
  0
ENDTAB
  0
TABLE
  2
DIMSTYLE
 70
     1
  0
DIMSTYLE
  2
STANDARD
 70
     0
  3

  4

  5

  6

  7

 40
1.0
 41
0.1875
 42
0.0625
 43
0.38
 44
0.125
 45
0.0
 46
0.0
 47
0.01
 48
0.01
140
0.15625
141
0.09
142
0.0
143
25.3999999999999986
144
1.0
145
0.0
146
1.0
147
0.09
 71
     1
 72
     0
 73
     1
 74
     1
 75
     0
 76
     0
 77
     0
 78
     4
170
     0
171
     2
172
     0
173
     0
174
     0
175
     0
176
     0
177
     0
178
     0
  0
ENDTAB
  0
ENDSEC
  0
SECTION
  2
BLOCKS
  0
BLOCK
  8
0
  2
$MODEL_SPACE
 70
     0
 10
0.0
 20
0.0
 30
0.0
  3
$MODEL_SPACE
  1

  0
ENDBLK
  5
21
  8
0
  0
BLOCK
 67
     1
  8
0
  2
$PAPER_SPACE
 70
     0
 10
0.0
 20
0.0
 30
0.0
  3
$PAPER_SPACE
  1

  0
ENDBLK
  5
1D
 67
     1
  8
0
  0
BLOCK
  8
0
  2
_FILLED
 70
     0
 10
0.0
 20
0.0
 30
0.0
  3
_FILLED
  1

  0
SOLID
  5
55D9
  8
0
  6
BYBLOCK
 62
     0
 10
0.0
 20
0.0
 30
0.0
 11
-1.0
 21
0.1666666667
 31
0.0
 12
-1.0
 22
-0.1666666667
 32
0.0
 13
-1.0
 23
-0.1666666667
 33
0.0
  0
ENDBLK
  5
55DA
  8
0
  6
BYBLOCK
 62
     0
  0
ENDSEC
  0
SECTION
  2
ENTITIES
  0
ATTDEF
  5
2E19
  8
DEFPOINTS
 10
159.1789419750469108
 20
-20.5793183047153683
 30
0.0
 40
0.001
  1
K-T75728BR-4
  3

  2
MODELNUMBER
 70
     0
1001
ACDBATTR
1070
     0
1070
     1
  0
ATTDEF
  5
2E1A
  8
DEFPOINTS
 10
159.1789419750469108
 20
-20.5809849713820405
 30
0.0
 40
0.001
  1
ALEO
  3

  2
TRADENAME
 70
     0
1001
ACDBATTR
1070
     0
1070
     1
  0
ATTDEF
  5
2E1B
  8
DEFPOINTS
 10
159.1789419750469108
 20
-20.5826516380486986
 30
0.0
 40
0.001
  1
VALVE TRIM
  3

  2
PRODUCT
 70
     0
1001
ACDBATTR
1070
     0
1070
     1
  0
LINE
  5
5910
  8
0
 10
158.1740650762272935
 20
-20.9668500698529989
 30
0.0
 11
158.1740650762272935
 21
-20.5829918021529998
 31
0.0
  0
LINE
  5
5911
  8
0
 10
158.1740650762272935
 20
-20.5829918021529998
 30
0.0
 11
160.1819390919272905
 21
-20.5829918021529998
 31
0.0
  0
LINE
  5
5912
  8
0
 10
160.1819390919272905
 20
-20.5829918021529998
 30
0.0
 11
160.1819390919272905
 21
-20.9668500698529989
 31
0.0
  0
ARC
  5
5913
  8
0
 10
158.1839018695912102
 20
-20.9668557961891402
 30
0.0
 40
0.0098367950306094
 50
179.9666461575770882
 51
270.0333538424176822
  0
LINE
  5
5914
  8
0
 10
158.1839075960153878
 20
-20.9766925895529504
 30
0.0
 11
160.1720965722273036
 21
-20.9766925895530001
 31
0.0
  0
ARC
  5
5915
  8
0
 10
160.1720965722273036
 20
-20.9668500698529989
 30
0.0
 40
0.0098425197000003
 50
270.0
 51
359.9999999999947136
  0
ARC
  5
5916
  8
0
 10
158.4791831869951011
 20
-20.9865351078820908
 30
0.0
 40
0.0098425183291334
 50
359.9999920195845107
 51
90.0000033052250785
  0
LINE
  5
5917
  8
0
 10
158.4890257053241953
 20
-20.9865351092530297
 30
0.0
 11
158.4890257053241953
 21
-22.3644878651529986
 31
0.0
  0
ARC
  5
5918
  8
0
 10
159.8768209817272918
 20
-20.9865351092530013
 30
0.0
 40
0.0098425197000029
 50
90.0000000000048743
 51
179.9999999999845102
  0
LINE
  5
5919
  8
0
 10
159.8669784620273049
 20
-20.9865351092530013
 30
0.0
 11
159.8669784620273049
 21
-22.3644878651529986
 31
0.0
  0
ARC
  5
591A
  8
0
 10
159.8563153299461135
 20
-22.3642093047853194
 30
0.0
 40
0.0106667699731544
 50
288.4061605782424067
 51
358.5035631109992096
  0
LINE
  5
591B
  8
0
 10
159.8596833738774023
 20
-22.3743303848529997
 30
0.0
 11
158.4988682258272945
 21
-22.3743303848529997
 31
0.0
  0
ARC
  5
591C
  8
0
 10
158.4988682263951034
 20
-22.3644878637820597
 30
0.0
 40
0.0098425210709433
 50
180.0000079806096949
 51
269.9999966943286722
  0
LINE
  5
591D
  8
0
 10
159.8670013772272966
 20
-22.6553069958529996
 30
0.0
 11
159.8669788023273099
 21
-22.4055114871529995
 31
0.0
  0
LINE
  5
591E
  8
0
 10
159.8669788023273099
 20
-22.4055114871529995
 30
0.0
 11
158.4890257053241953
 21
-22.4055114871529995
 31
0.0
  0
LINE
  5
591F
  8
0
 10
158.4890257053241953
 20
-22.4055114871529995
 30
0.0
 11
158.4890257053241953
 21
-23.7359275119504787
 31
0.0
  0
LINE
  5
5920
  8
0
 10
161.6833670820919906
 20
-23.7719253825178285
 30
0.0
 11
158.5086097317272902
 21
-23.7556122907529996
 31
0.0
  0
ARC
  5
5921
  8
0
 10
158.5087107813182001
 20
-23.7359274741201602
 30
0.0
 40
0.0196850759939737
 50
180.0001101097089133
 51
269.7058817295377935
  0
ARC
  5
5922
  8
0
 10
161.4935069910600873
 20
-22.6828965643950404
 30
0.0
 40
1.6267395907526161
 50
179.0282146954949951
 51
191.6241161395913934
  0
ARC
  5
5923
  8
0
 10
160.60969625610619
 20
-22.851993233832161
 30
0.0
 40
0.7270906329958738
 50
192.6052912506505947
 51
210.1470602636599097
  0
ARC
  5
5924
  8
0
 10
160.4361574488542885
 20
-22.9545107761302098
 30
0.0
 40
0.5255404718436131
 50
209.9839539270103046
 51
234.8222566355113088
  0
ARC
  5
5925
  8
0
 10
160.4084014286466129
 20
-22.9691353430005307
 30
0.0
 40
0.4978004826340019
 50
236.4639466003935979
 51
260.9579533905958897
  0
ARC
  5
5926
  8
0
 10
160.6934847350325981
 20
-21.2958364353191705
 30
0.0
 40
2.1951877560375972
 50
260.4733562914859135
 51
268.4745818704020053
  0
ARC
  5
5927
  8
0
 10
149.2345473402957907
 20
-369.6149423359183857
 30
0.0
 40
346.3123974908352807
 50
88.0152528520806072
 51
88.1134992315024448
  0
ARC
  5
5928
  8
0
 10
161.4772956340815142
 20
-23.7787920007267495
 30
0.0
 40
0.2275143087606159
 50
28.9325448121468796
 51
60.7988056162354411
  0
ARC
  5
5929
  8
0
 10
161.4372323445296047
 20
-23.7916741498361617
 30
0.0
 40
0.2689316505139423
 50
8.4596999892282341
 51
27.2049887944849189
  0
ARC
  5
592A
  8
0
 10
161.6834665462785097
 20
-23.7520516165605393
 30
0.0
 40
0.019874014854822
 50
269.7132485845128826
 51
280.1013254504370025
  0
ARC
  5
592B
  8
0
 10
161.6805303562823042
 20
-23.7513428758706802
 30
0.0
 40
0.022720525017359
 50
334.2242244856777234
 51
358.06358557513812
  0
ARC
  5
592C
  8
0
 10
161.6832530730538053
 20
-23.7519453233943487
 30
0.0
 40
0.0200170175995262
 50
280.6495360342672143
 51
332.3877994206072799
  0
ARC
  5
592D
  8
0
 10
161.1473892416416049
 20
-25.7245957553435396
 30
0.0
 40
2.215758463738414
 50
83.781812377801927
 51
87.8995630167022739
  0
ARC
  5
592E
  8
0
 10
161.3306873307288924
 20
-24.0924252640642997
 30
0.0
 40
0.5733624388218831
 50
63.3016935352652084
 51
84.3245622365487435
  0
ARC
  5
592F
  8
0
 10
165.8664433954006086
 20
1080.8761762627750613
 30
0.0
 40
1104.5604642212811086
 50
269.7151817678940802
 51
269.7828497841936723
  0
ARC
  5
5930
  8
0
 10
160.3769700143604098
 20
-5.3503459035154881
 30
0.0
 40
18.3202947322112202
 50
268.4984796685827177
 51
269.9959604079891164
  0
ARC
  5
5931
  8
0
 10
159.6973528513674125
 20
-23.2296882632014601
 30
0.0
 40
0.4088544746435735
 50
214.2614222306897034
 51
242.7208770569731939
  0
ARC
  5
5932
  8
0
 10
159.8967331468051043
 20
-22.5793725927951492
 30
0.0
 40
1.0849774189472019
 50
249.1160445075740029
 51
270.0095847517384868
  0
ARC
  5
5933
  8
0
 10
160.0525722236997126
 20
-23.0576966452353602
 30
0.0
 40
0.801350807881651
 50
177.8682907824166932
 51
210.1229994429338035
  0
LINE
  5
5934
  8
0
 10
159.2517759818273078
 20
-23.0278889902530004
 30
0.0
 11
159.2514942083273013
 21
-22.4055114869529994
 31
0.0
  0
LINE
  5
5935
  8
0
 10
158.5894194069273055
 20
-22.3743303848529997
 30
0.0
 11
158.6206005093272893
 21
-22.4055114871529995
 31
0.0
  0
LINE
  5
5936
  8
0
 10
159.7665847612273069
 20
-22.3743303848529997
 30
0.0
 11
159.7354036589273107
 21
-22.4055114871529995
 31
0.0
  0
ENDSEC
  0
EOF
