  0
SECTION
  2
HEADER
  9
$ACADVER
  1
AC1009
  9
$INSBASE
 10
154.9977321492974056
 20
-22.4749812384629202
 30
0.0
  9
$EXTMIN
 10
150.1811487867452115
 20
-26.2695431497481486
 30
0.0
  9
$EXTMAX
 10
157.52296800220401
 20
-19.6914247399886584
 30
0.0
  9
$LIMMIN
 10
0.0
 20
0.0
  9
$LIMMAX
 10
11.6929133858000007
 20
8.2677165353999982
  9
$ORTHOMODE
 70
     0
  9
$REGENMODE
 70
     1
  9
$FILLMODE
 70
     1
  9
$QTEXTMODE
 70
     0
  9
$MIRRTEXT
 70
     0
  9
$DRAGMODE
 70
     2
  9
$LTSCALE
 40
0.6431102362
  9
$OSMODE
 70
  4095
  9
$ATTMODE
 70
     1
  9
$TEXTSIZE
 40
0.2
  9
$TRACEWID
 40
0.05
  9
$TEXTSTYLE
  7
STANDARD
  9
$CLAYER
  8
0
  9
$CELTYPE
  6
BYLAYER
  9
$CECOLOR
 62
   256
  9
$DIMSCALE
 40
1.0
  9
$DIMASZ
 40
0.1875
  9
$DIMEXO
 40
0.0625
  9
$DIMDLI
 40
0.4443307087
  9
$DIMRND
 40
0.0
  9
$DIMDLE
 40
0.0
  9
$DIMEXE
 40
0.125
  9
$DIMTP
 40
0.01
  9
$DIMTM
 40
0.01
  9
$DIMTXT
 40
1.0
  9
$DIMCEN
 40
0.1052362205
  9
$DIMTSZ
 40
0.0
  9
$DIMTOL
 70
     1
  9
$DIMLIM
 70
     0
  9
$DIMTIH
 70
     1
  9
$DIMTOH
 70
     1
  9
$DIMSE1
 70
     0
  9
$DIMSE2
 70
     0
  9
$DIMTAD
 70
     0
  9
$DIMZIN
 70
     0
  9
$DIMBLK
  1

  9
$DIMASO
 70
     1
  9
$DIMSHO
 70
     1
  9
$DIMPOST
  1
\X
  9
$DIMAPOST
  1

  9
$DIMALT
 70
     1
  9
$DIMALTD
 70
     2
  9
$DIMALTF
 40
25.3999999999999986
  9
$DIMLFAC
 40
1.0
  9
$DIMTOFL
 70
     0
  9
$DIMTVP
 40
0.0
  9
$DIMTIX
 70
     0
  9
$DIMSOXD
 70
     0
  9
$DIMSAH
 70
     0
  9
$DIMBLK1
  1

  9
$DIMBLK2
  1

  9
$DIMSTYLE
  2
STANDARD
  9
$DIMCLRD
 70
     0
  9
$DIMCLRE
 70
     0
  9
$DIMCLRT
 70
     0
  9
$DIMTFAC
 40
1.0
  9
$DIMGAP
 40
0.09
  9
$LUNITS
 70
     2
  9
$LUPREC
 70
     4
  9
$SKETCHINC
 40
0.1
  9
$FILLETRAD
 40
0.0
  9
$AUNITS
 70
     0
  9
$AUPREC
 70
     0
  9
$MENU
  1
.
  9
$ELEVATION
 40
0.0
  9
$PELEVATION
 40
0.0
  9
$THICKNESS
 40
0.0
  9
$LIMCHECK
 70
     0
  9
$BLIPMODE
 70
     0
  9
$CHAMFERA
 40
0.0
  9
$CHAMFERB
 40
0.0
  9
$SKPOLY
 70
     0
  9
$TDCREATE
 40
2458172.4620254631154239
  9
$TDUPDATE
 40
2459405.1574189821258187
  9
$TDINDWG
 40
0.125711956
  9
$TDUSRTIMER
 40
0.125711956
  9
$USRTIMER
 70
     1
  9
$ANGBASE
 50
0.0
  9
$ANGDIR
 70
     0
  9
$PDMODE
 70
     0
  9
$PDSIZE
 40
0.3125
  9
$PLINEWID
 40
0.0
  9
$COORDS
 70
     1
  9
$SPLFRAME
 70
     0
  9
$SPLINETYPE
 70
     6
  9
$SPLINESEGS
 70
     8
  9
$ATTDIA
 70
     1
  9
$ATTREQ
 70
     1
  9
$HANDLING
 70
     1
  9
$HANDSEED
  5
5922
  9
$SURFTAB1
 70
     6
  9
$SURFTAB2
 70
     6
  9
$SURFTYPE
 70
     6
  9
$SURFU
 70
     6
  9
$SURFV
 70
     6
  9
$UCSNAME
  2

  9
$UCSORG
 10
0.0
 20
0.0
 30
0.0
  9
$UCSXDIR
 10
1.0
 20
0.0
 30
0.0
  9
$UCSYDIR
 10
0.0
 20
1.0
 30
0.0
  9
$PUCSNAME
  2

  9
$PUCSORG
 10
0.0
 20
0.0
 30
0.0
  9
$PUCSXDIR
 10
1.0
 20
0.0
 30
0.0
  9
$PUCSYDIR
 10
0.0
 20
1.0
 30
0.0
  9
$USERI1
 70
     0
  9
$USERI2
 70
     0
  9
$USERI3
 70
     0
  9
$USERI4
 70
     0
  9
$USERI5
 70
     0
  9
$USERR1
 40
0.0
  9
$USERR2
 40
0.0
  9
$USERR3
 40
0.0
  9
$USERR4
 40
0.0
  9
$USERR5
 40
0.0
  9
$WORLDVIEW
 70
     1
  9
$SHADEDGE
 70
     3
  9
$SHADEDIF
 70
    70
  9
$TILEMODE
 70
     1
  9
$MAXACTVP
 70
    64
  9
$PLIMCHECK
 70
     0
  9
$PEXTMIN
 10
1.0000000000000000E+20
 20
1.0000000000000000E+20
 30
1.0000000000000000E+20
  9
$PEXTMAX
 10
-1.0000000000000000E+20
 20
-1.0000000000000000E+20
 30
-1.0000000000000000E+20
  9
$PLIMMIN
 10
0.0
 20
0.0
  9
$PLIMMAX
 10
12.0
 20
9.0
  9
$UNITMODE
 70
     0
  9
$VISRETAIN
 70
     1
  9
$PLINEGEN
 70
     0
  9
$PSLTSCALE
 70
     1
  0
ENDSEC
  0
SECTION
  2
TABLES
  0
TABLE
  2
VPORT
 70
     1
  0
VPORT
  2
*ACTIVE
 70
     0
 10
0.0
 20
0.0
 11
1.0
 21
1.0
 12
36.197016027186308
 22
-6.2323020636357711
 13
0.0
 23
0.0
 14
1.0
 24
1.0
 15
0.0
 25
0.0
 16
-0.0000000000000142
 26
0.0
 36
56.7450775942271122
 17
124.5992279052733949
 27
-16.060665607452389
 37
0.0
 40
19.3409191984676987
 41
2.0416666666666661
 42
50.0
 43
0.0
 44
0.0
 50
0.0
 51
0.0
 71
     0
 72
   100
 73
     1
 74
     1
 75
     0
 76
     0
 77
     0
 78
     0
  0
ENDTAB
  0
TABLE
  2
LTYPE
 70
     2
  0
LTYPE
  2
CONTINUOUS
 70
     0
  3
Solid line
 72
    65
 73
     0
 40
0.0
  0
LTYPE
  2
PHANTOM2
 70
     0
  3
___ _ _ ___ _ _ ___ _ _ ___ _ _
 72
    65
 73
     6
 40
1.25
 49
0.625
 49
-0.125
 49
0.125
 49
-0.125
 49
0.125
 49
-0.125
  0
ENDTAB
  0
TABLE
  2
LAYER
 70
     2
  0
LAYER
  2
0
 70
     0
 62
   255
  6
CONTINUOUS
  0
LAYER
  2
DEFPOINTS
 70
     0
 62
     7
  6
CONTINUOUS
  0
ENDTAB
  0
TABLE
  2
STYLE
 70
     1
  0
STYLE
  2
STANDARD
 70
     0
 40
0.0
 41
0.8
 50
0.0
 71
     0
 42
0.2
  3
txt
  4

  0
ENDTAB
  0
TABLE
  2
VIEW
 70
     0
  0
ENDTAB
  0
TABLE
  2
UCS
 70
     0
  0
ENDTAB
  0
TABLE
  2
APPID
 70
     9
  0
APPID
  2
ACAD
 70
     0
  0
APPID
  2
ACAD_MLEADERVER
 70
     0
  0
APPID
  2
ACAD_EXEMPT_FROM_CAD_STANDARDS
 70
     0
  0
APPID
  2
ACAD_DSTYLE_DIMJAG
 70
     0
  0
APPID
  2
ACAD_DSTYLE_DIMTALN
 70
     0
  0
APPID
  2
ACAD_NAV_VCDISPLAY
 70
     0
  0
APPID
  2
ACAECLAYERSTANDARD
 70
     0
  0
APPID
  2
ACCMTRANSPARENCY
 70
     0
  0
APPID
  2
ACDBATTR
 70
     0
  0
ENDTAB
  0
TABLE
  2
DIMSTYLE
 70
     1
  0
DIMSTYLE
  2
STANDARD
 70
     0
  3

  4

  5

  6

  7

 40
1.0
 41
0.1875
 42
0.0625
 43
0.38
 44
0.125
 45
0.0
 46
0.0
 47
0.01
 48
0.01
140
0.15625
141
0.09
142
0.0
143
25.3999999999999986
144
1.0
145
0.0
146
1.0
147
0.09
 71
     1
 72
     0
 73
     1
 74
     1
 75
     0
 76
     0
 77
     0
 78
     4
170
     0
171
     2
172
     0
173
     0
174
     0
175
     0
176
     0
177
     0
178
     0
  0
ENDTAB
  0
ENDSEC
  0
SECTION
  2
BLOCKS
  0
BLOCK
  8
0
  2
$MODEL_SPACE
 70
     0
 10
0.0
 20
0.0
 30
0.0
  3
$MODEL_SPACE
  1

  0
ENDBLK
  5
21
  8
0
  0
BLOCK
 67
     1
  8
0
  2
$PAPER_SPACE
 70
     0
 10
0.0
 20
0.0
 30
0.0
  3
$PAPER_SPACE
  1

  0
ENDBLK
  5
1D
 67
     1
  8
0
  0
BLOCK
  8
0
  2
_FILLED
 70
     0
 10
0.0
 20
0.0
 30
0.0
  3
_FILLED
  1

  0
SOLID
  5
55D9
  8
0
  6
BYBLOCK
 62
     0
 10
0.0
 20
0.0
 30
0.0
 11
-1.0
 21
0.1666666667
 31
0.0
 12
-1.0
 22
-0.1666666667
 32
0.0
 13
-1.0
 23
-0.1666666667
 33
0.0
  0
ENDBLK
  5
55DA
  8
0
  6
BYBLOCK
 62
     0
  0
ENDSEC
  0
SECTION
  2
ENTITIES
  0
ATTDEF
  5
2E19
  8
DEFPOINTS
 10
155.0007697030441136
 20
-22.4705360444503093
 30
0.0
 40
0.001
  1
K-T75728BR-4
  3

  2
MODELNUMBER
 70
     0
1001
ACDBATTR
1070
     0
1070
     1
  0
ATTDEF
  5
2E1A
  8
DEFPOINTS
 10
155.0007697030441136
 20
-22.4722027111169709
 30
0.0
 40
0.001
  1
ALEO
  3

  2
TRADENAME
 70
     0
1001
ACDBATTR
1070
     0
1070
     1
  0
ATTDEF
  5
2E1B
  8
DEFPOINTS
 10
155.0007697030441136
 20
-22.4738693777836396
 30
0.0
 40
0.001
  1
VALVE TRIM
  3

  2
PRODUCT
 70
     0
1001
ACDBATTR
1070
     0
1070
     1
  0
ARC
  5
5845
  8
0
 10
154.9977321797630054
 20
-22.4748950741392015
 30
0.0
 40
0.6988188975997791
 50
78.7041103249332252
 51
281.2958916159188902
  0
ARC
  5
5846
  8
0
 10
155.0003395596662017
 20
-22.4748971506768385
 30
0.0
 40
0.6915837587060624
 50
87.1529136055129641
 51
272.7711653820833249
  0
ARC
  5
5847
  8
0
 10
156.4619284435748909
 20
-17.0956600649844894
 30
0.0
 40
5.9833701867120634
 50
272.3651787598233796
 51
275.6201743354579889
  0
ARC
  5
5848
  8
0
 10
159.9334507476050078
 20
-95.0310795600552751
 30
0.0
 40
72.0293618922107441
 50
92.5658650791919371
 51
93.3178340177404948
  0
ARC
  5
5849
  8
0
 10
151.9775876989768904
 20
33.8438526551888899
 30
0.0
 40
57.0913846848438169
 50
273.0685962617470182
 51
273.4358669038389849
  0
ARC
  5
584A
  8
0
 10
-6.8622726810248764
 20
2621.1431604510721627
 30
0.0
 40
2649.2618162434091573
 50
273.511437340343889
 51
273.519359578830688
  0
ARC
  5
584B
  8
0
 10
155.3397939700822974
 20
-22.4948811115704501
 30
0.0
 40
2.1831534243510031
 50
356.2259997717699207
 51
0.4793073072368895
  0
ARC
  5
584C
  8
0
 10
156.831377515834987
 20
-22.5907763268226311
 30
0.0
 40
0.6884970425571572
 50
346.2691192879839264
 51
356.0187496998522079
  0
ARC
  5
584D
  8
0
 10
156.9075699480281116
 20
-21.5259411814637502
 30
0.0
 40
1.530772647142596
 50
275.2598342845934098
 51
280.720503082007383
  0
ARC
  5
584E
  8
0
 10
157.0722085384400089
 20
-22.4088897910769909
 30
0.0
 40
0.6326138437308723
 50
280.9450716468401197
 51
289.2475090661865238
  0
ARC
  5
584F
  8
0
 10
157.0801646000055882
 20
-22.6504083799930385
 30
0.0
 40
0.4326670557393681
 50
326.1055597061699132
 51
346.1201826286833807
  0
ARC
  5
5850
  8
0
 10
157.1817786935012862
 20
-22.7019750174108488
 30
0.0
 40
0.3198642718045157
 50
288.0239683423757242
 51
323.6215953744359126
  0
ARC
  5
5851
  8
0
 10
156.4619284435748909
 20
-27.8541300832932883
 30
0.0
 40
5.9833701867120634
 50
84.3798256645419968
 51
87.6348212401766062
  0
ARC
  5
5852
  8
0
 10
159.9334507476050078
 20
50.0812894117774903
 30
0.0
 40
72.0293618922107441
 50
266.6821659822595052
 51
267.4341349208081056
  0
ARC
  5
5853
  8
0
 10
151.9775291444103971
 20
-78.7946449176747024
 30
0.0
 40
57.0923885070070867
 50
86.5641347105383545
 51
86.9304790188409413
  0
ARC
  5
5854
  8
0
 10
-6.8622726810248764
 20
-2666.0929505993508428
 30
0.0
 40
2649.2618162434091573
 50
86.480640421169241
 51
86.4885626596560684
  0
ARC
  5
5855
  8
0
 10
155.3180895131783075
 20
-22.4559366451543596
 30
0.0
 40
2.2048784890257038
 50
359.4625636926245988
 51
3.7635218917357101
  0
ARC
  5
5856
  8
0
 10
156.831377515834987
 20
-22.3590138214551502
 30
0.0
 40
0.6884970425571572
 50
3.9812503001477948
 51
13.7308807120161003
  0
ARC
  5
5857
  8
0
 10
156.9075699480281116
 20
-23.4238489668140311
 30
0.0
 40
1.530772647142596
 50
79.2794969179925886
 51
84.7401657154066044
  0
ARC
  5
5858
  8
0
 10
157.0722085384400089
 20
-22.5409003572007904
 30
0.0
 40
0.6326138437308723
 50
70.7524909338134762
 51
79.0549283531599229
  0
ARC
  5
5859
  8
0
 10
157.0801646000055882
 20
-22.2993817682847499
 30
0.0
 40
0.4326670557393681
 50
13.8798173713166602
 51
33.8944402938299731
  0
ARC
  5
585A
  8
0
 10
157.1817786935012862
 20
-22.247815130866929
 30
0.0
 40
0.3198642718045157
 50
36.3784046255640305
 51
71.9760316576243042
  0
ARC
  5
585B
  8
0
 10
154.9977019040850905
 20
-22.4749812384629202
 30
0.0
 40
1.0039067930536409
 50
40.1747008425762431
 51
319.8388321301575274
  0
ENDSEC
  0
EOF
