  0
SECTION
  2
HEADER
  9
$ACADVER
  1
AC1009
  9
$INSBASE
 10
3138.5334071331230916
 20
132.1138775055117094
 30
0.0
  9
$EXTMIN
 10
3135.2170484261041565
 20
128.8603137418471931
 30
0.0
  9
$EXTMAX
 10
3138.5443688376140017
 20
134.0497845871261973
 30
0.0
  9
$LIMMIN
 10
0.0
 20
0.0
  9
$LIMMAX
 10
11.6929133858000007
 20
8.2677165353999982
  9
$ORTHOMODE
 70
     0
  9
$REGENMODE
 70
     1
  9
$FILLMODE
 70
     1
  9
$QTEXTMODE
 70
     0
  9
$MIRRTEXT
 70
     0
  9
$DRAGMODE
 70
     2
  9
$LTSCALE
 40
0.6431102362
  9
$OSMODE
 70
  2039
  9
$ATTMODE
 70
     1
  9
$TEXTSIZE
 40
0.2
  9
$TRACEWID
 40
0.05
  9
$TEXTSTYLE
  7
STANDARD
  9
$CLAYER
  8
0
  9
$CELTYPE
  6
BYLAYER
  9
$CECOLOR
 62
   256
  9
$DIMSCALE
 40
1.0
  9
$DIMASZ
 40
0.1875
  9
$DIMEXO
 40
0.0625
  9
$DIMDLI
 40
0.4443307087
  9
$DIMRND
 40
0.0
  9
$DIMDLE
 40
0.0
  9
$DIMEXE
 40
0.125
  9
$DIMTP
 40
0.01
  9
$DIMTM
 40
0.01
  9
$DIMTXT
 40
2.0
  9
$DIMCEN
 40
0.1052362205
  9
$DIMTSZ
 40
0.0
  9
$DIMTOL
 70
     1
  9
$DIMLIM
 70
     0
  9
$DIMTIH
 70
     1
  9
$DIMTOH
 70
     1
  9
$DIMSE1
 70
     0
  9
$DIMSE2
 70
     0
  9
$DIMTAD
 70
     0
  9
$DIMZIN
 70
     0
  9
$DIMBLK
  1

  9
$DIMASO
 70
     1
  9
$DIMSHO
 70
     1
  9
$DIMPOST
  1
\X
  9
$DIMAPOST
  1

  9
$DIMALT
 70
     1
  9
$DIMALTD
 70
     2
  9
$DIMALTF
 40
25.3999999999999986
  9
$DIMLFAC
 40
1.0
  9
$DIMTOFL
 70
     0
  9
$DIMTVP
 40
0.0
  9
$DIMTIX
 70
     0
  9
$DIMSOXD
 70
     0
  9
$DIMSAH
 70
     0
  9
$DIMBLK1
  1

  9
$DIMBLK2
  1

  9
$DIMSTYLE
  2
STANDARD
  9
$DIMCLRD
 70
     0
  9
$DIMCLRE
 70
     0
  9
$DIMCLRT
 70
     0
  9
$DIMTFAC
 40
1.0
  9
$DIMGAP
 40
0.09
  9
$LUNITS
 70
     2
  9
$LUPREC
 70
     4
  9
$SKETCHINC
 40
0.1
  9
$FILLETRAD
 40
0.0
  9
$AUNITS
 70
     0
  9
$AUPREC
 70
     0
  9
$MENU
  1
.
  9
$ELEVATION
 40
0.0
  9
$PELEVATION
 40
0.0
  9
$THICKNESS
 40
0.0
  9
$LIMCHECK
 70
     0
  9
$BLIPMODE
 70
     0
  9
$CHAMFERA
 40
0.0
  9
$CHAMFERB
 40
0.0
  9
$SKPOLY
 70
     0
  9
$TDCREATE
 40
2458060.468368056230247
  9
$TDUPDATE
 40
2459326.4582754629664123
  9
$TDINDWG
 40
0.6223103008999999
  9
$TDUSRTIMER
 40
0.6223103008999999
  9
$USRTIMER
 70
     1
  9
$ANGBASE
 50
0.0
  9
$ANGDIR
 70
     0
  9
$PDMODE
 70
     0
  9
$PDSIZE
 40
0.3125
  9
$PLINEWID
 40
0.0
  9
$COORDS
 70
     1
  9
$SPLFRAME
 70
     0
  9
$SPLINETYPE
 70
     6
  9
$SPLINESEGS
 70
     8
  9
$ATTDIA
 70
     1
  9
$ATTREQ
 70
     1
  9
$HANDLING
 70
     1
  9
$HANDSEED
  5
297F0
  9
$SURFTAB1
 70
     6
  9
$SURFTAB2
 70
     6
  9
$SURFTYPE
 70
     6
  9
$SURFU
 70
     6
  9
$SURFV
 70
     6
  9
$UCSNAME
  2

  9
$UCSORG
 10
0.0
 20
0.0
 30
0.0
  9
$UCSXDIR
 10
1.0
 20
0.0
 30
0.0
  9
$UCSYDIR
 10
0.0
 20
1.0
 30
0.0
  9
$PUCSNAME
  2

  9
$PUCSORG
 10
0.0
 20
0.0
 30
0.0
  9
$PUCSXDIR
 10
1.0
 20
0.0
 30
0.0
  9
$PUCSYDIR
 10
0.0
 20
1.0
 30
0.0
  9
$USERI1
 70
     0
  9
$USERI2
 70
     0
  9
$USERI3
 70
     0
  9
$USERI4
 70
     0
  9
$USERI5
 70
     0
  9
$USERR1
 40
0.0
  9
$USERR2
 40
0.0
  9
$USERR3
 40
0.0
  9
$USERR4
 40
0.0
  9
$USERR5
 40
0.0
  9
$WORLDVIEW
 70
     1
  9
$SHADEDGE
 70
     3
  9
$SHADEDIF
 70
    70
  9
$TILEMODE
 70
     1
  9
$MAXACTVP
 70
    64
  9
$PLIMCHECK
 70
     0
  9
$PEXTMIN
 10
1.0000000000000000E+20
 20
1.0000000000000000E+20
 30
1.0000000000000000E+20
  9
$PEXTMAX
 10
-1.0000000000000000E+20
 20
-1.0000000000000000E+20
 30
-1.0000000000000000E+20
  9
$PLIMMIN
 10
0.0
 20
0.0
  9
$PLIMMAX
 10
12.0
 20
9.0
  9
$UNITMODE
 70
     0
  9
$VISRETAIN
 70
     1
  9
$PLINEGEN
 70
     0
  9
$PSLTSCALE
 70
     1
  0
ENDSEC
  0
SECTION
  2
TABLES
  0
TABLE
  2
VPORT
 70
     1
  0
VPORT
  2
*ACTIVE
 70
     0
 10
0.0
 20
0.0
 11
1.0
 21
1.0
 12
-166.8124066025160914
 22
-63.8064624114010286
 13
0.0
 23
0.0
 14
1.0
 24
1.0
 15
0.0
 25
0.0
 16
0.0
 26
0.0
 36
96.5995694866707311
 17
3303.693115234375
 27
195.2615115758877096
 37
0.0
 40
5.2326564556418509
 41
2.6486111111111108
 42
50.0
 43
0.0
 44
0.0
 50
0.0
 51
0.0
 71
     0
 72
   100
 73
     1
 74
     1
 75
     0
 76
     0
 77
     0
 78
     1
  0
ENDTAB
  0
TABLE
  2
LTYPE
 70
     2
  0
LTYPE
  2
CONTINUOUS
 70
     0
  3
Solid line
 72
    65
 73
     0
 40
0.0
  0
LTYPE
  2
PHANTOM2
 70
     0
  3
___ _ _ ___ _ _ ___ _ _ ___ _ _
 72
    65
 73
     6
 40
1.25
 49
0.625
 49
-0.125
 49
0.125
 49
-0.125
 49
0.125
 49
-0.125
  0
ENDTAB
  0
TABLE
  2
LAYER
 70
     2
  0
LAYER
  2
0
 70
     0
 62
   255
  6
CONTINUOUS
  0
LAYER
  2
DEFPOINTS
 70
     0
 62
     7
  6
CONTINUOUS
  0
ENDTAB
  0
TABLE
  2
STYLE
 70
     1
  0
STYLE
  2
STANDARD
 70
     0
 40
0.0
 41
0.8
 50
0.0
 71
     0
 42
0.2
  3
txt
  4

  0
ENDTAB
  0
TABLE
  2
VIEW
 70
     0
  0
ENDTAB
  0
TABLE
  2
UCS
 70
     0
  0
ENDTAB
  0
TABLE
  2
APPID
 70
     9
  0
APPID
  2
ACAD
 70
     0
  0
APPID
  2
ACAD_MLEADERVER
 70
     0
  0
APPID
  2
ACAD_EXEMPT_FROM_CAD_STANDARDS
 70
     0
  0
APPID
  2
ACAD_NAV_VCDISPLAY
 70
     0
  0
APPID
  2
ACAECLAYERSTANDARD
 70
     0
  0
APPID
  2
ACCMTRANSPARENCY
 70
     0
  0
APPID
  2
ACAD_DSTYLE_DIMJAG
 70
     0
  0
APPID
  2
ACAD_DSTYLE_DIMTALN
 70
     0
  0
APPID
  2
ACDBATTR
 70
     0
  0
ENDTAB
  0
TABLE
  2
DIMSTYLE
 70
     1
  0
DIMSTYLE
  2
STANDARD
 70
     0
  3

  4

  5

  6

  7

 40
1.0
 41
0.1875
 42
0.0625
 43
0.38
 44
0.125
 45
0.0
 46
0.0
 47
0.01
 48
0.01
140
0.15625
141
0.09
142
0.0
143
25.3999999999999986
144
1.0
145
0.0
146
1.0
147
0.09
 71
     1
 72
     0
 73
     1
 74
     1
 75
     0
 76
     0
 77
     0
 78
     4
170
     0
171
     2
172
     0
173
     0
174
     0
175
     0
176
     0
177
     0
178
     0
  0
ENDTAB
  0
ENDSEC
  0
SECTION
  2
BLOCKS
  0
BLOCK
  8
0
  2
$MODEL_SPACE
 70
     0
 10
0.0
 20
0.0
 30
0.0
  3
$MODEL_SPACE
  1

  0
ENDBLK
  5
21
  8
0
  0
BLOCK
 67
     1
  8
0
  2
$PAPER_SPACE
 70
     0
 10
0.0
 20
0.0
 30
0.0
  3
$PAPER_SPACE
  1

  0
ENDBLK
  5
1D
 67
     1
  8
0
  0
BLOCK
  8
0
  2
_FILLED
 70
     0
 10
0.0
 20
0.0
 30
0.0
  3
_FILLED
  1

  0
SOLID
  5
2822A
  8
0
  6
BYBLOCK
 62
     0
 10
0.0
 20
0.0
 30
0.0
 11
-1.0
 21
0.1666666667
 31
0.0
 12
-1.0
 22
-0.1666666667
 32
0.0
 13
-1.0
 23
-0.1666666667
 33
0.0
  0
ENDBLK
  5
2822B
  8
0
  6
BYBLOCK
 62
     0
  0
ENDSEC
  0
SECTION
  2
ENTITIES
  0
ATTDEF
  5
2912F
  8
DEFPOINTS
 10
3138.5337021709451619
 20
132.1180529101729917
 30
0.0
 40
0.001
  1
K-T73140BR-4
  3

  2
MODELNUMBER
 70
     0
1001
ACDBATTR
1070
     0
1070
     1
  0
ATTDEF
  5
29130
  8
DEFPOINTS
 10
3138.5337021709451619
 20
132.1163862435062981
 30
0.0
 40
0.001
  1
COMPOSED
  3

  2
TRADENAME
 70
     0
1001
ACDBATTR
1070
     0
1070
     1
  0
ATTDEF
  5
29131
  8
DEFPOINTS
 10
3138.5337021709451619
 20
132.1147195768396898
 30
0.0
 40
0.001
  1
VALVE TRIM
  3

  2
PRODUCT
 70
     0
1001
ACDBATTR
1070
     0
1070
     1
  0
ARC
  5
2953F
  8
0
 10
3136.827407161551946
 20
132.8685461396561038
 30
0.0
 40
0.0300000442459441
 50
90.5000536271114271
 51
180.0588350666141935
  0
LINE
  5
29540
  8
0
 10
3136.827145337023012
 20
132.8985450413472904
 30
0.0
 11
3137.9500484261229758
 21
132.9097750348473141
 31
0.0
  0
LINE
  5
29541
  8
0
 10
3136.7974071331232153
 20
132.8685153336471956
 30
0.0
 11
3136.7974071331232153
 21
131.3510248563472942
 31
0.0
  0
ARC
  5
29542
  8
0
 10
3136.8274071331311461
 20
131.3510248563472942
 30
0.0
 40
0.0300000000084548
 50
179.9999999999984084
 51
269.4999999170457841
  0
LINE
  5
29543
  8
0
 10
3136.827145337023012
 20
131.3210259986472863
 30
0.0
 11
3137.9500484261229758
 21
131.3133267262971913
 31
0.0
  0
ARC
  5
29544
  8
0
 10
3136.7174071331228333
 20
131.4696418533472126
 30
0.0
 40
0.0800000000000019
 50
0.0000000000016284
 51
89.4999999999042188
  0
LINE
  5
29545
  8
0
 10
3136.7181052559631098
 20
131.5496388071923946
 30
0.0
 11
3135.6077866300579444
 21
131.5595259986189092
 31
0.0
  0
ARC
  5
29546
  8
0
 10
3135.6080484261228776
 20
131.5895248563111863
 30
0.0
 40
0.0300000000003845
 50
179.9999999311201009
 51
269.4999999999042188
  0
LINE
  5
29547
  8
0
 10
3135.5780484261231322
 20
131.5895248563473103
 30
0.0
 11
3135.5780484273741422
 21
132.6300029635472981
 31
0.0
  0
ARC
  5
29548
  8
0
 10
3135.6080920578529003
 20
132.6300029635110889
 30
0.0
 40
0.0300436304792307
 50
90.5824870287901263
 51
179.9999999311183956
  0
LINE
  5
29549
  8
0
 10
3135.6077866300579444
 20
132.6600450414391901
 30
0.0
 11
3136.7181040818081783
 21
132.6699322226008917
 31
0.0
  0
ARC
  5
2954A
  8
0
 10
3136.7174063211218709
 20
132.749935206079499
 30
0.0
 40
0.0800060262446189
 50
270.499702974052127
 51
359.3458546103768754
  0
LINE
  5
2954B
  8
0
 10
3135.5365248539301319
 20
132.6592550417778966
 30
0.0
 11
3135.2465248539301683
 21
132.6541907603019865
 31
0.0
  0
ARC
  5
2954C
  8
0
 10
3135.2470484261139063
 20
132.6241953294369864
 30
0.0
 40
0.0300000000100851
 50
90.999999983454245
 51
180.0020160279468087
  0
LINE
  5
2954D
  8
0
 10
3135.2170484261228012
 20
132.6241942738473085
 30
0.0
 11
3135.2170484261228012
 21
128.8953757894554997
 31
0.0
  0
ARC
  5
2954E
  8
0
 10
3135.2470483532961225
 20
128.8953759302195863
 30
0.0
 40
0.0299999271734509
 50
180.0002688401173998
 51
268.9972659589535056
  0
LINE
  5
2954F
  8
0
 10
3135.2465233510552025
 20
128.8653805971981967
 30
0.0
 11
3135.5365257561111321
 21
128.8603137418471931
 31
0.0
  0
ARC
  5
29550
  8
0
 10
3135.5352059160459248
 20
128.8921837953708973
 30
0.0
 40
0.0318973711988436
 50
272.3714449780766813
 51
356.6391061921108872
  0
LINE
  5
29551
  8
0
 10
3135.567048426123165
 20
128.8903138110472923
 30
0.0
 11
3135.567048426123165
 21
132.6292572982472961
 31
0.0
  0
ARC
  5
29552
  8
0
 10
3135.5318518629242135
 20
132.6239719573883917
 30
0.0
 40
0.0355911911709497
 50
8.5400890811330346
 51
82.4554942005008513
  0
LINE
  5
29553
  8
0
 10
3137.9500484261229758
 20
131.3133267262971913
 30
0.0
 11
3137.9500484261229758
 21
132.9097750348473141
 31
0.0
  0
ARC
  5
29554
  8
0
 10
3135.5970963173508608
 20
132.5802709285098899
 30
0.0
 40
0.030066813464741
 50
182.0328387979118929
 51
230.6897878774896924
  0
ARC
  5
29555
  8
0
 10
3135.5973434023630944
 20
131.6391771515492906
 30
0.0
 40
0.0303417441458691
 50
129.4883854633492035
 51
176.8183887110747889
  0
LINE
  5
29556
  8
0
 10
3138.5334071331230916
 20
130.1779704238971931
 30
0.0
 11
3138.5334071331230916
 21
134.0497845871261973
 31
0.0
  0
LINE
  5
29557
  8
0
 10
3138.5334071331230916
 20
134.0497845871261973
 30
0.0
 11
3138.0315605680211775
 21
134.0429283224972039
 31
0.0
  0
ARC
  5
29558
  8
0
 10
3138.0324041603980731
 20
133.9811812984565904
 30
0.0
 40
0.0617527863822725
 50
90.7827304505707957
 51
178.0104556154730062
  0
LINE
  5
29559
  8
0
 10
3137.970688599892128
 20
133.9833251774981875
 30
0.0
 11
3137.9500484261229758
 21
132.9097750348473141
 31
0.0
  0
LINE
  5
2955A
  8
0
 10
3137.9500484261229758
 20
131.3133267262971913
 30
0.0
 11
3137.9706883547228244
 21
130.240057360747187
 31
0.0
  0
ARC
  5
2955B
  8
0
 10
3138.0326426174051448
 20
130.2424384088340901
 30
0.0
 40
0.0620000004399223
 50
182.200928420227001
 51
268.9999998543279958
  0
LINE
  5
2955C
  8
0
 10
3138.0315605680411863
 20
130.1804478512972878
 30
0.0
 11
3138.4884071331221094
 21
130.1724735647972864
 31
0.0
  0
LINE
  5
2955D
  8
0
 10
3138.4884071331221094
 20
130.1724735647972864
 30
0.0
 11
3138.4884071331221094
 21
130.1765713041972958
 31
0.0
  0
LINE
  5
2955E
  8
0
 10
3138.4884071331221094
 20
130.1765713041972958
 30
0.0
 11
3138.5334071331230916
 21
130.1779704238971931
 31
0.0
  0
ENDSEC
  0
EOF
