  0
SECTION
  2
HEADER
  9
$ACADVER
  1
AC1009
  9
$INSBASE
 10
4490.6167440370472832
 20
460.1571168558356248
 30
0.0
  9
$EXTMIN
 10
4487.2512888633473267
 20
456.889400320435584
 30
0.0
  9
$EXTMAX
 10
4490.6274101156859615
 20
463.4248333912356088
 30
0.0
  9
$LIMMIN
 10
0.0
 20
0.0
  9
$LIMMAX
 10
11.6929133858000007
 20
8.2677165353999982
  9
$ORTHOMODE
 70
     0
  9
$REGENMODE
 70
     1
  9
$FILLMODE
 70
     1
  9
$QTEXTMODE
 70
     0
  9
$MIRRTEXT
 70
     0
  9
$DRAGMODE
 70
     2
  9
$LTSCALE
 40
0.6431102362
  9
$OSMODE
 70
    19
  9
$ATTMODE
 70
     1
  9
$TEXTSIZE
 40
0.2
  9
$TRACEWID
 40
0.05
  9
$TEXTSTYLE
  7
STANDARD
  9
$CLAYER
  8
0
  9
$CELTYPE
  6
BYLAYER
  9
$CECOLOR
 62
   256
  9
$DIMSCALE
 40
1.0
  9
$DIMASZ
 40
0.1875
  9
$DIMEXO
 40
0.0625
  9
$DIMDLI
 40
0.4443307087
  9
$DIMRND
 40
0.0
  9
$DIMDLE
 40
0.0
  9
$DIMEXE
 40
0.125
  9
$DIMTP
 40
0.01
  9
$DIMTM
 40
0.01
  9
$DIMTXT
 40
2.0
  9
$DIMCEN
 40
0.1052362205
  9
$DIMTSZ
 40
0.0
  9
$DIMTOL
 70
     1
  9
$DIMLIM
 70
     0
  9
$DIMTIH
 70
     1
  9
$DIMTOH
 70
     1
  9
$DIMSE1
 70
     0
  9
$DIMSE2
 70
     0
  9
$DIMTAD
 70
     0
  9
$DIMZIN
 70
     0
  9
$DIMBLK
  1

  9
$DIMASO
 70
     1
  9
$DIMSHO
 70
     1
  9
$DIMPOST
  1
\X
  9
$DIMAPOST
  1

  9
$DIMALT
 70
     1
  9
$DIMALTD
 70
     2
  9
$DIMALTF
 40
25.3999999999999986
  9
$DIMLFAC
 40
1.0
  9
$DIMTOFL
 70
     0
  9
$DIMTVP
 40
0.0
  9
$DIMTIX
 70
     0
  9
$DIMSOXD
 70
     0
  9
$DIMSAH
 70
     0
  9
$DIMBLK1
  1

  9
$DIMBLK2
  1

  9
$DIMSTYLE
  2
STANDARD
  9
$DIMCLRD
 70
     0
  9
$DIMCLRE
 70
     0
  9
$DIMCLRT
 70
     0
  9
$DIMTFAC
 40
1.0
  9
$DIMGAP
 40
0.09
  9
$LUNITS
 70
     2
  9
$LUPREC
 70
     4
  9
$SKETCHINC
 40
0.1
  9
$FILLETRAD
 40
0.0
  9
$AUNITS
 70
     0
  9
$AUPREC
 70
     0
  9
$MENU
  1
.
  9
$ELEVATION
 40
0.0
  9
$PELEVATION
 40
0.0
  9
$THICKNESS
 40
0.0
  9
$LIMCHECK
 70
     0
  9
$BLIPMODE
 70
     0
  9
$CHAMFERA
 40
0.0
  9
$CHAMFERB
 40
0.0
  9
$SKPOLY
 70
     0
  9
$TDCREATE
 40
2458060.468368056230247
  9
$TDUPDATE
 40
2459262.7771296300925314
  9
$TDINDWG
 40
1.4825076156999999
  9
$TDUSRTIMER
 40
1.4825076156999999
  9
$USRTIMER
 70
     1
  9
$ANGBASE
 50
0.0
  9
$ANGDIR
 70
     0
  9
$PDMODE
 70
     0
  9
$PDSIZE
 40
0.3125
  9
$PLINEWID
 40
0.0
  9
$COORDS
 70
     1
  9
$SPLFRAME
 70
     0
  9
$SPLINETYPE
 70
     6
  9
$SPLINESEGS
 70
     8
  9
$ATTDIA
 70
     1
  9
$ATTREQ
 70
     1
  9
$HANDLING
 70
     1
  9
$HANDSEED
  5
18F68
  9
$SURFTAB1
 70
     6
  9
$SURFTAB2
 70
     6
  9
$SURFTYPE
 70
     6
  9
$SURFU
 70
     6
  9
$SURFV
 70
     6
  9
$UCSNAME
  2

  9
$UCSORG
 10
0.0
 20
0.0
 30
0.0
  9
$UCSXDIR
 10
1.0
 20
0.0
 30
0.0
  9
$UCSYDIR
 10
0.0
 20
1.0
 30
0.0
  9
$PUCSNAME
  2

  9
$PUCSORG
 10
0.0
 20
0.0
 30
0.0
  9
$PUCSXDIR
 10
1.0
 20
0.0
 30
0.0
  9
$PUCSYDIR
 10
0.0
 20
1.0
 30
0.0
  9
$USERI1
 70
     0
  9
$USERI2
 70
     0
  9
$USERI3
 70
     0
  9
$USERI4
 70
     0
  9
$USERI5
 70
     0
  9
$USERR1
 40
0.0
  9
$USERR2
 40
0.0
  9
$USERR3
 40
0.0
  9
$USERR4
 40
0.0
  9
$USERR5
 40
0.0
  9
$WORLDVIEW
 70
     1
  9
$SHADEDGE
 70
     3
  9
$SHADEDIF
 70
    70
  9
$TILEMODE
 70
     1
  9
$MAXACTVP
 70
    64
  9
$PLIMCHECK
 70
     0
  9
$PEXTMIN
 10
1.0000000000000000E+20
 20
1.0000000000000000E+20
 30
1.0000000000000000E+20
  9
$PEXTMAX
 10
-1.0000000000000000E+20
 20
-1.0000000000000000E+20
 30
-1.0000000000000000E+20
  9
$PLIMMIN
 10
0.0
 20
0.0
  9
$PLIMMAX
 10
12.0
 20
9.0
  9
$UNITMODE
 70
     0
  9
$VISRETAIN
 70
     1
  9
$PLINEGEN
 70
     0
  9
$PSLTSCALE
 70
     1
  0
ENDSEC
  0
SECTION
  2
TABLES
  0
TABLE
  2
VPORT
 70
     1
  0
VPORT
  2
*ACTIVE
 70
     0
 10
0.0
 20
0.0
 11
1.0
 21
1.0
 12
577.5739930442035757
 22
327.5775117532966192
 13
0.0
 23
0.0
 14
1.0
 24
1.0
 15
0.0
 25
0.0
 16
0.0
 26
0.0
 36
60.4960186965801583
 17
3911.3653564453120453
 27
132.5796051025390057
 37
0.0
 40
6.576364801932356
 41
1.6896551724137929
 42
50.0
 43
0.0
 44
0.0
 50
0.0
 51
0.0
 71
     0
 72
   100
 73
     1
 74
     1
 75
     0
 76
     0
 77
     0
 78
     0
  0
ENDTAB
  0
TABLE
  2
LTYPE
 70
     2
  0
LTYPE
  2
CONTINUOUS
 70
     0
  3
Solid line
 72
    65
 73
     0
 40
0.0
  0
LTYPE
  2
PHANTOM2
 70
     0
  3
___ _ _ ___ _ _ ___ _ _ ___ _ _
 72
    65
 73
     6
 40
1.25
 49
0.625
 49
-0.125
 49
0.125
 49
-0.125
 49
0.125
 49
-0.125
  0
ENDTAB
  0
TABLE
  2
LAYER
 70
     2
  0
LAYER
  2
0
 70
     0
 62
   255
  6
CONTINUOUS
  0
LAYER
  2
DEFPOINTS
 70
     0
 62
     7
  6
CONTINUOUS
  0
ENDTAB
  0
TABLE
  2
STYLE
 70
     1
  0
STYLE
  2
STANDARD
 70
     0
 40
0.0
 41
0.8
 50
0.0
 71
     0
 42
0.2
  3
txt
  4

  0
ENDTAB
  0
TABLE
  2
VIEW
 70
     0
  0
ENDTAB
  0
TABLE
  2
UCS
 70
     0
  0
ENDTAB
  0
TABLE
  2
APPID
 70
    11
  0
APPID
  2
ACAD
 70
     0
  0
APPID
  2
ACAD_MLEADERVER
 70
     0
  0
APPID
  2
ACAD_EXEMPT_FROM_CAD_STANDARDS
 70
     0
  0
APPID
  2
ACAD_NAV_VCDISPLAY
 70
     0
  0
APPID
  2
ACAECLAYERSTANDARD
 70
     0
  0
APPID
  2
ACCMTRANSPARENCY
 70
     0
  0
APPID
  2
ACAD_DSTYLE_DIMJAG
 70
     0
  0
APPID
  2
ACAD_DSTYLE_DIMTALN
 70
     0
  0
APPID
  2
ACDBATTR
 70
     0
  0
APPID
  2
ACADANNOTATIVE
 70
     0
  0
APPID
  2
DCO15
 70
     0
  0
ENDTAB
  0
TABLE
  2
DIMSTYLE
 70
     1
  0
DIMSTYLE
  2
STANDARD
 70
     0
  3

  4

  5

  6

  7

 40
1.0
 41
0.1875
 42
0.0625
 43
0.38
 44
0.125
 45
0.0
 46
0.0
 47
0.01
 48
0.01
140
0.15625
141
0.09
142
0.0
143
25.3999999999999986
144
1.0
145
0.0
146
1.0
147
0.09
 71
     1
 72
     0
 73
     1
 74
     1
 75
     0
 76
     0
 77
     0
 78
     4
170
     0
171
     2
172
     0
173
     0
174
     0
175
     0
176
     0
177
     0
178
     0
  0
ENDTAB
  0
ENDSEC
  0
SECTION
  2
BLOCKS
  0
BLOCK
  8
0
  2
$MODEL_SPACE
 70
     0
 10
0.0
 20
0.0
 30
0.0
  3
$MODEL_SPACE
  1

  0
ENDBLK
  5
21
  8
0
  0
BLOCK
 67
     1
  8
0
  2
$PAPER_SPACE
 70
     0
 10
0.0
 20
0.0
 30
0.0
  3
$PAPER_SPACE
  1

  0
ENDBLK
  5
1D
 67
     1
  8
0
  0
ENDSEC
  0
SECTION
  2
ENTITIES
  0
ATTDEF
  5
159BF
  8
DEFPOINTS
 10
4490.6167434490171217
 20
460.1604503843166754
 30
0.0
 40
0.001
  1
K-T16317BR-4
  3

  2
MODELNUMBER
 70
     0
1001
ACDBATTR
1070
     0
1070
     1
  0
ATTDEF
  5
159C0
  8
DEFPOINTS
 10
4490.6166176393608112
 20
460.1587835439373748
 30
0.0
 40
0.001
  1
JULY
  3

  2
TRADENAME
 70
     0
1001
ACDBATTR
1070
     0
1070
     1
  0
ATTDEF
  5
159C1
  8
DEFPOINTS
 10
4490.6167434490171217
 20
460.1571170509832882
 30
0.0
 40
0.001
  1
VALVE TRIM
  3

  2
PRODUCT
 70
     0
1001
ACDBATTR
1070
     0
1070
     1
  0
LINE
  5
18E70
  8
0
 10
4490.6167440370472832
 20
463.4248333912356088
 30
0.0
 11
4490.6167440370472832
 21
456.889400320435584
 31
0.0
  0
LINE
  5
18E71
  8
0
 10
4488.2509755032933754
 20
462.1368437838356158
 30
0.0
 11
4487.3451526788012416
 21
462.1368437838356158
 31
0.0
  0
LINE
  5
18E72
  8
0
 10
4488.9262562408466692
 20
462.1649908712356023
 30
0.0
 11
4490.1381480064110292
 21
462.1649908715355082
 31
0.0
  0
LINE
  5
18E73
  8
0
 10
4488.6456641553841109
 20
460.2640091382355081
 30
0.0
 11
4488.1928786562739333
 21
460.2640091382355081
 31
0.0
  0
LINE
  5
18E74
  8
0
 10
4487.917327112672865
 20
460.2640091382355081
 30
0.0
 11
4487.8940239005123658
 21
460.2640091382355081
 31
0.0
  0
ARC
  5
18E75
  8
0
 10
4487.3428780076774274
 20
457.4294027350508145
 30
0.0
 40
0.0393644161529711
 50
189.2155094756832909
 51
287.424951861873808
  0
ARC
  5
18E76
  8
0
 10
4487.2974643377183384
 20
457.5431712070270009
 30
0.0
 40
0.1617767548120153
 50
290.7066561875502089
 51
335.367934721344227
  0
ARC
  5
18E77
  8
0
 10
4486.8231758126812565
 20
457.7414697153237739
 30
0.0
 40
0.6757798753160228
 50
336.845435453295579
 51
356.2702000280584116
  0
ARC
  5
18E78
  8
0
 10
4484.9009006741907797
 20
457.9269087349751999
 30
0.0
 40
2.6067371370735568
 50
354.9512970303334214
 51
1.056843607824175
  0
ARC
  5
18E79
  8
0
 10
4487.2842764316574176
 20
457.9928563120851095
 30
0.0
 40
0.223632901584665
 50
355.4172532038076042
 51
3.1299478062999899
  0
ARC
  5
18E7A
  8
0
 10
4477.347063789299682
 20
457.2362507315116886
 30
0.0
 40
10.1895574560129294
 50
4.3271575572228098
 51
5.316414282895459
  0
ARC
  5
18E7B
  8
0
 10
4489.4251497539762568
 20
458.3541300080527208
 30
0.0
 40
1.940158365855714
 50
179.7887715910113968
 51
185.1381958795232947
  0
LINE
  5
18E7C
  8
0
 10
4487.4853867965939571
 20
459.2580393231356197
 30
0.0
 11
4487.4850082187940643
 21
458.3612828203355889
 31
0.0
  0
ARC
  5
18E7D
  8
0
 10
4490.2886780467388235
 20
459.2525940225287968
 30
0.0
 40
2.803296538797778
 50
176.6175900568441079
 51
179.8887049818565913
  0
ARC
  5
18E7E
  8
0
 10
4495.0775539564338033
 20
458.9695577378284952
 30
0.0
 40
7.600529284550654
 50
175.3439420290224007
 51
176.6175900568441079
  0
ARC
  5
18E7F
  8
0
 10
4485.919082213132242
 20
459.7147015582510789
 30
0.0
 40
1.5882054842064559
 50
355.3708611521373086
 51
359.3818649957489129
  0
ARC
  5
18E80
  8
0
 10
4487.8209164214531484
 20
459.9671235382198233
 30
0.0
 40
0.2922748925335585
 50
96.8530414453579453
 51
156.2508903477151136
  0
ARC
  5
18E81
  8
0
 10
4488.1995784142563934
 20
459.8418617343742198
 30
0.0
 40
0.6903560364974466
 50
159.3934044904603127
 51
178.8580848143365074
  0
ARC
  5
18E82
  8
0
 10
4487.9056319803557926
 20
459.2032288001793177
 30
0.0
 40
1.060843849548311
 50
89.3695118353212052
 51
89.3730394377559207
  0
ARC
  5
18E83
  8
0
 10
4487.9056319803557926
 20
459.2032288001793177
 30
0.0
 40
1.060843849548311
 50
90.6269605622440793
 51
96.4728096605612961
  0
ARC
  5
18E84
  8
0
 10
4488.645657968741034
 20
460.3033727364739889
 30
0.0
 40
0.0393635987245724
 50
270.0090049852320817
 51
359.9902424694569163
  0
LINE
  5
18E85
  8
0
 10
4488.6850215668946475
 20
461.0893149150415979
 30
0.0
 11
4488.6850215668946475
 21
460.3033660328125052
 31
0.0
  0
ARC
  5
18E86
  8
0
 10
4487.8976199928629285
 20
461.0893136128153174
 30
0.0
 40
0.7874015740325117
 50
0.0000947568959
 51
25.129458693958771
  0
LINE
  5
18E87
  8
0
 10
4488.2866209235935457
 20
462.1141670226356268
 30
0.0
 11
4488.6104944619937669
 21
461.4236954754355793
 31
0.0
  0
ARC
  5
18E88
  8
0
 10
4488.2509318925403932
 20
462.0974214757202958
 30
0.0
 40
0.0394223322374016
 50
25.1363032593019007
 51
89.9366168238049255
  0
ARC
  5
18E89
  8
0
 10
4488.7785269155456263
 20
461.1298395665356793
 30
0.0
 40
0.8661417322999154
 50
93.4272846748851862
 51
116.9381825158241952
  0
ARC
  5
18E8A
  8
0
 10
4488.7220410021909629
 20
462.0730315548415774
 30
0.0
 40
0.0787401572601319
 50
273.4267260326852238
 51
357.3922348836209153
  0
ARC
  5
18E8B
  8
0
 10
4488.8793582330263234
 20
462.0658664728032932
 30
0.0
 40
0.0787401574388057
 50
90.9999999624506444
 51
177.3922468163486883
  0
LINE
  5
18E8C
  8
0
 10
4488.8779840278466509
 20
462.1445946377356222
 30
0.0
 11
4488.9144452171458397
 21
462.1452310702355817
 31
0.0
  0
ARC
  5
18E8D
  8
0
 10
4488.9262562427720695
 20
462.153179842985196
 30
0.0
 40
0.0118110282504224
 50
90.0000093444024714
 51
180.0381934574785134
  0
LINE
  5
18E8E
  8
0
 10
4488.9144452171458397
 20
460.2476759145355913
 30
0.0
 11
4488.9144452171458397
 21
462.1531719697355811
 31
0.0
  0
ARC
  5
18E8F
  8
0
 10
4531.6428598911570589
 20
459.9211464197110217
 30
0.0
 40
41.5678025180587625
 50
175.2357266497766943
 51
176.8362477033410869
  0
ARC
  5
18E90
  8
0
 10
4490.2382934518409456
 20
463.3719655302858769
 30
0.0
 40
0.0196825409622319
 50
94.996261215565255
 51
175.1746254279125026
  0
LINE
  5
18E91
  8
0
 10
4490.2365792848468118
 20
463.3915732851356211
 30
0.0
 11
4490.6167440370472832
 21
463.4248333912356088
 31
0.0
  0
ARC
  5
18E92
  8
0
 10
4536.1722208501250861
 20
460.4905699997149213
 30
0.0
 40
46.090455119963373
 50
180.3791392605064061
 51
184.4173836728940898
  0
ARC
  5
18E93
  8
0
 10
4488.722024514988334
 20
460.3278084890629884
 30
0.0
 40
0.0787574029455144
 50
2.6195805499624898
 51
86.5620825143918751
  0
ARC
  5
18E94
  8
0
 10
4488.8793579153980318
 20
460.3349806483437874
 30
0.0
 40
0.0787393888881099
 50
182.600544230336908
 51
269.0002214370927049
  0
ARC
  5
18E95
  8
0
 10
4445.4549571261459278
 20
462.4245055934811148
 30
0.0
 40
44.6839444894155804
 50
357.1279469634549173
 51
359.731703460741187
  0
ARC
  5
18E96
  8
0
 10
4491.3538126187322632
 20
459.7239366836133172
 30
0.0
 40
3.846707728441471
 50
178.0382294465451878
 51
180.3927649319371938
  0
ARC
  5
18E97
  8
0
 10
4494.7382217323001896
 20
461.1983341780714909
 30
0.0
 40
7.4869331613054051
 50
173.0658383167055092
 51
179.9839882392132893
  0
ARC
  5
18E98
  8
0
 10
4487.3451622560678516
 20
462.0974419686493206
 30
0.0
 40
0.0394018163503197
 50
90.0139267026502665
 51
173.0318048058275906
  0
ARC
  5
18E99
  8
0
 10
8519.240375911409501
 20
470.9078834219495775
 30
0.0
 40
4032.0007729160120107
 50
180.1379456211265051
 51
180.1573441562806011
  0
LINE
  5
18E9A
  8
0
 10
4487.2548065909941215
 20
459.8353233184355986
 30
0.0
 11
4487.2591809770938198
 21
457.974988337135585
 31
0.0
  0
ARC
  5
18E9B
  8
0
 10
4490.7242225289419366
 20
457.9787542562613112
 30
0.0
 40
3.4650435983096268
 50
180.0622708800738963
 51
189.2278139230708973
  0
ARC
  5
18E9C
  8
0
 10
4490.2382934494908113
 20
456.9422681789334888
 30
0.0
 40
0.0196825384147548
 50
184.825368035575508
 51
265.0037450017733818
  0
LINE
  5
18E9D
  8
0
 10
4490.6167440370472832
 20
456.889400320435584
 30
0.0
 11
4490.2365792848468118
 21
456.9226604264355842
 31
0.0
  0
LINE
  5
18E9E
  8
0
 10
4488.8006996171461651
 20
462.0694490056355903
 30
0.0
 11
4488.8006996171461651
 21
460.331408047235584
 31
0.0
  0
ARC
  5
18EA0
  8
0
 10
4488.7785269090436486
 20
461.2710082502799764
 30
0.0
 40
0.8661416645366861
 50
263.8024885533175734
 51
266.5727324195930805
  0
LINE
  5
18EA1
  8
0
 10
4488.8779840278466509
 20
460.2562532465356071
 30
0.0
 11
4488.9144452171458397
 21
460.2556168140355908
 31
0.0
  0
ARC
  5
18EA2
  8
0
 10
4488.9262562427720695
 20
460.2476680412860901
 30
0.0
 40
0.0118110282504276
 50
179.9618065425443092
 51
269.9999906555975144
  0
LINE
  5
18EA3
  8
0
 10
4488.9262562408466692
 20
460.2358570130355133
 30
0.0
 11
4490.0852687150709244
 21
460.2358570130355133
 31
0.0
  0
ARC
  5
18EA4
  8
0
 10
4488.0551028844738539
 20
459.3381326168067176
 30
0.0
 40
0.936071309371583
 50
81.5351171143394851
 51
98.4651808925289771
  0
LINE
  5
18EA5
  8
0
 10
4490.2186806716463252
 20
463.3736212089356172
 30
0.0
 11
4490.2186806716463252
 21
456.9406125027355756
 31
0.0
  0
ENDSEC
  0
EOF
