  0
SECTION
  2
HEADER
  9
$ACADVER
  1
AC1009
  9
$INSBASE
 10
4251.0255339918521713
 20
50.2548134581095383
 30
0.0
  9
$EXTMIN
 10
4246.2969996059364348
 20
45.7713785532636734
 30
-0.0000000349181948
  9
$EXTMAX
 10
4252.473852212863676
 20
51.6720775696938901
 30
0.0000000814935746
  9
$LIMMIN
 10
0.0
 20
0.0
  9
$LIMMAX
 10
11.6929133858000007
 20
8.2677165353999982
  9
$ORTHOMODE
 70
     0
  9
$REGENMODE
 70
     1
  9
$FILLMODE
 70
     1
  9
$QTEXTMODE
 70
     0
  9
$MIRRTEXT
 70
     0
  9
$DRAGMODE
 70
     2
  9
$LTSCALE
 40
0.6431102362
  9
$OSMODE
 70
   575
  9
$ATTMODE
 70
     1
  9
$TEXTSIZE
 40
0.2
  9
$TRACEWID
 40
0.05
  9
$TEXTSTYLE
  7
STANDARD
  9
$CLAYER
  8
0
  9
$CELTYPE
  6
BYLAYER
  9
$CECOLOR
 62
   256
  9
$DIMSCALE
 40
1.0
  9
$DIMASZ
 40
0.1875
  9
$DIMEXO
 40
0.0625
  9
$DIMDLI
 40
0.4443307087
  9
$DIMRND
 40
0.0
  9
$DIMDLE
 40
0.0
  9
$DIMEXE
 40
0.125
  9
$DIMTP
 40
0.01
  9
$DIMTM
 40
0.01
  9
$DIMTXT
 40
2.0
  9
$DIMCEN
 40
0.1052362205
  9
$DIMTSZ
 40
0.0
  9
$DIMTOL
 70
     1
  9
$DIMLIM
 70
     0
  9
$DIMTIH
 70
     1
  9
$DIMTOH
 70
     1
  9
$DIMSE1
 70
     0
  9
$DIMSE2
 70
     0
  9
$DIMTAD
 70
     0
  9
$DIMZIN
 70
     0
  9
$DIMBLK
  1

  9
$DIMASO
 70
     1
  9
$DIMSHO
 70
     1
  9
$DIMPOST
  1
\X
  9
$DIMAPOST
  1

  9
$DIMALT
 70
     1
  9
$DIMALTD
 70
     2
  9
$DIMALTF
 40
25.3999999999999986
  9
$DIMLFAC
 40
1.0
  9
$DIMTOFL
 70
     0
  9
$DIMTVP
 40
0.0
  9
$DIMTIX
 70
     0
  9
$DIMSOXD
 70
     0
  9
$DIMSAH
 70
     0
  9
$DIMBLK1
  1

  9
$DIMBLK2
  1

  9
$DIMSTYLE
  2
STANDARD
  9
$DIMCLRD
 70
     0
  9
$DIMCLRE
 70
     0
  9
$DIMCLRT
 70
     0
  9
$DIMTFAC
 40
1.0
  9
$DIMGAP
 40
0.09
  9
$LUNITS
 70
     2
  9
$LUPREC
 70
     4
  9
$SKETCHINC
 40
0.1
  9
$FILLETRAD
 40
0.0
  9
$AUNITS
 70
     0
  9
$AUPREC
 70
     0
  9
$MENU
  1
.
  9
$ELEVATION
 40
0.0
  9
$PELEVATION
 40
0.0
  9
$THICKNESS
 40
0.0
  9
$LIMCHECK
 70
     0
  9
$BLIPMODE
 70
     0
  9
$CHAMFERA
 40
0.0
  9
$CHAMFERB
 40
0.0
  9
$SKPOLY
 70
     0
  9
$TDCREATE
 40
2458060.468368056230247
  9
$TDUPDATE
 40
2459639.5009953710250556
  9
$TDINDWG
 40
0.4390116898
  9
$TDUSRTIMER
 40
0.4390116898
  9
$USRTIMER
 70
     1
  9
$ANGBASE
 50
0.0
  9
$ANGDIR
 70
     0
  9
$PDMODE
 70
     0
  9
$PDSIZE
 40
0.3125
  9
$PLINEWID
 40
0.0
  9
$COORDS
 70
     1
  9
$SPLFRAME
 70
     0
  9
$SPLINETYPE
 70
     6
  9
$SPLINESEGS
 70
     8
  9
$ATTDIA
 70
     1
  9
$ATTREQ
 70
     1
  9
$HANDLING
 70
     1
  9
$HANDSEED
  5
DC11
  9
$SURFTAB1
 70
     6
  9
$SURFTAB2
 70
     6
  9
$SURFTYPE
 70
     6
  9
$SURFU
 70
     6
  9
$SURFV
 70
     6
  9
$UCSNAME
  2

  9
$UCSORG
 10
0.0
 20
0.0
 30
0.0
  9
$UCSXDIR
 10
1.0
 20
0.0
 30
0.0
  9
$UCSYDIR
 10
0.0
 20
1.0
 30
0.0
  9
$PUCSNAME
  2

  9
$PUCSORG
 10
0.0
 20
0.0
 30
0.0
  9
$PUCSXDIR
 10
1.0
 20
0.0
 30
0.0
  9
$PUCSYDIR
 10
0.0
 20
1.0
 30
0.0
  9
$USERI1
 70
     0
  9
$USERI2
 70
     0
  9
$USERI3
 70
     0
  9
$USERI4
 70
     0
  9
$USERI5
 70
     0
  9
$USERR1
 40
0.0
  9
$USERR2
 40
0.0
  9
$USERR3
 40
0.0
  9
$USERR4
 40
0.0
  9
$USERR5
 40
0.0
  9
$WORLDVIEW
 70
     1
  9
$SHADEDGE
 70
     3
  9
$SHADEDIF
 70
    70
  9
$TILEMODE
 70
     1
  9
$MAXACTVP
 70
    64
  9
$PLIMCHECK
 70
     0
  9
$PEXTMIN
 10
1.0000000000000000E+20
 20
1.0000000000000000E+20
 30
1.0000000000000000E+20
  9
$PEXTMAX
 10
-1.0000000000000000E+20
 20
-1.0000000000000000E+20
 30
-1.0000000000000000E+20
  9
$PLIMMIN
 10
0.0
 20
0.0
  9
$PLIMMAX
 10
12.0
 20
9.0
  9
$UNITMODE
 70
     0
  9
$VISRETAIN
 70
     1
  9
$PLINEGEN
 70
     0
  9
$PSLTSCALE
 70
     1
  0
ENDSEC
  0
SECTION
  2
TABLES
  0
TABLE
  2
VPORT
 70
     1
  0
VPORT
  2
*ACTIVE
 70
     0
 10
0.0
 20
0.0
 11
1.0
 21
1.0
 12
457.3151279060007823
 22
-71.7726873876361537
 13
0.0
 23
0.0
 14
1.0
 24
1.0
 15
0.0
 25
0.0
 16
0.0
 26
0.0
 36
5.1040778033513332
 17
3792.35791015625
 27
120.1806564331053977
 37
0.0
 40
9.0467168283853567
 41
2.2268786127167619
 42
50.0
 43
0.0
 44
0.0
 50
0.0
 51
0.0
 71
     0
 72
   100
 73
     1
 74
     1
 75
     0
 76
     0
 77
     0
 78
     0
  0
ENDTAB
  0
TABLE
  2
LTYPE
 70
     2
  0
LTYPE
  2
CONTINUOUS
 70
     0
  3
Solid line
 72
    65
 73
     0
 40
0.0
  0
LTYPE
  2
PHANTOM2
 70
     0
  3
___ _ _ ___ _ _ ___ _ _ ___ _ _
 72
    65
 73
     6
 40
1.25
 49
0.625
 49
-0.125
 49
0.125
 49
-0.125
 49
0.125
 49
-0.125
  0
ENDTAB
  0
TABLE
  2
LAYER
 70
     2
  0
LAYER
  2
0
 70
     0
 62
   255
  6
CONTINUOUS
  0
LAYER
  2
DEFPOINTS
 70
     0
 62
     7
  6
CONTINUOUS
  0
ENDTAB
  0
TABLE
  2
STYLE
 70
     1
  0
STYLE
  2
STANDARD
 70
     0
 40
0.0
 41
0.8
 50
0.0
 71
     0
 42
0.2
  3
txt
  4

  0
ENDTAB
  0
TABLE
  2
VIEW
 70
     0
  0
ENDTAB
  0
TABLE
  2
UCS
 70
     0
  0
ENDTAB
  0
TABLE
  2
APPID
 70
     9
  0
APPID
  2
ACAD
 70
     0
  0
APPID
  2
ACAD_MLEADERVER
 70
     0
  0
APPID
  2
ACAD_EXEMPT_FROM_CAD_STANDARDS
 70
     0
  0
APPID
  2
ACAD_NAV_VCDISPLAY
 70
     0
  0
APPID
  2
ACAECLAYERSTANDARD
 70
     0
  0
APPID
  2
ACCMTRANSPARENCY
 70
     0
  0
APPID
  2
ACAD_DSTYLE_DIMJAG
 70
     0
  0
APPID
  2
ACAD_DSTYLE_DIMTALN
 70
     0
  0
APPID
  2
ACDBATTR
 70
     0
  0
ENDTAB
  0
TABLE
  2
DIMSTYLE
 70
     1
  0
DIMSTYLE
  2
STANDARD
 70
     0
  3

  4

  5

  6

  7

 40
1.0
 41
0.1875
 42
0.0625
 43
0.38
 44
0.125
 45
0.0
 46
0.0
 47
0.01
 48
0.01
140
0.15625
141
0.09
142
0.0
143
25.3999999999999986
144
1.0
145
0.0
146
1.0
147
0.09
 71
     1
 72
     0
 73
     1
 74
     1
 75
     0
 76
     0
 77
     0
 78
     4
170
     0
171
     2
172
     0
173
     0
174
     0
175
     0
176
     0
177
     0
178
     0
  0
ENDTAB
  0
ENDSEC
  0
SECTION
  2
BLOCKS
  0
BLOCK
  8
0
  2
$MODEL_SPACE
 70
     0
 10
0.0
 20
0.0
 30
0.0
  3
$MODEL_SPACE
  1

  0
ENDBLK
  5
21
  8
0
  0
BLOCK
 67
     1
  8
0
  2
$PAPER_SPACE
 70
     0
 10
0.0
 20
0.0
 30
0.0
  3
$PAPER_SPACE
  1

  0
ENDBLK
  5
1D
 67
     1
  8
0
  0
ENDSEC
  0
SECTION
  2
ENTITIES
  0
ATTDEF
  5
3930
  8
DEFPOINTS
 10
4251.0255348482487534
 20
50.2583234926446067
 30
0.0
 40
0.001
  1
K-99946BR-CL
  3

  2
MODELNUMBER
 70
     0
1001
ACDBATTR
1070
     0
1070
     1
  0
ATTDEF
  5
3931
  8
DEFPOINTS
 10
4251.0255348482487534
 20
50.2566568259779416
 30
0.0
 40
0.001
  1
MODERN
  3

  2
TRADENAME
 70
     0
1001
ACDBATTR
1070
     0
1070
     1
  0
ATTDEF
  5
3932
  8
DEFPOINTS
 10
4251.0255348482487534
 20
50.2549901593112835
 30
0.0
 40
0.001
  1
SHOWERHEAD
  3

  2
PRODUCT
 70
     0
1001
ACDBATTR
1070
     0
1070
     1
  0
LINE
  5
DAE6
  8
0
 10
4246.5629663924019042
 20
51.3600157893595295
 30
0.0
 11
4246.8691937386020072
 21
51.6662431355595402
 31
0.0
  0
LINE
  5
DAE7
  8
0
 10
4246.9707611674029977
 20
50.79956657485954
 30
0.0
 11
4247.0004717642623291
 21
50.8389938685070604
 31
0.0
  0
LINE
  5
DAE8
  8
0
 10
4247.0478659824020724
 20
50.7224617598595415
 30
0.0
 11
4247.0872932761067204
 21
50.7521723566636425
 31
0.0
  0
LINE
  5
DAE9
  8
0
 10
4247.4732524036016912
 20
50.2970753386595391
 30
0.0
 11
4247.5029630004655701
 21
50.3365026323122891
 31
0.0
  0
LINE
  5
DAEA
  8
0
 10
4247.5503572187017198
 20
50.2199705235595388
 30
0.0
 11
4247.5897845123563457
 21
50.2496811204246114
 31
0.0
  0
LINE
  5
DAEB
  8
0
 10
4247.9757436399022481
 20
49.7945841023595293
 30
0.0
 11
4248.0054542367006434
 21
49.8340113960595374
 31
0.0
  0
LINE
  5
DAEC
  8
0
 10
4248.0528484549031418
 20
49.7174792873595379
 30
0.0
 11
4248.0922757486032424
 21
49.7471898842595408
 31
0.0
  0
LINE
  5
DAED
  8
0
 10
4248.4782348761018511
 20
49.2920928661595426
 30
0.0
 11
4248.5079454730021098
 21
49.3315201598595294
 31
0.0
  0
LINE
  5
DAEE
  8
0
 10
4248.5553396911018353
 20
49.214988051159537
 30
0.0
 11
4248.5947669848019359
 21
49.2446986479595381
 31
0.0
  0
LINE
  5
DAEF
  8
0
 10
4249.1185727906022294
 20
49.4614062430595425
 30
0.0
 11
4249.1102211357019769
 21
49.4530545881595529
 31
0.0
  0
LINE
  5
DAF0
  8
0
 10
4249.8674378462974346
 20
49.8427984832547111
 30
0.0
 11
4249.8730056162021356
 21
49.84836625315954
 31
0.0
  0
LINE
  5
DAF1
  8
0
 10
4248.9807261123032731
 20
48.7896016298595399
 30
0.0
 11
4249.0104367092008033
 21
48.8290289236595427
 31
0.0
  0
LINE
  5
DAF2
  8
0
 10
4250.1346908029017868
 20
50.0321026608595432
 30
0.0
 11
4250.6914677960012341
 21
50.5888796539595305
 31
0.0
  0
LINE
  5
DAF3
  8
0
 10
4250.0781278129006751
 20
49.8085065729595371
 30
0.0
 11
4250.1040680683017854
 21
49.834446828359539
 31
0.0
  0
LINE
  5
DAF4
  8
0
 10
4250.1374746879018858
 20
49.8678534479595399
 30
0.0
 11
4250.1683168416020635
 21
49.89869560165954
 31
0.0
  0
LINE
  5
DAF5
  8
0
 10
4249.0578309274005733
 20
48.7124968148595414
 30
0.0
 11
4249.0972582211006738
 21
48.7422074117595301
 31
0.0
  0
LINE
  5
DAF6
  8
0
 10
4246.9718422154010113
 20
50.7841068684595385
 30
0.0
 11
4247.0324062758018044
 21
50.7235428080595412
 31
0.0
  0
LINE
  5
DAF7
  8
0
 10
4247.4743334516006144
 20
50.2816156322595376
 30
0.0
 11
4247.5348975120023169
 21
50.2210515718595403
 31
0.0
  0
LINE
  5
DAF8
  8
0
 10
4247.9768246879020808
 20
49.7791243960595509
 30
0.0
 11
4248.0373887483019644
 21
49.7185603356595394
 31
0.0
  0
LINE
  5
DAF9
  8
0
 10
4248.4793159241007743
 20
49.2766331597595411
 30
0.0
 11
4248.5398799845006579
 21
49.2160690993595367
 31
0.0
  0
LINE
  5
DAFA
  8
0
 10
4248.9818071603021963
 20
48.7741419235595401
 30
0.0
 11
4249.0423712207020799
 21
48.7135778631595429
 31
0.0
  0
LINE
  5
DAFB
  8
0
 10
4249.4842983966009342
 20
48.2716506873595392
 30
0.0
 11
4249.5448624570017273
 21
48.2110866268595402
 31
0.0
  0
LINE
  5
DAFC
  8
0
 10
4249.9867896328023562
 20
47.7691594510595365
 30
0.0
 11
4250.0473536932022398
 21
47.7085953906595392
 31
0.0
  0
LINE
  5
DAFD
  8
0
 10
4250.4892808690019592
 20
47.2666682148595427
 30
0.0
 11
4250.5498449295009777
 21
47.2061041544595312
 31
0.0
  0
LINE
  5
DAFE
  8
0
 10
4250.9917721053006971
 20
46.7641769786595418
 30
0.0
 11
4251.0523361657005808
 21
46.7036129181595427
 31
0.0
  0
LINE
  5
DAFF
  8
0
 10
4251.4942633415021191
 20
46.261685742359532
 30
0.0
 11
4251.5548274019020027
 21
46.2011216819595418
 31
0.0
  0
LINE
  5
DB00
  8
0
 10
4246.5629663924019042
 20
51.2764992403595414
 30
0.0
 11
4252.0472197741019045
 21
45.7922458587595429
 31
0.0
  0
LINE
  5
DB01
  8
0
 10
4250.6693127619018924
 20
50.1656130936595375
 30
0.0
 11
4250.3352465660018424
 21
49.8315468977595373
 31
0.0
  0
LINE
  5
DB02
  8
0
 10
4249.483217348602011
 20
48.2871103936595389
 30
0.0
 11
4249.5129279455013602
 21
48.32653768735954
 31
0.0
  0
LINE
  5
DB03
  8
0
 10
4250.6022674315017866
 20
49.564526032359538
 30
0.0
 11
4250.9363336273017921
 21
49.8985922281595506
 31
0.0
  0
LINE
  5
DB04
  8
0
 10
4246.8970325883019541
 20
51.6662431355595402
 30
0.0
 11
4252.4369636692017593
 21
46.1263120545595271
 31
0.0
  0
LINE
  5
DB05
  8
0
 10
4250.232126776701989
 20
48.3478522568595395
 30
0.0
 11
4249.1185727906022294
 21
49.4614062430595425
 31
0.0
  0
LINE
  5
DB06
  8
0
 10
4250.579227106702092
 20
49.307407279259543
 30
0.0
 11
4250.6051673621022928
 21
49.3333475346595307
 31
0.0
  0
LINE
  5
DB07
  8
0
 10
4250.6385739816032583
 20
49.3667541541595369
 30
0.0
 11
4250.669416135400752
 21
49.3975963079595388
 31
0.0
  0
LINE
  5
DB08
  8
0
 10
4250.8028231946018423
 20
49.3639702692595392
 30
0.0
 11
4251.359600187702199
 21
49.920747262259539
 31
0.0
  0
LINE
  5
DB09
  8
0
 10
4250.6135190169570706
 20
49.096717312514393
 30
0.0
 11
4250.6190867869008798
 21
49.102285082459538
 31
0.0
  0
LINE
  5
DB0A
  8
0
 10
4249.5603221636019953
 20
48.2100055786595405
 30
0.0
 11
4249.5997494573020958
 21
48.2397161755595505
 31
0.0
  0
LINE
  5
DB0B
  8
0
 10
4250.232126776701989
 20
48.3478522568595395
 30
0.0
 11
4250.2237751218017365
 21
48.3395006019595428
 31
0.0
  0
LINE
  5
DB0C
  8
0
 10
4249.9857085848007046
 20
47.7846191574595309
 30
0.0
 11
4250.0154191817018727
 21
47.8240464511595391
 31
0.0
  0
LINE
  5
DB0D
  8
0
 10
4250.6916548173021511
 20
49.4015175875595389
 30
0.0
 11
4250.7805845127022621
 21
49.3600489895595373
 31
0.0
  0
LINE
  5
DB0E
  8
0
 10
4250.7030286914023236
 20
49.0072076380595405
 30
0.0
 11
4249.7779281718021593
 21
49.9323081577595289
 31
0.0
  0
LINE
  5
DB0F
  8
0
 10
4250.6190867869008798
 20
49.102285082459538
 30
0.0
 11
4249.8730056162021356
 21
49.84836625315954
 31
0.0
  0
LINE
  5
DB10
  8
0
 10
4250.1722381213021436
 20
49.9209342836595411
 30
0.0
 11
4250.1307695233008417
 21
50.0098639789595367
 31
0.0
  0
LINE
  5
DB11
  8
0
 10
4250.0628133998006888
 20
47.7075143424595396
 30
0.0
 11
4250.1022406936008338
 21
47.7372249392595407
 31
0.0
  0
LINE
  5
DB12
  8
0
 10
4250.5734681011017528
 20
49.2939979027595427
 30
0.0
 11
4250.0647184364006534
 21
49.802747567359539
 31
0.0
  0
LINE
  5
DB13
  8
0
 10
4250.1722381213021436
 20
49.9209342836595411
 30
0.0
 11
4250.6916548173021511
 21
49.4015175875595389
 31
0.0
  0
LINE
  5
DB14
  8
0
 10
4250.7805845127022621
 20
49.3600489895595373
 30
0.0
 11
4250.56425736860092
 21
49.5763761335595419
 31
0.0
  0
LINE
  5
DB15
  8
0
 10
4250.3470966673021394
 20
49.7935368349595393
 30
0.0
 11
4250.1307695233008417
 21
50.0098639789595367
 31
0.0
  0
LINE
  5
DB16
  8
0
 10
4250.488199821102171
 20
47.2821279211595424
 30
0.0
 11
4250.5179104179005662
 21
47.3215552149595311
 31
0.0
  0
LINE
  5
DB17
  8
0
 10
4250.5653046361021552
 20
47.2050231061595369
 30
0.0
 11
4250.6047319298031653
 21
47.2347337030595398
 31
0.0
  0
LINE
  5
DB18
  8
0
 10
4250.6693127619018924
 20
50.1656130936595375
 30
0.0
 11
4250.9363336273017921
 21
49.8985922281595506
 31
0.0
  0
LINE
  5
DB19
  8
0
 10
4251.359600187702199
 20
49.920747262259539
 30
0.0
 11
4250.6914677960012341
 21
50.5888796539595305
 31
0.0
  0
LINE
  5
DB1A
  8
0
 10
4250.9906910573008645
 20
46.7796366849595415
 30
0.0
 11
4251.0204016542011232
 21
46.8190639786595426
 31
0.0
  0
LINE
  5
DB1B
  8
0
 10
4251.0677958723008487
 20
46.7025318699595431
 30
0.0
 11
4251.1072231660009493
 21
46.7322424668595318
 31
0.0
  0
LINE
  5
DB1C
  8
0
 10
4251.4931822935022865
 20
46.2771454487595406
 30
0.0
 11
4251.5228928904016357
 21
46.3165727424595417
 31
0.0
  0
LINE
  5
DB1D
  8
0
 10
4251.5702871086023151
 20
46.2000406336595404
 30
0.0
 11
4251.6097144023005967
 21
46.2297512305595433
 31
0.0
  0
LINE
  5
DB1E
  8
0
 10
4252.1307363231017007
 20
45.7922458587595429
 30
0.0
 11
4252.4369636692017593
 21
46.0984732049595394
 31
0.0
  0
ARC
  5
DB1F
  8
0
 10
4249.0507228759006466
 20
48.7219295177595413
 30
0.0
 40
0.0118110236
 50
224.9999999999951115
 51
307.000000000001819
  0
ARC
  5
DB20
  8
0
 10
4249.4926500515020962
 20
48.280002342259543
 30
0.0
 40
0.0118110236
 50
143.0000000000057128
 51
224.9999999999951115
  0
ARC
  5
DB21
  8
0
 10
4241.465701948586684
 20
56.8336563446394223
 30
0.0
 40
12.1614168945497791
 50
315.9348942652749201
 51
319.4479821123874785
  0
ARC
  5
DB22
  8
0
 10
4246.604724666902257
 20
51.318257514859539
 30
0.0
 40
0.0590551181
 50
134.9999999997943974
 51
224.9999999999951115
  0
ARC
  5
DB23
  8
0
 10
4246.8831131635006386
 20
51.6523237107595392
 30
0.0
 40
0.0196850394
 50
44.9999999999951115
 51
135.0000000000048885
  0
ARC
  5
DB24
  8
0
 10
4247.0407579310021902
 20
50.7318944627595414
 30
0.0
 40
0.0118110236
 50
224.9999999999951115
 51
307.000000000001819
  0
ARC
  5
DB25
  8
0
 10
4246.9801938703021733
 20
50.7924585233595423
 30
0.0
 40
0.0118110236
 50
143.0000000000057128
 51
224.9999999999951115
  0
ARC
  5
DB26
  8
0
 10
4247.5432491672008837
 20
50.2294032264595387
 30
0.0
 40
0.0118110236
 50
224.9999999999951115
 51
307.000000000001819
  0
ARC
  5
DB27
  8
0
 10
4247.4826851065008668
 20
50.2899672871595413
 30
0.0
 40
0.0118110236
 50
143.0000000000057128
 51
224.9999999999951115
  0
ARC
  5
DB28
  8
0
 10
4248.0457404034023057
 20
49.7269119902595378
 30
0.0
 40
0.0118110236
 50
224.9999999999951115
 51
307.000000000001819
  0
ARC
  5
DB29
  8
0
 10
4247.9851763427022888
 20
49.7874760509595404
 30
0.0
 40
0.0118110236
 50
143.0000000000057128
 51
224.9999999999951115
  0
ARC
  5
DB2A
  8
0
 10
4248.5482316397010436
 20
49.2244207539595422
 30
0.0
 40
0.0118110236
 50
224.9999999999951115
 51
307.000000000001819
  0
ARC
  5
DB2B
  8
0
 10
4248.4876675790010268
 20
49.2849848146595377
 30
0.0
 40
0.0118110236
 50
143.0000000000057128
 51
224.9999999999951115
  0
ARC
  5
DB2C
  8
0
 10
4248.9901588152006298
 20
48.7824935784595368
 30
0.0
 40
0.0118110236
 50
143.0000000000057128
 51
224.9999999999951115
  0
ARC
  5
DB2D
  8
0
 10
4257.6043768783829364
 20
40.6949814148432409
 30
0.0
 40
12.1614168945514702
 50
130.5520178876369073
 51
134.0651057343841046
  0
ARC
  5
DB2E
  8
0
 10
4252.0889780486022573
 20
45.8340041332595405
 30
0.0
 40
0.0590551181
 50
224.9999999997847056
 51
315.0000000002153229
  0
ARC
  5
DB2F
  8
0
 10
4252.4230442444022628
 20
46.1123926297595403
 30
0.0
 40
0.0196850394
 50
315.0000000000048885
 51
44.9999999999951115
  0
ARC
  5
DB30
  8
0
 10
4249.5532141121020686
 20
48.2194382815595404
 30
0.0
 40
0.0118110236
 50
224.9999999999951115
 51
307.000000000001819
  0
ARC
  5
DB31
  8
0
 10
4250.0557053484008065
 20
47.7169470452595377
 30
0.0
 40
0.0118110236
 50
224.9999999999951115
 51
307.000000000001819
  0
ARC
  5
DB32
  8
0
 10
4249.9951412877007897
 20
47.7775111059595403
 30
0.0
 40
0.0118110236
 50
143.0000000000057128
 51
224.9999999999951115
  0
ARC
  5
DB33
  8
0
 10
4250.5581965846022285
 20
47.2144558090595368
 30
0.0
 40
0.0118110236
 50
224.9999999999951115
 51
307.000000000001819
  0
ARC
  5
DB34
  8
0
 10
4250.4976325239013022
 20
47.2750198697595394
 30
0.0
 40
0.0118110236
 50
143.0000000000057128
 51
224.9999999999951115
  0
ARC
  5
DB35
  8
0
 10
4251.060687820901876
 20
46.711964572859543
 30
0.0
 40
0.0118110236
 50
224.9999999999951115
 51
307.000000000001819
  0
ARC
  5
DB36
  8
0
 10
4251.0001237602018591
 20
46.7725286334595367
 30
0.0
 40
0.0118110236
 50
143.0000000000057128
 51
224.9999999999951115
  0
ARC
  5
DB37
  8
0
 10
4251.5631790571005695
 20
46.2094733365595403
 30
0.0
 40
0.0118110236
 50
224.9999999999951115
 51
307.000000000001819
  0
ARC
  5
DB38
  8
0
 10
4251.5026149964005526
 20
46.2700373972595429
 30
0.0
 40
0.0118110236
 50
143.0000000000057128
 51
224.9999999999951115
  0
ARC
  5
DB39
  8
0
 10
4250.0775716532016304
 20
49.3068511195595391
 30
0.0
 40
0.4960629921
 50
91.4847257597230339
 51
106.2950111078661024
  0
ARC
  5
DB3A
  8
0
 10
4250.0775716532016304
 20
49.3068511195595391
 30
0.0
 40
0.4960629921
 50
343.7049888921259821
 51
358.5152742403005277
  0
ARC
  5
DB3B
  8
0
 10
4250.8732177776009848
 20
49.0986101927595371
 30
0.0
 40
0.3563129173
 50
131.1880828306885007
 51
134.9893634400986002
  0
ARC
  5
DB3C
  8
0
 10
4249.8699760685012734
 20
50.1020008950595326
 30
0.0
 40
0.355505616
 50
311.183765164782983
 51
314.9936811059877755
  0
ARC
  5
DB3D
  8
0
 10
4249.8703094322017932
 20
50.1015817484595374
 30
0.0
 40
0.3549735093
 50
315.0034622997104066
 51
318.8190914296088749
  0
ARC
  5
DB3E
  8
0
 10
4250.8722069801006
 20
49.0997367573595369
 30
0.0
 40
0.3548015683
 50
135.0025374081029099
 51
138.8200163212017912
  0
ARC
  5
DB3F
  8
0
 10
4250.6612704174021928
 20
48.9654493631595429
 30
0.0
 40
0.0590551181
 50
319.4479820922892941
 51
45.0000005428137797
  0
ARC
  5
DB40
  8
0
 10
4249.7361698969007193
 20
49.8905498836595314
 30
0.0
 40
0.0590551181
 50
44.9999994572132707
 51
130.5520179076868033
  0
CIRCLE
  5
DB41
  8
0
 10
4250.3713210250016346
 20
49.6006004912595415
 30
0.0
 40
0.0236220472
  0
ARC
  5
DB42
  8
0
 10
4250.6833355602020674
 20
49.3836768830595432
 30
0.0
 40
0.0196850394
 50
65.000000000082963
 51
135.0000000000048885
  0
ARC
  5
DB43
  8
0
 10
4250.154397416800748
 20
49.912615026459541
 30
0.0
 40
0.0196850394
 50
315.0000000000048885
 51
24.9999999998899192
  0
ARC
  5
DB44
  8
0
 10
4250.7889037698023458
 20
49.3778896940595402
 30
0.0
 40
0.0196850394
 50
245.0000000000179057
 51
315.0000000000048885
  0
ARC
  5
DB45
  8
0
 10
4250.1486102278022372
 20
50.0181832360595422
 30
0.0
 40
0.0196850394
 50
135.0000000000048885
 51
204.9999999999938041
  0
ARC
  5
DB46
  8
0
 10
4250.0642083881020881
 20
49.8224259978595398
 30
0.0
 40
0.0196850394
 50
271.4847257599835757
 51
315.0000000000048885
  0
ARC
  5
DB47
  8
0
 10
4250.593146531500679
 20
49.2934878544595421
 30
0.0
 40
0.0196850394
 50
135.0000000000048885
 51
178.5152742400005081
  0
ARC
  5
DB48
  8
0
 10
4250.3448775591277808
 20
49.8238127272202576
 30
0.0
 40
0.0123520614689239
 50
141.2337885341501078
 51
191.5792741802245871
  0
ARC
  5
DB49
  8
0
 10
4250.3936295809107833
 20
49.83509570848544
 30
0.0
 40
0.0623895184919759
 50
192.7435261520203085
 51
221.7682661492945897
  0
ARC
  5
DB4A
  8
0
 10
4251.3193317495297379
 20
50.5486112154399194
 30
0.0
 40
1.2310070573204841
 50
217.8342593653412962
 51
232.1657406082599948
  0
ARC
  5
DB4B
  8
0
 10
4250.6232644364863518
 20
49.6497534737214608
 30
0.0
 40
0.0941598009236261
 50
231.1951763568270053
 51
242.050257671426607
  0
ARC
  5
DB4C
  8
0
 10
4250.5984907316160388
 20
49.6014268212202722
 30
0.0
 40
0.0398660251892487
 50
240.9486050378322943
 51
261.8305222444823812
  0
ARC
  5
DB4D
  8
0
 10
4250.5949128124048002
 20
49.5729568682398209
 30
0.0
 40
0.0111879138223596
 50
259.2484687432906867
 51
311.0997383387974082
  0
ENDSEC
  0
EOF
