  0
SECTION
  2
HEADER
  9
$ACADVER
  1
AC1009
  9
$INSBASE
 10
4216.6407951920446067
 20
52.4977833294168619
 30
0.0
  9
$EXTMIN
 10
4212.3282613592427879
 20
50.0396132241905818
 30
-0.0000000000112498
  9
$EXTMAX
 10
4220.7010019265553638
 20
52.5032176699101285
 30
0.0000000000002956
  9
$LIMMIN
 10
0.0
 20
0.0
  9
$LIMMAX
 10
11.6929133858000007
 20
8.2677165353999982
  9
$ORTHOMODE
 70
     0
  9
$REGENMODE
 70
     1
  9
$FILLMODE
 70
     1
  9
$QTEXTMODE
 70
     0
  9
$MIRRTEXT
 70
     0
  9
$DRAGMODE
 70
     2
  9
$LTSCALE
 40
0.6431102362
  9
$OSMODE
 70
  4095
  9
$ATTMODE
 70
     1
  9
$TEXTSIZE
 40
0.2
  9
$TRACEWID
 40
0.05
  9
$TEXTSTYLE
  7
STANDARD
  9
$CLAYER
  8
0
  9
$CELTYPE
  6
BYLAYER
  9
$CECOLOR
 62
   256
  9
$DIMSCALE
 40
1.0
  9
$DIMASZ
 40
0.1875
  9
$DIMEXO
 40
0.0625
  9
$DIMDLI
 40
0.4443307087
  9
$DIMRND
 40
0.0
  9
$DIMDLE
 40
0.0
  9
$DIMEXE
 40
0.125
  9
$DIMTP
 40
0.01
  9
$DIMTM
 40
0.01
  9
$DIMTXT
 40
2.0
  9
$DIMCEN
 40
0.1052362205
  9
$DIMTSZ
 40
0.0
  9
$DIMTOL
 70
     1
  9
$DIMLIM
 70
     0
  9
$DIMTIH
 70
     1
  9
$DIMTOH
 70
     1
  9
$DIMSE1
 70
     0
  9
$DIMSE2
 70
     0
  9
$DIMTAD
 70
     0
  9
$DIMZIN
 70
     0
  9
$DIMBLK
  1

  9
$DIMASO
 70
     1
  9
$DIMSHO
 70
     1
  9
$DIMPOST
  1
\X
  9
$DIMAPOST
  1

  9
$DIMALT
 70
     1
  9
$DIMALTD
 70
     2
  9
$DIMALTF
 40
25.3999999999999986
  9
$DIMLFAC
 40
1.0
  9
$DIMTOFL
 70
     0
  9
$DIMTVP
 40
0.0
  9
$DIMTIX
 70
     0
  9
$DIMSOXD
 70
     0
  9
$DIMSAH
 70
     0
  9
$DIMBLK1
  1

  9
$DIMBLK2
  1

  9
$DIMSTYLE
  2
STANDARD
  9
$DIMCLRD
 70
     0
  9
$DIMCLRE
 70
     0
  9
$DIMCLRT
 70
     0
  9
$DIMTFAC
 40
1.0
  9
$DIMGAP
 40
0.09
  9
$LUNITS
 70
     2
  9
$LUPREC
 70
     4
  9
$SKETCHINC
 40
0.1
  9
$FILLETRAD
 40
0.0
  9
$AUNITS
 70
     0
  9
$AUPREC
 70
     0
  9
$MENU
  1
.
  9
$ELEVATION
 40
0.0
  9
$PELEVATION
 40
0.0
  9
$THICKNESS
 40
0.0
  9
$LIMCHECK
 70
     0
  9
$BLIPMODE
 70
     0
  9
$CHAMFERA
 40
0.0
  9
$CHAMFERB
 40
0.0
  9
$SKPOLY
 70
     0
  9
$TDCREATE
 40
2458060.468368056230247
  9
$TDUPDATE
 40
2459570.7526157409884036
  9
$TDINDWG
 40
0.4330278935
  9
$TDUSRTIMER
 40
0.4330278935
  9
$USRTIMER
 70
     1
  9
$ANGBASE
 50
0.0
  9
$ANGDIR
 70
     0
  9
$PDMODE
 70
     0
  9
$PDSIZE
 40
0.3125
  9
$PLINEWID
 40
0.0
  9
$COORDS
 70
     1
  9
$SPLFRAME
 70
     0
  9
$SPLINETYPE
 70
     6
  9
$SPLINESEGS
 70
     8
  9
$ATTDIA
 70
     1
  9
$ATTREQ
 70
     1
  9
$HANDLING
 70
     1
  9
$HANDSEED
  5
BEAF
  9
$SURFTAB1
 70
     6
  9
$SURFTAB2
 70
     6
  9
$SURFTYPE
 70
     6
  9
$SURFU
 70
     6
  9
$SURFV
 70
     6
  9
$UCSNAME
  2

  9
$UCSORG
 10
0.0
 20
0.0
 30
0.0
  9
$UCSXDIR
 10
1.0
 20
0.0
 30
0.0
  9
$UCSYDIR
 10
0.0
 20
1.0
 30
0.0
  9
$PUCSNAME
  2

  9
$PUCSORG
 10
0.0
 20
0.0
 30
0.0
  9
$PUCSXDIR
 10
1.0
 20
0.0
 30
0.0
  9
$PUCSYDIR
 10
0.0
 20
1.0
 30
0.0
  9
$USERI1
 70
     0
  9
$USERI2
 70
     0
  9
$USERI3
 70
     0
  9
$USERI4
 70
     0
  9
$USERI5
 70
     0
  9
$USERR1
 40
0.0
  9
$USERR2
 40
0.0
  9
$USERR3
 40
0.0
  9
$USERR4
 40
0.0
  9
$USERR5
 40
0.0
  9
$WORLDVIEW
 70
     1
  9
$SHADEDGE
 70
     3
  9
$SHADEDIF
 70
    70
  9
$TILEMODE
 70
     1
  9
$MAXACTVP
 70
    64
  9
$PLIMCHECK
 70
     0
  9
$PEXTMIN
 10
1.0000000000000000E+20
 20
1.0000000000000000E+20
 30
1.0000000000000000E+20
  9
$PEXTMAX
 10
-1.0000000000000000E+20
 20
-1.0000000000000000E+20
 30
-1.0000000000000000E+20
  9
$PLIMMIN
 10
0.0
 20
0.0
  9
$PLIMMAX
 10
12.0
 20
9.0
  9
$UNITMODE
 70
     0
  9
$VISRETAIN
 70
     1
  9
$PLINEGEN
 70
     0
  9
$PSLTSCALE
 70
     1
  0
ENDSEC
  0
SECTION
  2
TABLES
  0
TABLE
  2
VPORT
 70
     1
  0
VPORT
  2
*ACTIVE
 70
     0
 10
0.0
 20
0.0
 11
1.0
 21
1.0
 12
424.1567214866498716
 22
-68.9092409860551101
 13
0.0
 23
0.0
 14
1.0
 24
1.0
 15
0.0
 25
0.0
 16
0.0
 26
0.0
 36
5.1040778033513332
 17
3792.35791015625
 27
120.1806564331053977
 37
0.0
 40
3.5819895649890952
 41
2.344785276073619
 42
50.0
 43
0.0
 44
0.0
 50
0.0
 51
0.0
 71
     0
 72
   100
 73
     1
 74
     1
 75
     0
 76
     0
 77
     0
 78
     0
  0
ENDTAB
  0
TABLE
  2
LTYPE
 70
     2
  0
LTYPE
  2
CONTINUOUS
 70
     0
  3
Solid line
 72
    65
 73
     0
 40
0.0
  0
LTYPE
  2
PHANTOM2
 70
     0
  3
___ _ _ ___ _ _ ___ _ _ ___ _ _
 72
    65
 73
     6
 40
1.25
 49
0.625
 49
-0.125
 49
0.125
 49
-0.125
 49
0.125
 49
-0.125
  0
ENDTAB
  0
TABLE
  2
LAYER
 70
     2
  0
LAYER
  2
0
 70
     0
 62
   255
  6
CONTINUOUS
  0
LAYER
  2
DEFPOINTS
 70
     0
 62
     7
  6
CONTINUOUS
  0
ENDTAB
  0
TABLE
  2
STYLE
 70
     1
  0
STYLE
  2
STANDARD
 70
     0
 40
0.0
 41
0.8
 50
0.0
 71
     0
 42
0.2
  3
txt
  4

  0
ENDTAB
  0
TABLE
  2
VIEW
 70
     0
  0
ENDTAB
  0
TABLE
  2
UCS
 70
     0
  0
ENDTAB
  0
TABLE
  2
APPID
 70
     9
  0
APPID
  2
ACAD
 70
     0
  0
APPID
  2
ACAD_MLEADERVER
 70
     0
  0
APPID
  2
ACAD_EXEMPT_FROM_CAD_STANDARDS
 70
     0
  0
APPID
  2
ACAD_NAV_VCDISPLAY
 70
     0
  0
APPID
  2
ACAECLAYERSTANDARD
 70
     0
  0
APPID
  2
ACCMTRANSPARENCY
 70
     0
  0
APPID
  2
ACAD_DSTYLE_DIMJAG
 70
     0
  0
APPID
  2
ACAD_DSTYLE_DIMTALN
 70
     0
  0
APPID
  2
ACDBATTR
 70
     0
  0
ENDTAB
  0
TABLE
  2
DIMSTYLE
 70
     1
  0
DIMSTYLE
  2
STANDARD
 70
     0
  3

  4

  5

  6

  7

 40
1.0
 41
0.1875
 42
0.0625
 43
0.38
 44
0.125
 45
0.0
 46
0.0
 47
0.01
 48
0.01
140
0.15625
141
0.09
142
0.0
143
25.3999999999999986
144
1.0
145
0.0
146
1.0
147
0.09
 71
     1
 72
     0
 73
     1
 74
     1
 75
     0
 76
     0
 77
     0
 78
     4
170
     0
171
     2
172
     0
173
     0
174
     0
175
     0
176
     0
177
     0
178
     0
  0
ENDTAB
  0
ENDSEC
  0
SECTION
  2
BLOCKS
  0
BLOCK
  8
0
  2
$MODEL_SPACE
 70
     0
 10
0.0
 20
0.0
 30
0.0
  3
$MODEL_SPACE
  1

  0
ENDBLK
  5
21
  8
0
  0
BLOCK
 67
     1
  8
0
  2
$PAPER_SPACE
 70
     0
 10
0.0
 20
0.0
 30
0.0
  3
$PAPER_SPACE
  1

  0
ENDBLK
  5
1D
 67
     1
  8
0
  0
BLOCK
  8
0
  2
_FILLED
 70
     0
 10
0.0
 20
0.0
 30
0.0
  3
_FILLED
  1

  0
SOLID
  5
69B4
  8
0
  6
BYBLOCK
 62
     0
 10
0.0
 20
0.0
 30
0.0
 11
-1.0
 21
0.1666666667
 31
0.0
 12
-1.0
 22
-0.1666666667
 32
0.0
 13
-1.0
 23
-0.1666666667
 33
0.0
  0
ENDBLK
  5
69B5
  8
0
  6
BYBLOCK
 62
     0
  0
BLOCK
  8
0
  2
A$CDFAF6206
 70
     0
 10
0.0
 20
0.0
 30
0.0
  3
A$CDFAF6206
  1

  0
LINE
  5
6A0E
  8
0
 10
7.4646650085734834
 20
10.9287685970688493
 30
0.0
 11
7.4646650085734896
 21
10.8905784766688498
 31
0.0
  0
ARC
  5
6A0F
  8
0
 10
7.7269027075262349
 20
10.8926811525838598
 30
0.0
 40
0.2622461286616791
 50
180.4593995232625048
 51
217.0214027758331099
  0
LINE
  5
6A10
  8
0
 10
9.767814609867095
 20
10.9287685970688493
 30
0.0
 11
9.767814609867095
 21
10.8905433757650094
 31
0.0
  0
ARC
  5
6A11
  8
0
 10
9.5068669568548287
 20
10.8922438613003703
 30
0.0
 40
0.2609531936261092
 50
322.8847083717149076
 51
359.6266329125650145
  0
LINE
  5
6A12
  8
0
 10
7.517522606271406
 20
10.7347792678688396
 30
0.0
 11
9.7149570120691777
 21
10.7347792678688396
 31
0.0
  0
LINE
  5
6A13
  8
0
 10
7.4646650085734834
 20
10.9287685970688493
 30
0.0
 11
9.7678146123202936
 21
10.9287685970688493
 31
0.0
  0
ARC
  5
6A14
  8
0
 10
4.0826771419203629
 20
8.527951346868889
 30
0.0
 40
4.0826771653999172
 50
13.3117747050523896
 51
32.7200330051415591
  0
ARC
  5
6A15
  8
0
 10
4.0826771460567306
 20
8.5279513475907933
 30
0.0
 40
4.0826771612084691
 50
359.6656501984817851
 51
13.3117747085593798
  0
ARC
  5
6A16
  8
0
 10
13.1498041284835097
 20
8.5279508235212234
 30
0.0
 40
4.0826788382043553
 50
147.2799733478981068
 51
166.6882233021349862
  0
ARC
  5
6A17
  8
0
 10
13.1498064934207992
 20
8.5279506557033251
 30
0.0
 40
4.0826811782395342
 50
166.688228652086309
 51
180.3343397625230011
  0
LINE
  5
6A18
  8
0
 10
8.1652847935202928
 20
8.504127000268852
 30
0.0
 11
9.0671948248202892
 21
8.5041270002687881
 31
0.0
  0
LINE
  5
6A19
  8
0
 10
8.1652847935202786
 20
8.5041270002667204
 30
0.0
 11
8.1652847935202928
 21
8.3607006934688481
 31
0.0
  0
ARC
  5
6A1A
  8
0
 10
5.6196779630382627
 20
8.3631022096452732
 30
0.0
 40
2.545607963272567
 50
342.0511668832173768
 51
359.945947387132378
  0
LINE
  5
6A1B
  8
0
 10
9.0671948248202892
 20
8.5041270002687881
 30
0.0
 11
9.0671948248202892
 21
8.2885990108688503
 31
0.0
  0
ARC
  5
6A1C
  8
0
 10
9.4521885297801163
 20
7.9614488056228501
 30
0.0
 40
0.5052201595850959
 50
139.6436242991769916
 51
174.6757930071850069
  0
ARC
  5
6A1D
  8
0
 10
9.9238413395551746
 20
8.1492417579399508
 30
0.0
 40
0.9848265662939324
 50
188.2263441834095943
 51
209.5593615864376034
  0
ARC
  5
6A1E
  8
0
 10
8.0788764238271256
 20
7.5665710856463297
 30
0.0
 40
0.0393715937169877
 50
162.1669117288323037
 51
227.2023190037006088
  0
ARC
  5
6A1F
  8
0
 10
8.7223682141740682
 20
8.2079667397440517
 30
0.0
 40
0.947895137885075
 50
225.0018610752970858
 51
261.4598823366255829
  0
ARC
  5
6A20
  8
0
 10
8.6645157662702701
 20
8.1695128573935332
 30
0.0
 40
0.9027466462812931
 50
264.7303071214498118
 51
281.8608311947915013
  0
ARC
  5
6A21
  8
0
 10
8.6645157662698935
 20
8.1695128573999671
 30
0.0
 40
0.9027466462876658
 50
299.1741886792128753
 51
299.1743179154552195
  0
ARC
  5
6A22
  8
0
 10
9.0843330931590316
 20
7.4150554710086141
 30
0.0
 40
0.0393703053609601
 50
251.9700352025496954
 51
252.4698971938937859
  0
ARC
  5
6A23
  8
0
 10
9.0843330931590316
 20
7.4150554710086141
 30
0.0
 40
0.0393703053609601
 50
297.2453716727138726
 51
6.8376113572703074
  0
LINE
  5
6A24
  8
0
 10
9.0671948248202892
 20
7.663402160468852
 30
0.0
 11
9.1234233799329516
 21
7.419742732911689
 31
0.0
  0
ARC
  5
6A25
  8
0
 10
8.8843741880892395
 20
9.8961379890094676
 30
0.0
 40
2.5255097382132701
 50
263.792800240752797
 51
274.9514951129821156
  0
ARC
  5
6A26
  8
0
 10
8.8258167405968848
 20
9.2763025889666508
 30
0.0
 40
1.9029970832759311
 50
246.0108363320686067
 51
263.5276935074397215
  0
ARC
  5
6A27
  8
0
 10
8.607491361665744
 20
8.3225444804829642
 30
0.0
 40
1.064510137163637
 50
283.1717405874071005
 51
297.7022170607311864
  0
LINE
  5
6A28
  8
0
 10
9.0671948248202892
 20
8.2885990108688503
 30
0.0
 11
26.2014378595979593
 21
8.2885990108689942
 31
0.0
  0
LINE
  5
6A29
  8
0
 10
26.2014378595979913
 20
7.6634021604689053
 30
0.0
 11
9.0671948248202892
 21
7.6634021604688618
 31
0.0
  0
LINE
  5
6A2A
  8
0
 10
27.8039676758446994
 20
10.9287685970690802
 30
0.0
 11
27.8039676758446888
 21
10.8905784766690807
 31
0.0
  0
ARC
  5
6A2B
  8
0
 10
27.5417299768919399
 20
10.8926811525840801
 30
0.0
 40
0.2622461286616791
 50
322.9785972241680838
 51
359.5406004767386889
  0
LINE
  5
6A2C
  8
0
 10
25.5008180745510913
 20
10.9287685970690305
 30
0.0
 11
25.5008180745510913
 21
10.8905433757651799
 31
0.0
  0
ARC
  5
6A2D
  8
0
 10
25.7617657275633505
 20
10.8922438613005497
 30
0.0
 40
0.2609531936261092
 50
180.3733670874362929
 51
217.1152916282862861
  0
LINE
  5
6A2E
  8
0
 10
27.7511100781467803
 20
10.7347792678690706
 30
0.0
 11
25.5536756723490015
 21
10.7347792678690208
 31
0.0
  0
LINE
  5
6A2F
  8
0
 10
27.8039676758446888
 20
10.9287685970686006
 30
0.0
 11
25.5008180745510806
 21
10.9287685970686006
 31
0.0
  0
ARC
  5
6A30
  8
0
 10
31.1859555424978616
 20
8.5279513468691981
 30
0.0
 40
4.0826771653999172
 50
147.2799669948597057
 51
166.6882252949490066
  0
ARC
  5
6A31
  8
0
 10
31.185955538361501
 20
8.5279513475911024
 30
0.0
 40
4.0826771612084691
 50
166.6882252914419098
 51
180.3343498015194086
  0
ARC
  5
6A32
  8
0
 10
22.1188285559344706
 20
8.5279508235212251
 30
0.0
 40
4.0826788382046102
 50
13.3117766978667795
 51
32.7200266521023977
  0
ARC
  5
6A33
  8
0
 10
22.1188261909974315
 20
8.5279506557034264
 30
0.0
 40
4.0826811782395342
 50
359.665660237478221
 51
13.31177134791497
  0
LINE
  5
6A34
  8
0
 10
27.1033478908979397
 20
8.5041270002690652
 30
0.0
 11
26.2014378595979416
 21
8.5041270002689835
 31
0.0
  0
LINE
  5
6A35
  8
0
 10
27.1033478908979504
 20
8.5041270002669354
 30
0.0
 11
27.1033478908979397
 21
8.3607006934690649
 31
0.0
  0
ARC
  5
6A36
  8
0
 10
29.6489547213799689
 20
8.3631022096455467
 30
0.0
 40
2.545607963272567
 50
180.0540526128687873
 51
197.9488331167837032
  0
LINE
  5
6A37
  8
0
 10
26.2014378595979416
 20
8.5041270002689835
 30
0.0
 11
26.2014378595979487
 21
8.2885990108690457
 31
0.0
  0
ARC
  5
6A38
  8
0
 10
25.8164441546381305
 20
7.9614488056230366
 30
0.0
 40
0.5052201595850959
 50
5.324206992816312
 51
40.3563757008241879
  0
ARC
  5
6A39
  8
0
 10
25.3447913448601803
 20
8.149241757940846
 30
0.0
 40
0.9848265662968968
 50
330.4406384136033807
 51
351.7736558165743759
  0
ARC
  5
6A3A
  8
0
 10
27.1897562605911212
 20
7.5665710856465473
 30
0.0
 40
0.0393715937169877
 50
312.7976809963004143
 51
17.8330882711689185
  0
ARC
  5
6A3B
  8
0
 10
26.5462644702441715
 20
8.2079667397442542
 30
0.0
 40
0.947895137885075
 50
278.5401176633754972
 51
314.9981389247041079
  0
ARC
  5
6A3C
  8
0
 10
26.6041169181479695
 20
8.1695128573937392
 30
0.0
 40
0.9027466462812931
 50
258.139168805210204
 51
275.2696928785518935
  0
ARC
  5
6A3D
  8
0
 10
26.6041169181483497
 20
8.1695128574001732
 30
0.0
 40
0.9027466462876658
 50
240.8256820845460027
 51
240.8258113207880058
  0
ARC
  5
6A3E
  8
0
 10
26.1842995912592293
 20
7.4150554710088086
 30
0.0
 40
0.0393703053609601
 50
287.5301028061073794
 51
288.0299647974517825
  0
ARC
  5
6A3F
  8
0
 10
26.1842995912592293
 20
7.4150554710088086
 30
0.0
 40
0.0393703053609601
 50
173.1623886427310026
 51
242.7546283272870085
  0
LINE
  5
6A40
  8
0
 10
26.2014378595981192
 20
7.6634021604690448
 30
0.0
 11
26.1452093044853093
 21
7.4197427329118826
 31
0.0
  0
ARC
  5
6A41
  8
0
 10
26.384258496328961
 20
9.8961379890096666
 30
0.0
 40
2.5255097382132701
 50
265.0485048870193054
 51
276.2071997592482262
  0
ARC
  5
6A42
  8
0
 10
26.4428159438213299
 20
9.2763025889668516
 30
0.0
 40
1.9029970832759311
 50
276.4723064925619838
 51
293.9891636679327007
  0
ARC
  5
6A43
  8
0
 10
26.6611413227524885
 20
8.3225444804831703
 30
0.0
 40
1.064510137163637
 50
242.2977829392704052
 51
256.8282594125943774
  0
LINE
  5
6A44
  8
0
 62
     4
 10
17.9031473532159602
 20
10.9287685970686006
 30
0.0
 11
24.6329820359843588
 21
20.0952817181593808
 31
0.0
  0
LINE
  5
6A45
  8
0
 62
     4
 10
17.9031473532159602
 20
-0.0000000300842942
 30
0.0
 11
22.3963351323106608
 21
4.993614497796286
 31
0.0
  0
ENDBLK
  5
6A49
  8
0
  0
ENDSEC
  0
SECTION
  2
ENTITIES
  0
ATTDEF
  5
3930
  8
DEFPOINTS
 10
4216.6414689120565527
 20
52.5014162776806472
 30
0.0
 40
0.001
  1
K-99945BR-CL
  3

  2
MODELNUMBER
 70
     0
1001
ACDBATTR
1070
     0
1070
     1
  0
ATTDEF
  5
3931
  8
DEFPOINTS
 10
4216.6414689120565527
 20
52.4997496110139821
 30
0.0
 40
0.001
  1
CONTEMPORARY
  3

  2
TRADENAME
 70
     0
1001
ACDBATTR
1070
     0
1070
     1
  0
ATTDEF
  5
3932
  8
DEFPOINTS
 10
4216.6414689120565527
 20
52.4980829443473169
 30
0.0
 40
0.001
  1
SHOWERHEAD
  3

  2
PRODUCT
 70
     0
1001
ACDBATTR
1070
     0
1070
     1
  0
ARC
  5
B8C3
  8
0
 10
4216.1908468038282081
 20
51.7148440808940393
 30
0.0
 40
0.024863361105054
 50
190.339121909559907
 51
247.4366275935020951
  0
ARC
  5
B8C4
  8
0
 10
4216.2667794438993951
 20
51.6398259182864905
 30
0.0
 40
0.0196850394962499
 50
0.0000000883300593
 51
69.9999997944378407
  0
ARC
  5
B8C5
  8
0
 10
4216.6430319724531728
 20
52.9490632464800868
 30
0.0
 40
1.2667956891919401
 50
262.9357882727517222
 51
269.8988328207681775
  0
ARC
  5
B8C6
  8
0
 10
4216.4944044974708959
 20
51.768767239750801
 30
0.0
 40
0.0772165240647753
 50
244.1616904025628116
 51
264.6757251487542248
  0
ARC
  5
B8C7
  8
0
 10
4216.4665662665465788
 20
51.7128742398585786
 30
0.0
 40
0.0147948053861248
 50
189.6988907319139912
 51
246.8548452166702987
  0
ARC
  5
B8C8
  8
0
 10
4213.4153856039902166
 20
51.5760526468178426
 30
0.0
 40
2.8717870676497839
 50
358.7275379892865885
 51
1.272461920869935
  0
LINE
  5
B8C9
  8
0
 10
4216.1813066065196836
 20
51.6918838684080271
 30
0.0
 11
4216.2735121239293221
 21
51.6583238046413129
 31
0.0
  0
LINE
  5
B8CA
  8
0
 10
4216.1663871560449479
 20
51.7103817546168116
 30
0.0
 11
4216.451982927294921
 21
51.7103817546168116
 31
0.0
  0
LINE
  5
B8CB
  8
0
 10
4216.451982927294921
 20
51.7103817546168116
 30
0.0
 11
4216.451982927294921
 21
52.1828226995168194
 31
0.0
  0
LINE
  5
B8CC
  8
0
 10
4216.1663871560449479
 20
52.4977833294168406
 30
0.0
 11
4216.1663871560449479
 21
51.7103817546168472
 31
0.0
  0
ARC
  5
B8CD
  8
0
 10
4217.0944546827704471
 20
51.7118508951781592
 30
0.0
 40
0.0208004929032724
 50
286.2744280732619018
 51
355.9498220483566229
  0
ARC
  5
B8CE
  8
0
 10
4217.0148109400906833
 20
51.6398259182864905
 30
0.0
 40
0.0196850394962499
 50
110.0000002055621025
 51
179.999999911669903
  0
ARC
  5
B8CF
  8
0
 10
4216.6385584115378151
 20
52.9490632464800868
 30
0.0
 40
1.2667956891919401
 50
270.1011671792318225
 51
277.0642117272482778
  0
ARC
  5
B8D0
  8
0
 10
4216.7871858865191825
 20
51.768767239750801
 30
0.0
 40
0.0772165240647753
 50
275.3242748512457752
 51
295.8383095974372168
  0
ARC
  5
B8D1
  8
0
 10
4216.8150241174425901
 20
51.7128742398585786
 30
0.0
 40
0.0147948053861248
 50
293.1451547833295876
 51
350.3011092680860088
  0
ARC
  5
B8D2
  8
0
 10
4217.0148109399951863
 20
51.5122793708168203
 30
0.0
 40
0.0196850393999891
 50
179.9999999999901945
 51
223.515274052824708
  0
ARC
  5
B8D3
  8
0
 10
4216.6407951919945845
 20
51.1571621335169269
 30
0.0
 40
0.4960629920997779
 50
28.4368901582449709
 51
43.515274240305061
  0
ARC
  5
B8D4
  8
0
 10
4219.8662047799989523
 20
51.5760526468178426
 30
0.0
 40
2.8717870676497839
 50
178.7275380791301131
 51
181.2724620107134115
  0
LINE
  5
B8D5
  8
0
 10
4217.1002837774722138
 20
51.6918838684080271
 30
0.0
 11
4217.0080782600625753
 21
51.6583238046413129
 31
0.0
  0
LINE
  5
B8D6
  8
0
 10
4217.1152032280451749
 20
51.7103817546168116
 30
0.0
 11
4216.8296074566951575
 21
51.7103817546168116
 31
0.0
  0
LINE
  5
B8D7
  8
0
 10
4216.8296074566951575
 20
51.7103817546168116
 30
0.0
 11
4216.8296074566951575
 21
52.1828226995168194
 31
0.0
  0
LINE
  5
B8D8
  8
0
 10
4217.1152032280451749
 20
52.4977833294168406
 30
0.0
 11
4217.1152032280451749
 21
51.7103817546168472
 31
0.0
  0
LINE
  5
B8D9
  8
0
 10
4216.1663871560449479
 20
52.4977833294168406
 30
0.0
 11
4217.1152032280451749
 21
52.4977833294168903
 31
0.0
  0
LINE
  5
B8DA
  8
0
 10
4216.451982927294921
 20
52.1828226995168194
 30
0.0
 11
4216.8296074566951575
 21
52.1828226995168194
 31
0.0
  0
LINE
  5
B8DB
  8
0
 10
4216.2735121239920772
 20
51.6583238045808599
 30
0.0
 11
4217.0080782600625753
 21
51.6583238046413129
 31
0.0
  0
LINE
  5
B8DC
  8
0
 10
4216.2864644832952763
 20
51.5122793708168203
 30
0.0
 11
4216.9951259005947577
 21
51.5122793708168203
 31
0.0
  0
ARC
  5
B8DD
  8
0
 10
4216.6407951918954495
 20
51.1571621335169269
 30
0.0
 40
0.4960629920997779
 50
136.4847257596948964
 51
151.5631098417549936
  0
ARC
  5
B8DE
  8
0
 10
4216.2667797485846677
 20
51.5122792492338633
 30
0.0
 40
0.0196847347100017
 50
316.4843716586598248
 51
0.0003538879029303
  0
LINE
  5
B8DF
  8
0
 10
4215.9866503412549719
 20
51.3855085902168369
 30
0.0
 11
4217.2949400432953553
 21
51.3855085902168369
 31
0.0
  0
LINE
  5
B8E0
  8
0
 10
4216.1132361367954218
 20
51.3855085902168369
 30
0.0
 11
4216.1132361367954218
 21
51.393382606016857
 31
0.0
  0
LINE
  5
B8E1
  8
0
 10
4216.1132361369445789
 20
51.393382606016857
 30
0.0
 11
4217.1683542470946122
 21
51.393382606016857
 31
0.0
  0
LINE
  5
B8E2
  8
0
 10
4217.1683542470946122
 20
51.393382606016857
 30
0.0
 11
4217.1683542470946122
 21
51.3855085902168369
 31
0.0
  0
LINE
  5
B8E3
  8
0
 10
4215.8415825935462635
 20
50.5744849682168578
 30
0.0
 11
4215.8533936172452741
 21
50.58629599181684
 31
0.0
  0
LINE
  5
B8E4
  8
0
 10
4215.8533936172452741
 20
50.58629599181684
 30
0.0
 11
4217.4281967668448488
 21
50.58629599181684
 31
0.0
  0
LINE
  5
B8E5
  8
0
 10
4217.4281967668448488
 20
50.58629599181684
 30
0.0
 11
4217.4400077904456339
 21
50.5744849682168578
 31
0.0
  0
ARC
  5
B8E6
  8
0
 10
4215.9866503406947231
 20
51.3264534721168673
 30
0.0
 40
0.059055118099979
 50
89.9999994571679593
 51
175.5520296451520039
  0
ARC
  5
B8E7
  8
0
 10
4228.0525599916691135
 20
50.387867267139157
 30
0.0
 40
12.1614152089928993
 50
175.5520178174081991
 51
179.0651060940134869
  0
ARC
  5
B8E8
  8
0
 10
4217.2949400429706657
 20
51.3264534712910887
 30
0.0
 40
0.0590551189257482
 50
4.4481652033260648
 51
89.9999996862444362
  0
ARC
  5
B8E9
  8
0
 10
4205.2290302861301825
 20
50.3878672605143265
 30
0.0
 40
12.1614153153784894
 50
0.934893929023798
 51
4.4479822319042901
  0
LINE
  5
B8EA
  8
0
 10
4212.6519658665256429
 20
50.1600684875168596
 30
0.0
 11
4212.6450130488983632
 21
50.5584620956629678
 31
0.0
  0
ARC
  5
B8EB
  8
0
 10
4212.71101201872807
 20
50.1610991536603379
 30
0.0
 40
0.0590551467921865
 50
181.0000113720205945
 51
270.0427636275882719
  0
LINE
  5
B8EC
  8
0
 10
4220.6296245175435615
 20
50.1600684875168596
 30
0.0
 11
4220.6365785038451577
 21
50.5584620956629678
 31
0.0
  0
ARC
  5
B8ED
  8
0
 10
4220.5705783938592504
 20
50.1610991413821878
 30
0.0
 40
0.0590551180653258
 50
269.9999999862429263
 51
359.000000055673695
  0
ARC
  5
B8EE
  8
0
 10
4212.6623135228128376
 20
50.5572091122660368
 30
0.0
 40
0.0173457881031499
 50
95.1466552475791048
 51
175.8575973514905115
  0
ARC
  5
B8EF
  8
0
 10
4220.6193499976443491
 20
50.5572797212797127
 30
0.0
 40
0.0172690310990013
 50
3.9259934951536808
 51
85.0740064833259453
  0
LINE
  5
B8F0
  8
0
 10
4220.5705783938456079
 20
50.1020440233168571
 30
0.0
 11
4212.7110560954333778
 21
50.1020440233168571
 31
0.0
  0
LINE
  5
B8F1
  8
0
 10
4220.6208328708453337
 20
50.5744849682168578
 30
0.0
 11
4212.6607575131456542
 21
50.5744849682168578
 31
0.0
  0
CIRCLE
  5
B8F2
  8
0
 10
4216.6409293096448891
 20
51.5725864790168629
 30
0.0
 40
0.0236220472
  0
LINE
  5
B8F3
  8
0
 10
4219.6621213493463074
 20
50.0497670698168307
 30
0.0
 11
4219.6694683959758549
 21
50.1020440233168571
 31
0.0
  0
LINE
  5
B8F4
  8
0
 10
4219.5539169189451059
 20
50.0497670698168307
 30
0.0
 11
4219.5465698721964145
 21
50.1020440233168571
 31
0.0
  0
LINE
  5
B8F5
  8
0
 10
4219.5617152601453199
 20
50.0429889052168591
 30
0.0
 11
4219.6543239629454547
 21
50.0429889052168591
 31
0.0
  0
ARC
  5
B8F6
  8
0
 10
4219.6543239628936135
 20
50.050862921054069
 30
0.0
 40
0.0078740158372241
 50
270.0000003732653795
 51
351.9999997343651899
  0
ARC
  5
B8F7
  8
0
 10
4219.5617143053550535
 20
50.050862920976968
 30
0.0
 40
0.0078740158179833
 50
188.0000003210166994
 51
270.0069475854604093
  0
LINE
  5
B8F8
  8
0
 10
4219.3226096083953962
 20
50.0497670698168307
 30
0.0
 11
4219.3299566550258533
 21
50.1020440233168571
 31
0.0
  0
LINE
  5
B8F9
  8
0
 10
4219.2144051779960137
 20
50.0497670698168307
 30
0.0
 11
4219.2070581312464128
 21
50.1020440233168571
 31
0.0
  0
ARC
  5
B8FA
  8
0
 10
4219.3148122219427023
 20
50.050862921054069
 30
0.0
 40
0.0078740158372241
 50
270.0000003732653795
 51
351.9999997343651899
  0
ARC
  5
B8FB
  8
0
 10
4219.2222025644059613
 20
50.050862920976968
 30
0.0
 40
0.0078740158179833
 50
188.0000003210166994
 51
270.0069475854604093
  0
LINE
  5
B8FC
  8
0
 10
4219.2047829351449764
 20
50.0497670698168307
 30
0.0
 11
4219.2095942952528276
 21
50.0840016760806535
 31
0.0
  0
LINE
  5
B8FD
  8
0
 10
4219.0965785047446843
 20
50.0497670698168307
 30
0.0
 11
4219.089231457995993
 21
50.1020440233168571
 31
0.0
  0
LINE
  5
B8FE
  8
0
 10
4219.1043768459448984
 20
50.0429889052168591
 30
0.0
 11
4219.3147968318453422
 21
50.0429889052168591
 31
0.0
  0
ARC
  5
B8FF
  8
0
 10
4219.1969855486941015
 20
50.050862921054069
 30
0.0
 40
0.0078740158372241
 50
270.0000003732653795
 51
351.9999997343651899
  0
ARC
  5
B900
  8
0
 10
4219.104375891154632
 20
50.050862920976968
 30
0.0
 40
0.0078740158179833
 50
188.0000003210166994
 51
270.0069475854604093
  0
LINE
  5
B901
  8
0
 10
4218.6437158274457033
 20
50.0497670698168307
 30
0.0
 11
4218.6510628740761604
 21
50.1020440233168571
 31
0.0
  0
LINE
  5
B902
  8
0
 10
4218.5355113970454113
 20
50.0497670698168307
 30
0.0
 11
4218.5338864406940047
 21
50.0613292349215797
 31
0.0
  0
LINE
  5
B903
  8
0
 10
4218.5433097382456253
 20
50.0429889052168591
 30
0.0
 11
4218.6359184410439411
 21
50.0429889052168591
 31
0.0
  0
ARC
  5
B904
  8
0
 10
4218.6359184409939189
 20
50.050862921054069
 30
0.0
 40
0.0078740158372241
 50
270.0000003732653795
 51
351.9999997343651899
  0
ARC
  5
B905
  8
0
 10
4218.5433087834562684
 20
50.050862920976968
 30
0.0
 40
0.0078740158179833
 50
188.0000003210166994
 51
270.0069475854604093
  0
LINE
  5
B906
  8
0
 10
4218.4180425156118872
 20
50.0493486755405996
 30
0.0
 11
4218.4106954688622864
 21
50.1016256290406332
 31
0.0
  0
ARC
  5
B907
  8
0
 10
4218.4257902606632342
 20
50.0508879068679065
 30
0.0
 40
0.007899163693293
 50
191.2365480513080058
 51
270.3669965105174811
  0
LINE
  5
B908
  8
0
 10
4218.3189126778452192
 20
50.0497670698168307
 30
0.0
 11
4218.3262597244756762
 21
50.1020440233168571
 31
0.0
  0
LINE
  5
B909
  8
0
 10
4218.2107082474449271
 20
50.0497670698168307
 30
0.0
 11
4218.2033612006953263
 21
50.1020440233168571
 31
0.0
  0
LINE
  5
B90A
  8
0
 10
4218.2185065886451412
 20
50.0429889052168591
 30
0.0
 11
4218.3111152914452759
 21
50.0429889052168591
 31
0.0
  0
ARC
  5
B90B
  8
0
 10
4218.3111152913952537
 20
50.050862921054069
 30
0.0
 40
0.0078740158372241
 50
270.0000003732653795
 51
351.9999997343651899
  0
ARC
  5
B90C
  8
0
 10
4218.2185056338548748
 20
50.050862920976968
 30
0.0
 40
0.0078740158179833
 50
188.0000003210166994
 51
270.0069475854604093
  0
LINE
  5
B90D
  8
0
 10
4218.1877788169949781
 20
50.0497670698168307
 30
0.0
 11
4218.1951258636272541
 21
50.1020440233168571
 31
0.0
  0
LINE
  5
B90E
  8
0
 10
4218.0795743865946861
 20
50.0497670698168307
 30
0.0
 11
4218.0722273398450852
 21
50.1020440233168571
 31
0.0
  0
LINE
  5
B90F
  8
0
 10
4218.0873727277939906
 20
50.0429889052168591
 30
0.0
 11
4218.1799814305950349
 21
50.0429889052168591
 31
0.0
  0
ARC
  5
B910
  8
0
 10
4218.1799814305441032
 20
50.050862921054069
 30
0.0
 40
0.0078740158372241
 50
270.0000003732653795
 51
351.9999997343651899
  0
ARC
  5
B911
  8
0
 10
4218.0873717730046337
 20
50.050862920976968
 30
0.0
 40
0.0078740158179833
 50
188.0000003210166994
 51
270.0069475854604093
  0
LINE
  5
B912
  8
0
 10
4217.9941032011447533
 20
50.0497670698168307
 30
0.0
 11
4218.0014502477761198
 21
50.1020440233168571
 31
0.0
  0
LINE
  5
B913
  8
0
 10
4217.8858987707453707
 20
50.0497670698168307
 30
0.0
 11
4217.8785517239957699
 21
50.1020440233168571
 31
0.0
  0
LINE
  5
B914
  8
0
 10
4217.8936971119455848
 20
50.0429889052168591
 30
0.0
 11
4217.9863058147457195
 21
50.0429889052168591
 31
0.0
  0
ARC
  5
B915
  8
0
 10
4217.9863058146938783
 20
50.050862921054069
 30
0.0
 40
0.0078740158372241
 50
270.0000003732653795
 51
351.9999997343651899
  0
ARC
  5
B916
  8
0
 10
4217.8936961571562279
 20
50.050862920976968
 30
0.0
 40
0.0078740158179833
 50
188.0000003210166994
 51
270.0069475854604093
  0
LINE
  5
B917
  8
0
 10
4217.8200553207452685
 20
50.0497670698168307
 30
0.0
 11
4217.8274023673757256
 21
50.1020440233168571
 31
0.0
  0
LINE
  5
B918
  8
0
 10
4217.7118508903449765
 20
50.0497670698168307
 30
0.0
 11
4217.7052223753171347
 21
50.0969314045112384
 31
0.0
  0
LINE
  5
B919
  8
0
 10
4217.7196492315451906
 20
50.0429889052168591
 30
0.0
 11
4217.8122579343453253
 21
50.0429889052168591
 31
0.0
  0
ARC
  5
B91A
  8
0
 10
4217.8122579342943936
 20
50.050862921054069
 30
0.0
 40
0.0078740158372241
 50
270.0000003732653795
 51
351.9999997343651899
  0
ARC
  5
B91B
  8
0
 10
4217.7196482767549242
 20
50.050862920976968
 30
0.0
 40
0.0078740158179833
 50
188.0000003210166994
 51
270.0069475854604093
  0
LINE
  5
B91C
  8
0
 10
4217.6985938603947943
 20
50.0497670698168307
 30
0.0
 11
4217.7059409070270704
 21
50.1020440233168571
 31
0.0
  0
LINE
  5
B91D
  8
0
 10
4217.5903894299963213
 20
50.0497670698168307
 30
0.0
 11
4217.5830423832449014
 21
50.1020440233168571
 31
0.0
  0
ARC
  5
B91E
  8
0
 10
4217.6907964739439194
 20
50.050862921054069
 30
0.0
 40
0.0078740158372241
 50
270.0000003732653795
 51
351.9999997343651899
  0
ARC
  5
B91F
  8
0
 10
4217.5981868164062689
 20
50.050862920976968
 30
0.0
 40
0.0078740158179833
 50
188.0000003210166994
 51
270.0069475854604093
  0
LINE
  5
B920
  8
0
 10
4217.0344086707464157
 20
50.0497670698168307
 30
0.0
 11
4217.0417557173768728
 21
50.1020440233168571
 31
0.0
  0
LINE
  5
B921
  8
0
 10
4216.9251231797752553
 20
50.0496151366639026
 30
0.0
 11
4216.9177761330247449
 21
50.101892090163922
 31
0.0
  0
LINE
  5
B922
  8
0
 10
4216.919294467626969
 20
50.0429889051168999
 30
0.0
 11
4217.0266112843446535
 21
50.0429889052168591
 31
0.0
  0
ARC
  5
B923
  8
0
 10
4217.0266112842937218
 20
50.050862921054069
 30
0.0
 40
0.0078740158372241
 50
270.0000003732653795
 51
351.9999997343651899
  0
ARC
  5
B924
  8
0
 10
4216.9329004163855643
 20
50.050866075555362
 30
0.0
 40
0.0078771986102572
 50
189.1375442628500991
 51
270.1535070212615892
  0
LINE
  5
B925
  8
0
 10
4216.6948969297945951
 20
50.0497670698168307
 30
0.0
 11
4216.7022439764268711
 21
50.1020440233168571
 31
0.0
  0
LINE
  5
B926
  8
0
 10
4216.5866924993952125
 20
50.0497670698168307
 30
0.0
 11
4216.5793454526456117
 21
50.1020440233168571
 31
0.0
  0
LINE
  5
B927
  8
0
 10
4216.5944908405954266
 20
50.0429889052168591
 30
0.0
 11
4216.6870995433946518
 21
50.0429889052168591
 31
0.0
  0
ARC
  5
B928
  8
0
 10
4216.6870995433428106
 20
50.050862921054069
 30
0.0
 40
0.0078740158372241
 50
270.0000003732653795
 51
351.9999997343651899
  0
ARC
  5
B929
  8
0
 10
4216.5944898858060697
 20
50.050862920976968
 30
0.0
 40
0.0078740158179833
 50
188.0000003210166994
 51
270.0069475854604093
  0
LINE
  5
B92A
  8
0
 10
4216.3553851888946156
 20
50.0497670698168307
 30
0.0
 11
4216.3627322355259821
 21
50.1020440233168571
 31
0.0
  0
LINE
  5
B92B
  8
0
 10
4216.247180758495233
 20
50.0497670698168307
 30
0.0
 11
4216.2398337117447227
 21
50.1020440233168571
 31
0.0
  0
ARC
  5
B92C
  8
0
 10
4216.3475878024428312
 20
50.050862921054069
 30
0.0
 40
0.0078740158372241
 50
270.0000003732653795
 51
351.9999997343651899
  0
ARC
  5
B92D
  8
0
 10
4216.2549781449051807
 20
50.050862920976968
 30
0.0
 40
0.0078740158179833
 50
188.0000003210166994
 51
270.0069475854604093
  0
LINE
  5
B92E
  8
0
 10
4215.5697558854953968
 20
50.0497670698168307
 30
0.0
 11
4215.5763759658548224
 21
50.0968713894904312
 31
0.0
  0
LINE
  5
B92F
  8
0
 10
4215.4615514550951048
 20
50.0497670698168307
 30
0.0
 11
4215.4542044083464134
 21
50.1020440233168571
 31
0.0
  0
LINE
  5
B930
  8
0
 10
4215.4693497962953188
 20
50.0429889052168591
 30
0.0
 11
4215.5619584990963631
 21
50.0429889052168591
 31
0.0
  0
ARC
  5
B931
  8
0
 10
4215.5619584990427029
 20
50.050862921054069
 30
0.0
 40
0.0078740158372241
 50
270.0000003732653795
 51
351.9999997343651899
  0
ARC
  5
B932
  8
0
 10
4215.4693488415059619
 20
50.050862920976968
 30
0.0
 40
0.0078740158179833
 50
188.0000003210166994
 51
270.0069475854604093
  0
LINE
  5
B933
  8
0
 10
4215.6911999992953497
 20
50.0497670698168307
 30
0.0
 11
4215.6985470459267162
 21
50.1020440233168571
 31
0.0
  0
LINE
  5
B934
  8
0
 10
4215.5829955688950577
 20
50.0497670698168307
 30
0.0
 11
4215.5756485221463663
 21
50.1020440233168571
 31
0.0
  0
LINE
  5
B935
  8
0
 10
4215.5907939100952717
 20
50.0429889052168591
 30
0.0
 11
4215.7126905720379
 21
50.0429889050668706
 31
0.0
  0
ARC
  5
B936
  8
0
 10
4215.6834026128426558
 20
50.050862921054069
 30
0.0
 40
0.0078740158372241
 50
270.0000003732653795
 51
351.9999997343651899
  0
ARC
  5
B937
  8
0
 10
4215.5907929553059148
 20
50.050862920976968
 30
0.0
 40
0.0078740158179833
 50
188.0000003210166994
 51
270.0069475854604093
  0
LINE
  5
B938
  8
0
 10
4215.3956922364450293
 20
50.0497670698168307
 30
0.0
 11
4215.4030392830763958
 21
50.1020440233168571
 31
0.0
  0
LINE
  5
B939
  8
0
 10
4215.2874878060456467
 20
50.0497670698168307
 30
0.0
 11
4215.2801407592960459
 21
50.1020440233168571
 31
0.0
  0
LINE
  5
B93A
  8
0
 10
4215.2952861472440418
 20
50.0429889052168591
 30
0.0
 11
4215.3878948500450861
 21
50.0429889052168591
 31
0.0
  0
ARC
  5
B93B
  8
0
 10
4215.3878948499941544
 20
50.050862921054069
 30
0.0
 40
0.0078740158372241
 50
270.0000003732653795
 51
351.9999997343651899
  0
ARC
  5
B93C
  8
0
 10
4215.2952851924555944
 20
50.050862920976968
 30
0.0
 40
0.0078740158179833
 50
188.0000003210170973
 51
270.0069475854604093
  0
LINE
  5
B93D
  8
0
 10
4215.2020150426451437
 20
50.0497670698168307
 30
0.0
 11
4215.2093620892756007
 21
50.1020440233168571
 31
0.0
  0
LINE
  5
B93E
  8
0
 10
4215.0938106122439422
 20
50.0497670698168307
 30
0.0
 11
4215.0864635654961603
 21
50.1020440233168571
 31
0.0
  0
LINE
  5
B93F
  8
0
 10
4215.1016089534450657
 20
50.0429889052168591
 30
0.0
 11
4215.1942176562452005
 21
50.0429889052168591
 31
0.0
  0
ARC
  5
B940
  8
0
 10
4215.1942176561942688
 20
50.050862921054069
 30
0.0
 40
0.0078740158372241
 50
270.0000003732653795
 51
351.9999997343651899
  0
ARC
  5
B941
  8
0
 10
4215.1016079986547993
 20
50.050862920976968
 30
0.0
 40
0.0078740158179833
 50
188.0000003210166994
 51
270.0069475854604093
  0
LINE
  5
B942
  8
0
 10
4215.0708868906449425
 20
50.0497670698168307
 30
0.0
 11
4215.0782339372772185
 21
50.1020440233168571
 31
0.0
  0
LINE
  5
B943
  8
0
 10
4214.9626824602446504
 20
50.0497670698168307
 30
0.0
 11
4214.9553354134950496
 21
50.1020440233168571
 31
0.0
  0
LINE
  5
B944
  8
0
 10
4214.970480801443955
 20
50.0429889052168591
 30
0.0
 11
4215.0630895042449993
 21
50.0429889052168591
 31
0.0
  0
ARC
  5
B945
  8
0
 10
4215.0630895041940676
 20
50.050862921054069
 30
0.0
 40
0.0078740158372241
 50
270.0000003732653795
 51
351.9999997343651899
  0
ARC
  5
B946
  8
0
 10
4214.9704798466545981
 20
50.050862920976968
 30
0.0
 40
0.0078740158179833
 50
188.0000003210166994
 51
270.0069475854604093
  0
LINE
  5
B947
  8
0
 10
4214.8575335826453738
 20
50.0497670698168307
 30
0.0
 11
4214.8648806292767404
 21
50.1020440233168571
 31
0.0
  0
LINE
  5
B948
  8
0
 10
4214.7493291522450818
 20
50.0497670698168307
 30
0.0
 11
4214.7419821054963904
 21
50.1020440233168571
 31
0.0
  0
LINE
  5
B949
  8
0
 10
4214.7571274934452958
 20
50.0429889052168591
 30
0.0
 11
4214.8558092834582567
 21
50.0429889050848971
 31
0.0
  0
ARC
  5
B94A
  8
0
 10
4214.8497361961926799
 20
50.050862921054069
 30
0.0
 40
0.0078740158372241
 50
270.0000003732653795
 51
351.9999997343651899
  0
ARC
  5
B94B
  8
0
 10
4214.7571265386559389
 20
50.050862920976968
 30
0.0
 40
0.0078740158179833
 50
188.0000003210166994
 51
270.0069475854604093
  0
LINE
  5
B94C
  8
0
 10
4214.746078032195328
 20
50.0497670698168307
 30
0.0
 11
4214.7477035922065625
 21
50.0613335303852267
 31
0.0
  0
LINE
  5
B94D
  8
0
 10
4214.6378736017950359
 20
50.0497670698168307
 30
0.0
 11
4214.6305265550472541
 21
50.1020440233168571
 31
0.0
  0
LINE
  5
B94E
  8
0
 10
4214.64567194299525
 20
50.0429889052168591
 30
0.0
 11
4214.7382806457962943
 21
50.0429889052168591
 31
0.0
  0
ARC
  5
B94F
  8
0
 10
4214.7382806457426341
 20
50.050862921054069
 30
0.0
 40
0.0078740158372241
 50
270.0000003732653795
 51
351.9999997343651899
  0
ARC
  5
B950
  8
0
 10
4214.6456709882058931
 20
50.050862920976968
 30
0.0
 40
0.0078740158179833
 50
188.0000003210166994
 51
270.0069475854604093
  0
LINE
  5
B951
  8
0
 10
4214.1850114018598106
 20
50.0497670696915478
 30
0.0
 11
4214.1923584484911771
 21
50.1020440231915671
 31
0.0
  0
LINE
  5
B952
  8
0
 10
4214.076806971458609
 20
50.0497670696915478
 30
0.0
 11
4214.0719956113052831
 21
50.0840016757387119
 31
0.0
  0
LINE
  5
B953
  8
0
 10
4214.0846053126597326
 20
50.0429889050915691
 30
0.0
 11
4214.1772140154589579
 21
50.0429889050915691
 31
0.0
  0
ARC
  5
B954
  8
0
 10
4214.1772140154080262
 20
50.0508629209287932
 30
0.0
 40
0.0078740158372241
 50
270.0000003732653795
 51
351.9999997343651899
  0
ARC
  5
B955
  8
0
 10
4214.0846043578712852
 20
50.0508629208516709
 30
0.0
 40
0.0078740158179833
 50
188.0000003210166994
 51
270.0069475854604093
  0
LINE
  5
B956
  8
0
 10
4214.0671842512447256
 20
50.0497670698168307
 30
0.0
 11
4214.0745312978770016
 21
50.1020440233168571
 31
0.0
  0
LINE
  5
B957
  8
0
 10
4213.9589798208453431
 20
50.0497670698168307
 30
0.0
 11
4213.9516327740957422
 21
50.1020440233168571
 31
0.0
  0
LINE
  5
B958
  8
0
 10
4213.9667781620446476
 20
50.0429889052168591
 30
0.0
 11
4214.0593868648447824
 21
50.0429889052168591
 31
0.0
  0
ARC
  5
B959
  8
0
 10
4214.0593868647938507
 20
50.050862921054069
 30
0.0
 40
0.0078740158372241
 50
270.0000003732653795
 51
351.9999997343651899
  0
ARC
  5
B95A
  8
0
 10
4213.9667772072562002
 20
50.050862920976968
 30
0.0
 40
0.0078740158179833
 50
188.0000003210166994
 51
270.0069475854604093
  0
LINE
  5
B95B
  8
0
 10
4213.5178427148803166
 20
50.0497670697971273
 30
0.0
 11
4213.5251897615116832
 21
50.1020440232971609
 31
0.0
  0
LINE
  5
B95C
  8
0
 10
4213.4096382844800246
 20
50.0497670697971273
 30
0.0
 11
4213.4022912377304237
 21
50.1020440232971609
 31
0.0
  0
LINE
  5
B95D
  8
0
 10
4213.3464593445823994
 20
50.0429889051791434
 30
0.0
 11
4213.5100453284803734
 21
50.0429889051971486
 31
0.0
  0
ARC
  5
B95E
  8
0
 10
4213.5100453284294417
 20
50.0508629210343585
 30
0.0
 40
0.0078740158372241
 50
270.0000003732653795
 51
351.9999997343651899
  0
ARC
  5
B95F
  8
0
 10
4213.4174356708908817
 20
50.0508629209572504
 30
0.0
 40
0.0078740158179833
 50
188.0000003210166994
 51
270.0069475854604093
  0
LINE
  5
B960
  8
0
 10
4213.3386610033821853
 20
50.0497670697791008
 30
0.0
 11
4213.3313139566325844
 21
50.1020440232791273
 31
0.0
  0
ARC
  5
B961
  8
0
 10
4213.3464583897930424
 20
50.0508629209392382
 30
0.0
 40
0.0078740158179833
 50
188.0000003210166994
 51
270.0069475854604093
  0
LINE
  5
B962
  8
0
 10
4213.7276725102829005
 20
50.0497670697791008
 30
0.0
 11
4213.735019556914267
 21
50.1020440232791273
 31
0.0
  0
LINE
  5
B963
  8
0
 10
4213.6194680798816989
 20
50.0497670697791008
 30
0.0
 11
4213.6121210331330076
 21
50.1020440232791273
 31
0.0
  0
LINE
  5
B964
  8
0
 10
4213.6272664210828225
 20
50.0429889051791292
 30
0.0
 11
4213.7198751238820478
 21
50.0429889051791292
 31
0.0
  0
ARC
  5
B965
  8
0
 10
4213.7198751238311161
 20
50.0508629210163392
 30
0.0
 40
0.0078740158372241
 50
270.0000003732653795
 51
351.9999997343651899
  0
ARC
  5
B966
  8
0
 10
4213.6272654662943751
 20
50.0508629209392382
 30
0.0
 40
0.0078740158179833
 50
188.0000003210166994
 51
270.0069475854604093
  0
LINE
  5
B967
  8
0
 10
4214.3363907465445664
 20
50.0497670697168573
 30
0.0
 11
4214.3290436997949655
 21
50.1020440232168767
 31
0.0
  0
LINE
  5
B968
  8
0
 10
4214.3441890877447804
 20
50.0429889051168786
 30
0.0
 11
4214.5137257347450941
 21
50.0429889052168591
 31
0.0
  0
ARC
  5
B969
  8
0
 10
4214.344188132956333
 20
50.0508629208770017
 30
0.0
 40
0.0078740158179833
 50
188.0000003210166994
 51
270.0069475854604093
  0
LINE
  5
B96A
  8
0
 10
4214.5215401227451366
 20
50.0497670697168573
 30
0.0
 11
4214.5288871693755937
 21
50.1020440232168767
 31
0.0
  0
LINE
  5
B96B
  8
0
 10
4214.4133356923439351
 20
50.0497670697168573
 30
0.0
 11
4214.4059886455961532
 21
50.1020440232168767
 31
0.0
  0
ARC
  5
B96C
  8
0
 10
4214.5137427362942617
 20
50.0508629209541027
 30
0.0
 40
0.0078740158372241
 50
270.0000003732653795
 51
351.9999997343651899
  0
ARC
  5
B96D
  8
0
 10
4214.4211330787547922
 20
50.0508629208770017
 30
0.0
 40
0.0078740158179833
 50
188.0000003210166994
 51
270.0069475854604093
  0
LINE
  5
B96E
  8
0
 10
4216.0223754790276871
 20
50.0497670697168573
 30
0.0
 11
4216.0297225256590536
 21
50.1020440232168767
 31
0.0
  0
LINE
  5
B96F
  8
0
 10
4215.9141710486273951
 20
50.0497670697168573
 30
0.0
 11
4215.9068240018768847
 21
50.1020440232168767
 31
0.0
  0
ARC
  5
B970
  8
0
 10
4216.0145780925749932
 20
50.0508629209541027
 30
0.0
 40
0.0078740158372241
 50
270.0000003732653795
 51
351.9999997343651899
  0
ARC
  5
B971
  8
0
 10
4215.9219684350382522
 20
50.0508629208770017
 30
0.0
 40
0.0078740158179833
 50
188.0000003210166994
 51
270.0069475854604093
  0
LINE
  5
B972
  8
0
 10
4216.9114961264267549
 20
50.0497670697168573
 30
0.0
 11
4216.9041490796771541
 21
50.1020440232168767
 31
0.0
  0
ARC
  5
B973
  8
0
 10
4216.9192935128367026
 20
50.0508629208770017
 30
0.0
 40
0.0078740158179833
 50
188.0000003210166994
 51
270.0069475854604093
  0
LINE
  5
B974
  8
0
 10
4217.236299276045429
 20
50.0497670697168573
 30
0.0
 11
4217.2289522292949187
 21
50.1020440232168767
 31
0.0
  0
LINE
  5
B975
  8
0
 10
4217.2440976172447336
 20
50.0429889051168786
 30
0.0
 11
4217.359621948991844
 21
50.0429889051228116
 31
0.0
  0
ARC
  5
B976
  8
0
 10
4217.2440966624562861
 20
50.0508629208770017
 30
0.0
 40
0.0078740158179833
 50
188.0000003210166994
 51
270.0069475854604093
  0
LINE
  5
B977
  8
0
 10
4217.3674193354436284
 20
50.0497670697227903
 30
0.0
 11
4217.3747663820759044
 21
50.1020440232228168
 31
0.0
  0
LINE
  5
B978
  8
0
 10
4217.2592149050442458
 20
50.0497670697227903
 30
0.0
 11
4217.251867858294645
 21
50.1020440232228168
 31
0.0
  0
ARC
  5
B979
  8
0
 10
4217.359621948991844
 20
50.0508629209600215
 30
0.0
 40
0.0078740158372241
 50
270.0000003732653795
 51
351.9999997343651899
  0
ARC
  5
B97A
  8
0
 10
4217.267012291455103
 20
50.0508629208829205
 30
0.0
 40
0.0078740158179833
 50
188.0000003210166994
 51
270.0069475854604093
  0
LINE
  5
B97B
  8
0
 10
4217.5611024257277677
 20
50.0497670697168573
 30
0.0
 11
4217.5537553789781668
 21
50.1020440232168767
 31
0.0
  0
LINE
  5
B97C
  8
0
 10
4217.5689007669261628
 20
50.0429889051168786
 30
0.0
 11
4217.6907942660445769
 21
50.0429889052168591
 31
0.0
  0
ARC
  5
B97D
  8
0
 10
4217.5688998121377153
 20
50.0508629208770017
 30
0.0
 40
0.0078740158179833
 50
188.0000003210166994
 51
270.0069475854604093
  0
LINE
  5
B97E
  8
0
 10
4218.8682546917243599
 20
50.0497670697348767
 30
0.0
 11
4218.8756017383557264
 21
50.1020440232349102
 31
0.0
  0
LINE
  5
B97F
  8
0
 10
4218.7600502613249773
 20
50.0497670697348767
 30
0.0
 11
4218.7527032145753765
 21
50.1020440232349102
 31
0.0
  0
ARC
  5
B980
  8
0
 10
4218.8604573052725755
 20
50.0508629209721221
 30
0.0
 40
0.0078740158372241
 50
270.0000003732653795
 51
351.9999997343651899
  0
ARC
  5
B981
  8
0
 10
4218.767847647734925
 20
50.0508629208950069
 30
0.0
 40
0.0078740158179833
 50
188.0000003210166994
 51
270.0069475854604093
  0
LINE
  5
B982
  8
0
 10
4219.8719516222454331
 20
50.0497670697168573
 30
0.0
 11
4219.8792986688758901
 21
50.1020440232168767
 31
0.0
  0
LINE
  5
B983
  8
0
 10
4219.7637471918451411
 20
50.0497670697168573
 30
0.0
 11
4219.7564001450964497
 21
50.1020440232168767
 31
0.0
  0
LINE
  5
B984
  8
0
 10
4219.7715455330453551
 20
50.0429889051168786
 30
0.0
 11
4219.9351315169551526
 21
50.0429889052168591
 31
0.0
  0
ARC
  5
B985
  8
0
 10
4219.8641542357936487
 20
50.0508629209541027
 30
0.0
 40
0.0078740158372241
 50
270.0000003732653795
 51
351.9999997343651899
  0
ARC
  5
B986
  8
0
 10
4219.7715445782559982
 20
50.0508629208770017
 30
0.0
 40
0.0078740158179833
 50
188.0000003210166994
 51
270.0069475854604093
  0
LINE
  5
B987
  8
0
 10
4219.9429015295372665
 20
50.0497670696668635
 30
0.0
 11
4219.950248576170452
 21
50.1020440231668829
 31
0.0
  0
ARC
  5
B988
  8
0
 10
4219.9351041430873011
 20
50.0508629209041018
 30
0.0
 40
0.0078740158372241
 50
270.0000003732653795
 51
351.9999997343651899
  0
LINE
  5
B989
  8
0
 10
4218.945199637456426
 20
50.0497670696668635
 30
0.0
 11
4218.9525466840877925
 21
50.1020440231668829
 31
0.0
  0
LINE
  5
B98A
  8
0
 10
4218.7678486025251914
 20
50.0429889051349193
 30
0.0
 11
4218.9374022510555733
 21
50.0429889050668777
 31
0.0
  0
ARC
  5
B98B
  8
0
 10
4218.9374022510037321
 20
50.0508629209041018
 30
0.0
 40
0.0078740158372241
 50
270.0000003732653795
 51
351.9999997343651899
  0
LINE
  5
B98C
  8
0
 10
4218.5322614842561961
 20
50.0497670696668635
 30
0.0
 11
4218.5396085308866532
 21
50.1020440231668829
 31
0.0
  0
LINE
  5
B98D
  8
0
 10
4218.4240570538559041
 20
50.0497670696668635
 30
0.0
 11
4218.4167100071072127
 21
50.1020440231668829
 31
0.0
  0
ARC
  5
B98E
  8
0
 10
4218.5244640978053212
 20
50.0508629209041018
 30
0.0
 40
0.0078740158372241
 50
270.0000003732653795
 51
351.9999997343651899
  0
LINE
  5
B98F
  8
0
 10
4216.3700942576369926
 20
50.0497670696668635
 30
0.0
 11
4216.3774413042701781
 21
50.1020440231668829
 31
0.0
  0
ARC
  5
B990
  8
0
 10
4216.3622968711870271
 20
50.0508629209041018
 30
0.0
 40
0.0078740158372241
 50
270.0000003732653795
 51
351.9999997343651899
  0
LINE
  5
B991
  8
0
 10
4216.3564885570385741
 20
50.0497670696727894
 30
0.0
 11
4216.3638356036708501
 21
50.1020440231728088
 31
0.0
  0
ARC
  5
B992
  8
0
 10
4216.3486911705876992
 20
50.0508629209100278
 30
0.0
 40
0.0078740158372241
 50
270.0000003732653795
 51
351.9999997343651899
  0
LINE
  5
B993
  8
0
 10
4216.0452911080383274
 20
50.0497670696668635
 30
0.0
 11
4216.0526381546687844
 21
50.1020440231668829
 31
0.0
  0
ARC
  5
B994
  8
0
 10
4216.0374937215856335
 20
50.0508629209041018
 30
0.0
 40
0.0078740158372241
 50
270.0000003732653795
 51
351.9999997343651899
  0
LINE
  5
B995
  8
0
 10
4215.7204879584378432
 20
50.0497670696668635
 30
0.0
 11
4215.7278350050701192
 21
50.1020440231668829
 31
0.0
  0
ARC
  5
B996
  8
0
 10
4215.7126905719869683
 20
50.0508629209041018
 30
0.0
 40
0.0078740158372241
 50
270.0000003732653795
 51
351.9999997343651899
  0
LINE
  5
B997
  8
0
 10
4214.8636066698591094
 20
50.0497670696848829
 30
0.0
 11
4214.8709537164913854
 21
50.1020440231849022
 31
0.0
  0
ARC
  5
B998
  8
0
 10
4214.855809283407325
 20
50.0508629209221212
 30
0.0
 40
0.0078740158372241
 50
270.0000003732653795
 51
351.9999997343651899
  0
LINE
  5
B999
  8
0
 10
4215.9219905048448709
 20
50.0429889052168591
 30
0.0
 11
4216.0374937216383842
 21
50.0429889050668706
 31
0.0
  0
LINE
  5
B99A
  8
0
 10
4216.2549852985448524
 20
50.0429889052168591
 30
0.0
 11
4216.3622968712370493
 21
50.0429889050668706
 31
0.0
  0
LINE
  5
B99B
  8
0
 10
4216.9262047177653585
 20
50.0497670697988113
 30
0.0
 11
4216.9188576710166672
 21
50.1020440232988307
 31
0.0
  0
ARC
  5
B99C
  8
0
 10
4216.9340021707957931
 20
50.0508629573010495
 30
0.0
 40
0.0078740868464292
 50
188.0001947262261126
 51
270.1702517551087794
  0
LINE
  5
B99D
  8
0
 10
4218.4258408568121013
 20
50.0429889052168591
 30
0.0
 11
4218.524463375844789
 21
50.0429889052168591
 31
0.0
  0
ARC
  5
B99E
  8
0
 10
4218.4318544402322004
 20
50.0508629208806326
 30
0.0
 40
0.0078740156637711
 50
187.99999990327251
 51
270.0000000985925226
  0
ENDSEC
  0
EOF
