  0
SECTION
  2
HEADER
  9
$ACADVER
  1
AC1009
  9
$INSBASE
 10
3727.4731817188257992
 20
127.4558468396434989
 30
0.0
  9
$EXTMIN
 10
3718.147134449412988
 20
126.2591086371434983
 30
0.0
  9
$EXTMAX
 10
3727.4839099347927913
 20
136.7706462965639105
 30
0.0
  9
$LIMMIN
 10
0.0
 20
0.0
  9
$LIMMAX
 10
11.6929133858000007
 20
8.2677165353999982
  9
$ORTHOMODE
 70
     0
  9
$REGENMODE
 70
     1
  9
$FILLMODE
 70
     1
  9
$QTEXTMODE
 70
     0
  9
$MIRRTEXT
 70
     0
  9
$DRAGMODE
 70
     2
  9
$LTSCALE
 40
0.6431102362
  9
$OSMODE
 70
   575
  9
$ATTMODE
 70
     1
  9
$TEXTSIZE
 40
0.2
  9
$TRACEWID
 40
0.05
  9
$TEXTSTYLE
  7
STANDARD
  9
$CLAYER
  8
0
  9
$CELTYPE
  6
BYLAYER
  9
$CECOLOR
 62
   256
  9
$DIMSCALE
 40
1.0
  9
$DIMASZ
 40
0.1875
  9
$DIMEXO
 40
0.0625
  9
$DIMDLI
 40
0.4443307087
  9
$DIMRND
 40
0.0
  9
$DIMDLE
 40
0.0
  9
$DIMEXE
 40
0.125
  9
$DIMTP
 40
0.01
  9
$DIMTM
 40
0.01
  9
$DIMTXT
 40
2.0
  9
$DIMCEN
 40
0.1052362205
  9
$DIMTSZ
 40
0.0
  9
$DIMTOL
 70
     1
  9
$DIMLIM
 70
     0
  9
$DIMTIH
 70
     1
  9
$DIMTOH
 70
     1
  9
$DIMSE1
 70
     0
  9
$DIMSE2
 70
     0
  9
$DIMTAD
 70
     0
  9
$DIMZIN
 70
     0
  9
$DIMBLK
  1

  9
$DIMASO
 70
     1
  9
$DIMSHO
 70
     1
  9
$DIMPOST
  1
\X
  9
$DIMAPOST
  1

  9
$DIMALT
 70
     1
  9
$DIMALTD
 70
     2
  9
$DIMALTF
 40
25.3999999999999986
  9
$DIMLFAC
 40
1.0
  9
$DIMTOFL
 70
     0
  9
$DIMTVP
 40
0.0
  9
$DIMTIX
 70
     0
  9
$DIMSOXD
 70
     0
  9
$DIMSAH
 70
     0
  9
$DIMBLK1
  1

  9
$DIMBLK2
  1

  9
$DIMSTYLE
  2
STANDARD
  9
$DIMCLRD
 70
     0
  9
$DIMCLRE
 70
     0
  9
$DIMCLRT
 70
     0
  9
$DIMTFAC
 40
1.0
  9
$DIMGAP
 40
0.09
  9
$LUNITS
 70
     2
  9
$LUPREC
 70
     4
  9
$SKETCHINC
 40
0.1
  9
$FILLETRAD
 40
0.0
  9
$AUNITS
 70
     0
  9
$AUPREC
 70
     0
  9
$MENU
  1
.
  9
$ELEVATION
 40
0.0
  9
$PELEVATION
 40
0.0
  9
$THICKNESS
 40
0.0
  9
$LIMCHECK
 70
     0
  9
$BLIPMODE
 70
     0
  9
$CHAMFERA
 40
0.0
  9
$CHAMFERB
 40
0.0
  9
$SKPOLY
 70
     0
  9
$TDCREATE
 40
2458060.468368056230247
  9
$TDUPDATE
 40
2459593.6550347218289971
  9
$TDINDWG
 40
0.3453079861
  9
$TDUSRTIMER
 40
0.3453079861
  9
$USRTIMER
 70
     1
  9
$ANGBASE
 50
0.0
  9
$ANGDIR
 70
     0
  9
$PDMODE
 70
     0
  9
$PDSIZE
 40
0.3125
  9
$PLINEWID
 40
0.0
  9
$COORDS
 70
     1
  9
$SPLFRAME
 70
     0
  9
$SPLINETYPE
 70
     6
  9
$SPLINESEGS
 70
     8
  9
$ATTDIA
 70
     1
  9
$ATTREQ
 70
     1
  9
$HANDLING
 70
     1
  9
$HANDSEED
  5
16698
  9
$SURFTAB1
 70
     6
  9
$SURFTAB2
 70
     6
  9
$SURFTYPE
 70
     6
  9
$SURFU
 70
     6
  9
$SURFV
 70
     6
  9
$UCSNAME
  2

  9
$UCSORG
 10
0.0
 20
0.0
 30
0.0
  9
$UCSXDIR
 10
1.0
 20
0.0
 30
0.0
  9
$UCSYDIR
 10
0.0
 20
1.0
 30
0.0
  9
$PUCSNAME
  2

  9
$PUCSORG
 10
0.0
 20
0.0
 30
0.0
  9
$PUCSXDIR
 10
1.0
 20
0.0
 30
0.0
  9
$PUCSYDIR
 10
0.0
 20
1.0
 30
0.0
  9
$USERI1
 70
     0
  9
$USERI2
 70
     0
  9
$USERI3
 70
     0
  9
$USERI4
 70
     0
  9
$USERI5
 70
     0
  9
$USERR1
 40
0.0
  9
$USERR2
 40
0.0
  9
$USERR3
 40
0.0
  9
$USERR4
 40
0.0
  9
$USERR5
 40
0.0
  9
$WORLDVIEW
 70
     1
  9
$SHADEDGE
 70
     3
  9
$SHADEDIF
 70
    70
  9
$TILEMODE
 70
     1
  9
$MAXACTVP
 70
    64
  9
$PLIMCHECK
 70
     0
  9
$PEXTMIN
 10
1.0000000000000000E+20
 20
1.0000000000000000E+20
 30
1.0000000000000000E+20
  9
$PEXTMAX
 10
-1.0000000000000000E+20
 20
-1.0000000000000000E+20
 30
-1.0000000000000000E+20
  9
$PLIMMIN
 10
0.0
 20
0.0
  9
$PLIMMAX
 10
12.0
 20
9.0
  9
$UNITMODE
 70
     0
  9
$VISRETAIN
 70
     1
  9
$PLINEGEN
 70
     0
  9
$PSLTSCALE
 70
     1
  0
ENDSEC
  0
SECTION
  2
TABLES
  0
TABLE
  2
VPORT
 70
     1
  0
VPORT
  2
*ACTIVE
 70
     0
 10
0.0
 20
0.0
 11
1.0
 21
1.0
 12
-79.241345233292293
 22
5.5206026941767012
 13
0.0
 23
0.0
 14
1.0
 24
1.0
 15
0.0
 25
0.0
 16
0.0
 26
0.0
 36
17.1152628219792007
 17
3803.5440673828129547
 27
125.9952621967499056
 37
0.0
 40
12.3807823501643206
 41
2.469551282051281
 42
50.0
 43
0.0
 44
0.0
 50
0.0
 51
0.0
 71
     0
 72
   100
 73
     1
 74
     1
 75
     0
 76
     0
 77
     0
 78
     1
  0
ENDTAB
  0
TABLE
  2
LTYPE
 70
     2
  0
LTYPE
  2
CONTINUOUS
 70
     0
  3
Solid line
 72
    65
 73
     0
 40
0.0
  0
LTYPE
  2
PHANTOM2
 70
     0
  3
___ _ _ ___ _ _ ___ _ _ ___ _ _
 72
    65
 73
     6
 40
1.25
 49
0.625
 49
-0.125
 49
0.125
 49
-0.125
 49
0.125
 49
-0.125
  0
ENDTAB
  0
TABLE
  2
LAYER
 70
     2
  0
LAYER
  2
0
 70
     0
 62
   255
  6
CONTINUOUS
  0
LAYER
  2
DEFPOINTS
 70
     0
 62
     7
  6
CONTINUOUS
  0
ENDTAB
  0
TABLE
  2
STYLE
 70
     1
  0
STYLE
  2
STANDARD
 70
     0
 40
0.0
 41
0.8
 50
0.0
 71
     0
 42
0.2
  3
txt
  4

  0
ENDTAB
  0
TABLE
  2
VIEW
 70
     0
  0
ENDTAB
  0
TABLE
  2
UCS
 70
     0
  0
ENDTAB
  0
TABLE
  2
APPID
 70
     9
  0
APPID
  2
ACAD
 70
     0
  0
APPID
  2
ACAD_MLEADERVER
 70
     0
  0
APPID
  2
ACAD_EXEMPT_FROM_CAD_STANDARDS
 70
     0
  0
APPID
  2
ACAD_NAV_VCDISPLAY
 70
     0
  0
APPID
  2
ACAECLAYERSTANDARD
 70
     0
  0
APPID
  2
ACCMTRANSPARENCY
 70
     0
  0
APPID
  2
ACAD_DSTYLE_DIMJAG
 70
     0
  0
APPID
  2
ACAD_DSTYLE_DIMTALN
 70
     0
  0
APPID
  2
ACDBATTR
 70
     0
  0
ENDTAB
  0
TABLE
  2
DIMSTYLE
 70
     1
  0
DIMSTYLE
  2
STANDARD
 70
     0
  3

  4

  5

  6

  7

 40
1.0
 41
0.1875
 42
0.0625
 43
0.38
 44
0.125
 45
0.0
 46
0.0
 47
0.01
 48
0.01
140
0.15625
141
0.09
142
0.0
143
25.3999999999999986
144
1.0
145
0.0
146
1.0
147
0.09
 71
     1
 72
     0
 73
     1
 74
     1
 75
     0
 76
     0
 77
     0
 78
     4
170
     0
171
     2
172
     0
173
     0
174
     0
175
     0
176
     0
177
     0
178
     0
  0
ENDTAB
  0
ENDSEC
  0
SECTION
  2
BLOCKS
  0
BLOCK
  8
0
  2
$MODEL_SPACE
 70
     0
 10
0.0
 20
0.0
 30
0.0
  3
$MODEL_SPACE
  1

  0
ENDBLK
  5
21
  8
0
  0
BLOCK
 67
     1
  8
0
  2
$PAPER_SPACE
 70
     0
 10
0.0
 20
0.0
 30
0.0
  3
$PAPER_SPACE
  1

  0
ENDBLK
  5
1D
 67
     1
  8
0
  0
BLOCK
  8
0
  2
_FILLED
 70
     0
 10
0.0
 20
0.0
 30
0.0
  3
_FILLED
  1

  0
SOLID
  5
16499
  8
0
  6
BYBLOCK
 62
     0
 10
0.0
 20
0.0
 30
0.0
 11
-1.0
 21
0.1666666667
 31
0.0
 12
-1.0
 22
-0.1666666667
 32
0.0
 13
-1.0
 23
-0.1666666667
 33
0.0
  0
ENDBLK
  5
1649A
  8
0
  6
BYBLOCK
 62
     0
  0
ENDSEC
  0
SECTION
  2
ENTITIES
  0
ATTDEF
  5
132A3
  8
DEFPOINTS
 10
3727.4732432681239516
 20
127.459238253941507
 30
0.0
 40
0.001
  1
K-99482BR-4
  3

  2
MODELNUMBER
 70
     0
1001
ACDBATTR
1070
     0
1070
     1
  0
ATTDEF
  5
132A4
  8
DEFPOINTS
 10
3727.4732432681239516
 20
127.4575715872747992
 30
0.0
 40
0.001
  1
KUMIN
  3

  2
TRADENAME
 70
     0
1001
ACDBATTR
1070
     0
1070
     1
  0
ATTDEF
  5
132A5
  8
DEFPOINTS
 10
3727.4732432681239516
 20
127.4559049206082051
 30
0.0
 40
0.001
  1
KITCHEN SINK FAUCET
  3

  2
PRODUCT
 70
     0
1001
ACDBATTR
1070
     0
1070
     1
  0
ARC
  5
164F9
  8
0
 10
3718.9117461436449048
 20
132.8261021314181107
 30
0.0
 40
0.0078612672219491
 50
269.944628071357215
 51
317.580329888507606
  0
ARC
  5
164FA
  8
0
 10
3718.4236169759519726
 20
133.2724422981690111
 30
0.0
 40
0.6692912545939322
 50
317.5607651454081974
 51
334.3683889889920806
  0
LINE
  5
164FB
  8
0
 10
3719.0270459556450078
 20
132.9829181196568868
 30
0.0
 11
3719.2259169992530587
 21
133.4094019358225864
 31
0.0
  0
LINE
  5
164FC
  8
0
 10
3719.2259169992530587
 20
133.4094019358225864
 30
0.0
 11
3718.3998980328410653
 21
133.7945863947983014
 31
0.0
  0
LINE
  5
164FD
  8
0
 10
3718.3998980328410653
 20
133.7945863947983014
 30
0.0
 11
3718.207261271184052
 21
133.3814814133639004
 31
0.0
  0
ARC
  5
164FE
  8
0
 10
3718.8106853228559885
 20
133.0919468041606137
 30
0.0
 40
0.669291323760719
 50
154.3674014284106022
 51
172.4387722778438103
  0
ARC
  5
164FF
  8
0
 10
3718.1548898025248491
 20
133.1789106362409996
 30
0.0
 40
0.0077553531109758
 50
171.8064864475747129
 51
245.6457277787314126
  0
LINE
  5
16500
  8
0
 10
3718.1516916695409236
 20
133.1718454081982941
 30
0.0
 11
3718.9084108044407913
 21
132.8189764517983065
 31
0.0
  0
ARC
  5
16501
  8
0
 10
3718.9117251969701101
 20
132.826075530141793
 30
0.0
 40
0.0078346736474146
 50
244.9732369031250983
 51
270.0976253819965223
  0
ARC
  5
16502
  8
0
 10
3718.8531715306457954
 20
132.8571329489315076
 30
0.0
 40
0.0174650832327719
 50
271.3600992752989782
 51
294.9581162634855787
  0
ARC
  5
16503
  8
0
 10
3718.8535921985630921
 20
132.8556313098285102
 30
0.0
 40
0.0159585247229865
 50
245.2307384162789958
 51
269.9780380713630166
  0
LINE
  5
16504
  8
0
 10
3718.8469061350651828
 20
132.8411409314259117
 30
0.0
 11
3718.2082047265857909
 21
133.1389765337609958
 31
0.0
  0
ARC
  5
16505
  8
0
 10
3718.2148631171407942
 20
133.1532477050982948
 30
0.0
 40
0.0157480314999996
 50
193.6818745399826014
 51
244.9880170058218027
  0
ARC
  5
16506
  8
0
 10
3718.4264686919409542
 20
133.8352933743983044
 30
0.0
 40
0.0039370551999985
 50
154.9996872566705974
 51
244.9996872567143953
  0
LINE
  5
16507
  8
0
 10
3718.4248048010399543
 20
133.8317251996946879
 30
0.0
 11
3719.2383612293438091
 21
133.4523522005032135
 31
0.0
  0
ARC
  5
16508
  8
0
 10
3719.2400251202579966
 20
133.4559203752351095
 30
0.0
 40
0.0039370552312496
 50
244.9996872567143953
 51
335.0306224996388096
  0
LINE
  5
16509
  8
0
 10
3719.2435941928411012
 20
133.4542584110982943
 30
0.0
 11
3719.3334377980031604
 21
133.6469258983333077
 31
0.0
  0
ARC
  5
1650A
  8
0
 10
3719.2620783537408897
 20
133.6802123989982931
 30
0.0
 40
0.0787411037000042
 50
334.9927159099888172
 51
64.9924579604850834
  0
LINE
  5
1650B
  8
0
 10
3719.2953651756711224
 20
133.7515716934015018
 30
0.0
 11
3718.6173813930449796
 21
134.0677252288290902
 31
0.0
  0
ARC
  5
1650C
  8
0
 10
3718.5841125635411117
 20
133.9963575442982915
 30
0.0
 40
0.0787411036999785
 50
65.0069035829392021
 51
89.7004190511851647
  0
ARC
  5
1650D
  8
0
 10
3718.5858737510197898
 20
133.9935773745656888
 30
0.0
 40
0.0815313658825052
 50
90.948382408867829
 51
153.7586625369119133
  0
LINE
  5
1650E
  8
0
 10
3718.5127450402510476
 20
134.0296267196912083
 30
0.0
 11
3718.4229005172378493
 21
133.8369572652997874
 31
0.0
  0
LINE
  5
1650F
  8
0
 10
3718.4426552294448811
 20
133.8234012896064087
 30
0.0
 11
3718.4239815042451482
 21
133.7833559276056974
 31
0.0
  0
LINE
  5
16510
  8
0
 10
3719.2018370758560195
 20
133.4206307485291916
 30
0.0
 11
3719.2205108010211916
 21
133.4606761105532087
 31
0.0
  0
ARC
  5
16511
  8
0
 10
3718.6295312144470699
 20
134.0750879513309997
 30
0.0
 40
0.0118109139321884
 50
244.9366677748940049
 51
336.5465554741244887
  0
LINE
  5
16512
  8
0
 10
3718.6403663552409853
 20
134.0703871628982995
 30
0.0
 11
3718.8099986944339435
 21
134.4341597041457987
 31
0.0
  0
ARC
  5
16513
  8
0
 10
3722.477594354240864
 20
132.7238868840983059
 30
0.0
 40
4.0467630326999933
 50
90.0942159948238981
 51
154.9994241450889945
  0
ARC
  5
16514
  8
0
 10
3722.4748117750718848
 20
132.7210917538589001
 30
0.0
 40
4.0495545427049766
 50
0.075294876095605
 51
90.0547812412634556
  0
LINE
  5
16515
  8
0
 10
3726.5243628210419047
 20
132.7264134480982989
 30
0.0
 11
3726.5243628210419047
 21
129.4322247924434919
 31
0.0
  0
LINE
  5
16516
  8
0
 10
3726.6975911676840951
 20
129.196004319943512
 30
0.0
 11
3726.6975911680669924
 21
128.7837444774519042
 31
0.0
  0
LINE
  5
16517
  8
0
 10
3725.6424730572412045
 20
128.7837444774434914
 30
0.0
 11
3725.6424730572412045
 21
129.196004319943512
 31
0.0
  0
LINE
  5
16518
  8
0
 10
3725.815701403741059
 20
129.4322247924434919
 30
0.0
 11
3725.815701403741059
 21
132.7214006306982981
 31
0.0
  0
ARC
  5
16519
  8
0
 10
3722.4775949040222258
 20
132.723874337341897
 30
0.0
 40
3.3381074162898918
 50
359.9575409219272046
 51
154.9992329567670026
  0
LINE
  5
1651A
  8
0
 10
3719.4522610451967921
 20
134.1346599926897909
 30
0.0
 11
3719.2826271969947811
 21
133.7708917458101894
 31
0.0
  0
ARC
  5
1651B
  8
0
 10
3719.2931934854241263
 20
133.7656156494026902
 30
0.0
 40
0.0118103194053994
 50
153.4655304081996121
 51
245.0806906466586952
  0
LINE
  5
1651C
  8
0
 10
3723.9395954508381692
 20
129.8313348519506008
 30
0.0
 11
3723.952339438090803
 21
129.8313348519506008
 31
0.0
  0
LINE
  5
1651D
  8
0
 10
3723.9668560587329011
 20
126.853881225573204
 30
0.0
 11
3724.3962467009951069
 21
126.8538812212614033
 31
0.0
  0
LINE
  5
1651E
  8
0
 10
3724.6642873048172078
 20
126.8538812212614033
 30
0.0
 11
3725.4344966794260472
 21
126.8538812212614033
 31
0.0
  0
LINE
  5
1651F
  8
0
 10
3727.4731817188257992
 20
126.2591086371434983
 30
0.0
 11
3727.4731817188257992
 21
128.6525850421434995
 31
0.0
  0
LINE
  5
16520
  8
0
 10
3727.2369612464258353
 20
126.334755121004207
 30
0.0
 11
3727.2369612464258353
 21
128.5769385582827056
 31
0.0
  0
LINE
  5
16521
  8
0
 10
3727.2917319018629314
 20
126.2749834391185004
 30
0.0
 11
3727.4731817188257992
 21
126.2591086371434983
 31
0.0
  0
ARC
  5
16522
  8
0
 10
3727.2969612464248712
 20
126.334755121004207
 30
0.0
 40
0.06
 50
180.0
 51
265.0000000025110012
  0
LINE
  5
16523
  8
0
 10
3725.6975911676258875
 20
129.4322247924434919
 30
0.0
 11
3726.6424730574258319
 21
129.4322247924434919
 31
0.0
  0
LINE
  5
16524
  8
0
 10
3725.6975911676258875
 20
129.196004319943512
 30
0.0
 11
3725.6424730572412045
 21
129.196004319943512
 31
0.0
  0
LINE
  5
16525
  8
0
 10
3725.6975911676258875
 20
129.196004319943512
 30
0.0
 11
3725.6975911676258875
 21
129.4322247924434919
 31
0.0
  0
LINE
  5
16526
  8
0
 10
3726.6424730574258319
 20
129.196004319943512
 30
0.0
 11
3726.6424730574258319
 21
129.4322247924434919
 31
0.0
  0
LINE
  5
16527
  8
0
 10
3726.6424730574258319
 20
129.196004319943512
 30
0.0
 11
3726.6975911676840951
 21
129.196004319943512
 31
0.0
  0
LINE
  5
16528
  8
0
 10
3726.6885911680678873
 20
128.7747444774435053
 30
0.0
 11
3725.6514730572412191
 21
128.7747444774435053
 31
0.0
  0
ARC
  5
16529
  8
0
 10
3726.6885911680678873
 20
128.7837444774434914
 30
0.0
 40
0.009
 50
270.0
 51
0.0000000532859445
  0
ARC
  5
1652A
  8
0
 10
3725.6514730572412191
 20
128.7837444774434914
 30
0.0
 40
0.009
 50
179.9999999999942872
 51
270.0
  0
LINE
  5
1652B
  8
0
 10
3725.7369612464249258
 20
128.7353743986435006
 30
0.0
 11
3725.7369612464249258
 21
128.7747444774435053
 31
0.0
  0
LINE
  5
1652C
  8
0
 10
3726.6031029786249746
 20
128.7747444774435053
 30
0.0
 11
3726.6031029786249746
 21
128.7353743986435006
 31
0.0
  0
LINE
  5
1652D
  8
0
 10
3723.7409869136258749
 20
129.31215280965381
 30
0.0
 11
3723.7409869136258749
 21
127.526480091743494
 31
0.0
  0
ARC
  5
1652E
  8
0
 10
3723.9433095343979403
 20
129.7764441690011097
 30
0.0
 40
0.055016192992204
 50
93.8709200378830246
 51
149.3280290995168116
  0
ARC
  5
1652F
  8
0
 10
3723.9523677902147938
 20
129.7785073597044061
 30
0.0
 40
0.0528274998543745
 50
29.4864658491366995
 51
90.0307502116308882
  0
ARC
  5
16530
  8
0
 10
3724.9998510547288788
 20
129.1864156943317141
 30
0.0
 40
1.265127957134945
 50
150.7538896211879944
 51
174.2961348283160135
  0
ARC
  5
16531
  8
0
 10
3725.5299921506871215
 20
127.5682214595880026
 30
0.0
 40
1.7894921290751979
 50
181.3365921531683966
 51
192.5924002867797924
  0
ARC
  5
16532
  8
0
 10
3724.687655177679062
 20
127.4123350398026986
 30
0.0
 40
0.9339631064519446
 50
194.5254655589922947
 51
215.5195531585665947
  0
ARC
  5
16533
  8
0
 10
3723.9531248946268533
 20
126.8846920040295032
 30
0.0
 40
0.0296896811520347
 50
210.2827650748943995
 51
254.5544648515233064
  0
ARC
  5
16534
  8
0
 10
3723.966687772378009
 20
126.9600510732909981
 30
0.0
 40
0.1061699810901948
 50
258.3330775255789149
 51
270.0908175678437146
  0
LINE
  5
16535
  8
0
 10
3725.6424730574249224
 20
128.7353743986435006
 30
0.0
 11
3725.6424730574249224
 21
128.0934058947435119
 31
0.0
  0
LINE
  5
16536
  8
0
 10
3726.6975911676258875
 20
128.7353743986435006
 30
0.0
 11
3726.6975911676258875
 21
128.0934058947435119
 31
0.0
  0
ARC
  5
16537
  8
0
 10
3725.5235526557758021
 20
128.1023262963927891
 30
0.0
 40
0.1192544988418404
 50
274.2898104322787276
 51
355.7101895677197945
  0
LINE
  5
16538
  8
0
 10
3723.9983526491278099
 20
129.8045100036403028
 30
0.0
 11
3724.0311997235421586
 21
129.7481226077605925
 31
0.0
  0
LINE
  5
16539
  8
0
 10
3724.0569110064038796
 20
129.6507534587605051
 30
0.0
 11
3724.0506581027188986
 21
128.324472819714714
 31
0.0
  0
ARC
  5
1653A
  8
0
 10
3723.8575779315501677
 20
129.6501968301969043
 30
0.0
 40
0.1993338520316049
 50
0.1599954483174133
 51
29.4237711184648205
  0
ARC
  5
1653B
  8
0
 10
3724.8867914115839994
 20
128.317257047066704
 30
0.0
 40
0.8361644440951695
 50
179.5055536586316975
 51
193.5593534773277895
  0
ARC
  5
1653C
  8
0
 10
3724.3809885547170779
 20
128.815400799494796
 30
0.0
 40
0.7594549827891979
 50
246.1989610523993974
 51
267.2821921285766962
  0
ARC
  5
1653D
  8
0
 10
3724.0750831499449305
 20
128.1215994514487875
 30
0.0
 40
0.0012124219276158
 50
198.4285739068052123
 51
241.3297406224795907
  0
LINE
  5
1653E
  8
0
 10
3724.3449775466160645
 20
128.0568000624934939
 30
0.0
 11
3725.4344966794260472
 21
128.0568000624934939
 31
0.0
  0
LINE
  5
1653F
  8
0
 10
3725.4534966794249158
 20
128.0378000624934884
 30
0.0
 11
3725.4534966794249158
 21
126.8728812212613946
 31
0.0
  0
LINE
  5
16540
  8
0
 10
3725.4849927424252201
 20
127.9834058947434983
 30
0.0
 11
3725.4849927424252201
 21
126.9282877845434996
 31
0.0
  0
LINE
  5
16541
  8
0
 10
3725.5324730574238856
 20
127.9834058947434983
 30
0.0
 11
3725.4849927424252201
 21
127.9834058947434983
 31
0.0
  0
ARC
  5
16542
  8
0
 10
3725.4344966794260472
 20
128.0378000624934884
 30
0.0
 40
0.019
 50
359.9999999999919282
 51
90.0
  0
ARC
  5
16543
  8
0
 10
3725.4344966794260472
 20
126.8728812212613946
 30
0.0
 40
0.019
 50
270.0
 51
0.0000000000065138
  0
LINE
  5
16544
  8
0
 10
3725.4849927424252201
 20
126.9282877845434996
 30
0.0
 11
3727.2369612464258353
 21
126.9282877845434996
 31
0.0
  0
LINE
  5
16545
  8
0
 10
3726.8075911676260148
 20
127.9834058947434983
 30
0.0
 11
3727.2369612464258353
 21
127.9834058947434983
 31
0.0
  0
ARC
  5
16546
  8
0
 10
3726.8075911676260148
 20
128.0934058947435119
 30
0.0
 40
0.11
 50
180.0
 51
270.0
  0
LINE
  5
16547
  8
0
 10
3727.2917319018629314
 20
128.6367102401684974
 30
0.0
 11
3727.4731817188257992
 21
128.6525850421434995
 31
0.0
  0
ARC
  5
16548
  8
0
 10
3727.2969612464248712
 20
128.5769385582827056
 30
0.0
 40
0.06
 50
94.999999997488942
 51
179.9999999999992042
  0
LINE
  5
16549
  8
0
 10
3726.1700320479558286
 20
127.4558467606183996
 30
0.0
 11
3725.607878481771877
 21
128.0180007927521899
 31
0.0
  0
LINE
  5
1654A
  8
0
 10
3726.1700320479558286
 20
127.4558467606183996
 30
0.0
 11
3726.7298092472701683
 21
128.0156243232387112
 31
0.0
  0
LINE
  5
1654B
  8
0
 10
3724.5835505780250969
 20
126.8667078846435032
 30
0.0
 11
3724.4746814537347745
 21
126.8667078846435032
 31
0.0
  0
ARC
  5
1654C
  8
0
 10
3724.5552650370668744
 20
126.1277144288486056
 30
0.0
 40
0.7433740926413175
 50
96.2232328040312268
 51
102.3518384803789019
  0
ARC
  5
1654D
  8
0
 10
3724.5199147857720163
 20
126.2056461186951992
 30
0.0
 40
0.6641175893276222
 50
77.444219093089103
 51
84.5014784464964919
  0
LINE
  5
1654E
  8
0
 10
3723.9983526491278099
 20
129.8045100036403028
 30
0.0
 11
3723.9668560587329011
 21
126.853881225573204
 31
0.0
  0
LINE
  5
1654F
  8
0
 10
3725.6424730574249224
 20
128.7353743986435006
 30
0.0
 11
3726.6975911676258875
 21
128.7353743986435006
 31
0.0
  0
LINE
  5
16550
  8
0
 10
3725.4534966794249158
 20
127.9282877845434996
 30
0.0
 11
3725.4849927424252201
 21
127.9282877845434996
 31
0.0
  0
LINE
  5
16551
  8
0
 10
3725.4534966794249158
 20
126.9834058947434983
 30
0.0
 11
3725.4849927424252201
 21
126.9834058947434983
 31
0.0
  0
ENDSEC
  0
EOF
