  0
SECTION
  2
HEADER
  9
$ACADVER
  1
AC1009
  9
$INSBASE
 10
3736.0008971052670859
 20
126.2460045460372982
 30
0.0
  9
$EXTMIN
 10
3734.8041589027670852
 20
125.0492663435372975
 30
0.0
  9
$EXTMAX
 10
3737.1976353077670865
 20
135.5608040040538071
 30
0.0
  9
$LIMMIN
 10
0.0
 20
0.0
  9
$LIMMAX
 10
11.6929133858000007
 20
8.2677165353999982
  9
$ORTHOMODE
 70
     0
  9
$REGENMODE
 70
     1
  9
$FILLMODE
 70
     1
  9
$QTEXTMODE
 70
     0
  9
$MIRRTEXT
 70
     0
  9
$DRAGMODE
 70
     2
  9
$LTSCALE
 40
0.6431102362
  9
$OSMODE
 70
   575
  9
$ATTMODE
 70
     1
  9
$TEXTSIZE
 40
0.2
  9
$TRACEWID
 40
0.05
  9
$TEXTSTYLE
  7
STANDARD
  9
$CLAYER
  8
0
  9
$CELTYPE
  6
BYLAYER
  9
$CECOLOR
 62
   256
  9
$DIMSCALE
 40
1.0
  9
$DIMASZ
 40
0.1875
  9
$DIMEXO
 40
0.0625
  9
$DIMDLI
 40
0.4443307087
  9
$DIMRND
 40
0.0
  9
$DIMDLE
 40
0.0
  9
$DIMEXE
 40
0.125
  9
$DIMTP
 40
0.01
  9
$DIMTM
 40
0.01
  9
$DIMTXT
 40
2.0
  9
$DIMCEN
 40
0.1052362205
  9
$DIMTSZ
 40
0.0
  9
$DIMTOL
 70
     1
  9
$DIMLIM
 70
     0
  9
$DIMTIH
 70
     1
  9
$DIMTOH
 70
     1
  9
$DIMSE1
 70
     0
  9
$DIMSE2
 70
     0
  9
$DIMTAD
 70
     0
  9
$DIMZIN
 70
     0
  9
$DIMBLK
  1

  9
$DIMASO
 70
     1
  9
$DIMSHO
 70
     1
  9
$DIMPOST
  1
\X
  9
$DIMAPOST
  1

  9
$DIMALT
 70
     1
  9
$DIMALTD
 70
     2
  9
$DIMALTF
 40
25.3999999999999986
  9
$DIMLFAC
 40
1.0
  9
$DIMTOFL
 70
     0
  9
$DIMTVP
 40
0.0
  9
$DIMTIX
 70
     0
  9
$DIMSOXD
 70
     0
  9
$DIMSAH
 70
     0
  9
$DIMBLK1
  1

  9
$DIMBLK2
  1

  9
$DIMSTYLE
  2
STANDARD
  9
$DIMCLRD
 70
     0
  9
$DIMCLRE
 70
     0
  9
$DIMCLRT
 70
     0
  9
$DIMTFAC
 40
1.0
  9
$DIMGAP
 40
0.09
  9
$LUNITS
 70
     2
  9
$LUPREC
 70
     4
  9
$SKETCHINC
 40
0.1
  9
$FILLETRAD
 40
0.0
  9
$AUNITS
 70
     0
  9
$AUPREC
 70
     0
  9
$MENU
  1
.
  9
$ELEVATION
 40
0.0
  9
$PELEVATION
 40
0.0
  9
$THICKNESS
 40
0.0
  9
$LIMCHECK
 70
     0
  9
$BLIPMODE
 70
     0
  9
$CHAMFERA
 40
0.0
  9
$CHAMFERB
 40
0.0
  9
$SKPOLY
 70
     0
  9
$TDCREATE
 40
2458060.468368056230247
  9
$TDUPDATE
 40
2459593.65460648201406
  9
$TDINDWG
 40
0.3443936343
  9
$TDUSRTIMER
 40
0.3443936343
  9
$USRTIMER
 70
     1
  9
$ANGBASE
 50
0.0
  9
$ANGDIR
 70
     0
  9
$PDMODE
 70
     0
  9
$PDSIZE
 40
0.3125
  9
$PLINEWID
 40
0.0
  9
$COORDS
 70
     1
  9
$SPLFRAME
 70
     0
  9
$SPLINETYPE
 70
     6
  9
$SPLINESEGS
 70
     8
  9
$ATTDIA
 70
     1
  9
$ATTREQ
 70
     1
  9
$HANDLING
 70
     1
  9
$HANDSEED
  5
16519
  9
$SURFTAB1
 70
     6
  9
$SURFTAB2
 70
     6
  9
$SURFTYPE
 70
     6
  9
$SURFU
 70
     6
  9
$SURFV
 70
     6
  9
$UCSNAME
  2

  9
$UCSORG
 10
0.0
 20
0.0
 30
0.0
  9
$UCSXDIR
 10
1.0
 20
0.0
 30
0.0
  9
$UCSYDIR
 10
0.0
 20
1.0
 30
0.0
  9
$PUCSNAME
  2

  9
$PUCSORG
 10
0.0
 20
0.0
 30
0.0
  9
$PUCSXDIR
 10
1.0
 20
0.0
 30
0.0
  9
$PUCSYDIR
 10
0.0
 20
1.0
 30
0.0
  9
$USERI1
 70
     0
  9
$USERI2
 70
     0
  9
$USERI3
 70
     0
  9
$USERI4
 70
     0
  9
$USERI5
 70
     0
  9
$USERR1
 40
0.0
  9
$USERR2
 40
0.0
  9
$USERR3
 40
0.0
  9
$USERR4
 40
0.0
  9
$USERR5
 40
0.0
  9
$WORLDVIEW
 70
     1
  9
$SHADEDGE
 70
     3
  9
$SHADEDIF
 70
    70
  9
$TILEMODE
 70
     1
  9
$MAXACTVP
 70
    64
  9
$PLIMCHECK
 70
     0
  9
$PEXTMIN
 10
1.0000000000000000E+20
 20
1.0000000000000000E+20
 30
1.0000000000000000E+20
  9
$PEXTMAX
 10
-1.0000000000000000E+20
 20
-1.0000000000000000E+20
 30
-1.0000000000000000E+20
  9
$PLIMMIN
 10
0.0
 20
0.0
  9
$PLIMMAX
 10
12.0
 20
9.0
  9
$UNITMODE
 70
     0
  9
$VISRETAIN
 70
     1
  9
$PLINEGEN
 70
     0
  9
$PSLTSCALE
 70
     1
  0
ENDSEC
  0
SECTION
  2
TABLES
  0
TABLE
  2
VPORT
 70
     1
  0
VPORT
  2
*ACTIVE
 70
     0
 10
0.0
 20
0.0
 11
1.0
 21
1.0
 12
-58.3236750621580384
 22
4.092860580081334
 13
0.0
 23
0.0
 14
1.0
 24
1.0
 15
0.0
 25
0.0
 16
0.0
 26
0.0
 36
17.1152628219792007
 17
3803.5440673828129547
 27
125.9952621967499056
 37
0.0
 40
21.57833704054487
 41
2.469551282051281
 42
50.0
 43
0.0
 44
0.0
 50
0.0
 51
0.0
 71
     0
 72
   100
 73
     1
 74
     1
 75
     0
 76
     0
 77
     0
 78
     1
  0
ENDTAB
  0
TABLE
  2
LTYPE
 70
     2
  0
LTYPE
  2
CONTINUOUS
 70
     0
  3
Solid line
 72
    65
 73
     0
 40
0.0
  0
LTYPE
  2
PHANTOM2
 70
     0
  3
___ _ _ ___ _ _ ___ _ _ ___ _ _
 72
    65
 73
     6
 40
1.25
 49
0.625
 49
-0.125
 49
0.125
 49
-0.125
 49
0.125
 49
-0.125
  0
ENDTAB
  0
TABLE
  2
LAYER
 70
     2
  0
LAYER
  2
0
 70
     0
 62
   255
  6
CONTINUOUS
  0
LAYER
  2
DEFPOINTS
 70
     0
 62
     7
  6
CONTINUOUS
  0
ENDTAB
  0
TABLE
  2
STYLE
 70
     1
  0
STYLE
  2
STANDARD
 70
     0
 40
0.0
 41
0.8
 50
0.0
 71
     0
 42
0.2
  3
txt
  4

  0
ENDTAB
  0
TABLE
  2
VIEW
 70
     0
  0
ENDTAB
  0
TABLE
  2
UCS
 70
     0
  0
ENDTAB
  0
TABLE
  2
APPID
 70
     9
  0
APPID
  2
ACAD
 70
     0
  0
APPID
  2
ACAD_MLEADERVER
 70
     0
  0
APPID
  2
ACAD_EXEMPT_FROM_CAD_STANDARDS
 70
     0
  0
APPID
  2
ACAD_NAV_VCDISPLAY
 70
     0
  0
APPID
  2
ACAECLAYERSTANDARD
 70
     0
  0
APPID
  2
ACCMTRANSPARENCY
 70
     0
  0
APPID
  2
ACAD_DSTYLE_DIMJAG
 70
     0
  0
APPID
  2
ACAD_DSTYLE_DIMTALN
 70
     0
  0
APPID
  2
ACDBATTR
 70
     0
  0
ENDTAB
  0
TABLE
  2
DIMSTYLE
 70
     1
  0
DIMSTYLE
  2
STANDARD
 70
     0
  3

  4

  5

  6

  7

 40
1.0
 41
0.1875
 42
0.0625
 43
0.38
 44
0.125
 45
0.0
 46
0.0
 47
0.01
 48
0.01
140
0.15625
141
0.09
142
0.0
143
25.3999999999999986
144
1.0
145
0.0
146
1.0
147
0.09
 71
     1
 72
     0
 73
     1
 74
     1
 75
     0
 76
     0
 77
     0
 78
     4
170
     0
171
     2
172
     0
173
     0
174
     0
175
     0
176
     0
177
     0
178
     0
  0
ENDTAB
  0
ENDSEC
  0
SECTION
  2
BLOCKS
  0
BLOCK
  8
0
  2
$MODEL_SPACE
 70
     0
 10
0.0
 20
0.0
 30
0.0
  3
$MODEL_SPACE
  1

  0
ENDBLK
  5
21
  8
0
  0
BLOCK
 67
     1
  8
0
  2
$PAPER_SPACE
 70
     0
 10
0.0
 20
0.0
 30
0.0
  3
$PAPER_SPACE
  1

  0
ENDBLK
  5
1D
 67
     1
  8
0
  0
ENDSEC
  0
SECTION
  2
ENTITIES
  0
ATTDEF
  5
132A3
  8
DEFPOINTS
 10
3736.0009528661307741
 20
126.2494624105068937
 30
0.0
 40
0.001
  1
K-99482BR-4
  3

  2
MODELNUMBER
 70
     0
1001
ACDBATTR
1070
     0
1070
     1
  0
ATTDEF
  5
132A4
  8
DEFPOINTS
 10
3736.0009528661307741
 20
126.2477957438402001
 30
0.0
 40
0.001
  1
KUMIN
  3

  2
TRADENAME
 70
     0
1001
ACDBATTR
1070
     0
1070
     1
  0
ATTDEF
  5
132A5
  8
DEFPOINTS
 10
3736.0009528661307741
 20
126.2461290771735065
 30
0.0
 40
0.001
  1
KITCHEN SINK FAUCET
  3

  2
PRODUCT
 70
     0
1001
ACDBATTR
1070
     0
1070
     1
  0
ARC
  5
15E24
  8
0
 10
3735.9969805328669281
 20
135.206501204826111
 30
0.0
 40
0.3543244449694236
 50
359.9995837347483985
 51
89.3666605876599931
  0
LINE
  5
15E25
  8
0
 10
3736.3513049778280219
 20
135.2064986305884133
 30
0.0
 11
3736.3513049778280219
 21
132.782047286610009
 31
0.0
  0
ARC
  5
15E26
  8
0
 10
3736.0004854421649725
 20
131.9838624117350037
 30
0.0
 40
0.881392962442505
 50
76.0642310745638497
 51
89.9732394546221741
  0
ARC
  5
15E27
  8
0
 10
3736.0972753617129456
 20
132.3636780525046959
 30
0.0
 40
0.4894526145697702
 50
58.7342946804152533
 51
76.3531991079834569
  0
ARC
  5
15E28
  8
0
 10
3736.2536702616198454
 20
132.6073297086965965
 30
0.0
 40
0.200146870674972
 50
6.0612969878108842
 51
60.8029081234212327
  0
LINE
  5
15E29
  8
0
 10
3736.4526982108382072
 20
132.6284636924883955
 30
0.0
 11
3736.4526982108382072
 21
132.4369507727639927
 31
0.0
  0
ARC
  5
15E2A
  8
0
 10
3736.4124347469878558
 20
132.438005712268108
 30
0.0
 40
0.0402772816684128
 50
332.3913431122768998
 51
358.4991416565001145
  0
ARC
  5
15E2B
  8
0
 10
3736.3291008941178006
 20
132.4172260595545083
 30
0.0
 40
0.1251613399233917
 50
9.0672880226079773
 51
27.417259150749981
  0
ARC
  5
15E2C
  8
0
 10
3736.2915168445451854
 20
132.3925510379166042
 30
0.0
 40
0.1699480543402882
 50
28.967341322169581
 51
57.2967331347733122
  0
ARC
  5
15E2D
  8
0
 10
3736.1164742705459503
 20
132.1152777174631012
 30
0.0
 40
0.4978477976317813
 50
57.585914451645273
 51
77.6633833175065433
  0
ARC
  5
15E2E
  8
0
 10
3736.0086952284041217
 20
131.699165766334005
 30
0.0
 40
0.9275236615267397
 50
76.6511180058611643
 51
86.7303624566477112
  0
ARC
  5
15E2F
  8
0
 10
3735.9823816680532218
 20
131.24526607493911
 30
0.0
 40
1.3821853325426869
 50
86.7145037641665652
 51
89.2324559443522674
  0
ARC
  5
15E30
  8
0
 10
3735.9938223982658201
 20
131.6746756742284106
 30
0.0
 40
0.9389316916567461
 50
72.7883323972291407
 51
89.56828096344789
  0
ARC
  5
15E31
  8
0
 10
3736.1751195081142214
 20
132.2629414455535937
 30
0.0
 40
0.3233645107243746
 50
47.2031746588518573
 51
72.630446541270743
  0
ARC
  5
15E32
  8
0
 10
3735.9575284131788067
 20
131.2393090731515883
 30
0.0
 40
1.3461338188039009
 50
78.2204648315527606
 51
88.1537696773981452
  0
ARC
  5
15E33
  8
0
 10
3736.1144943241019973
 20
132.0641014043949895
 30
0.0
 40
0.5068810112128121
 50
56.9291884793159682
 51
76.5565535946431055
  0
ARC
  5
15E34
  8
0
 10
3736.307844756393024
 20
132.3610309101754012
 30
0.0
 40
0.1525485104881132
 50
33.416042736062721
 51
56.9291884793159682
  0
ARC
  5
15E35
  8
0
 10
3736.3318397284729144
 20
132.3768623177950872
 30
0.0
 40
0.1238014732088844
 50
20.0665511413034103
 51
33.4160437978384905
  0
ARC
  5
15E36
  8
0
 10
3736.3805077010952118
 20
132.3946460891407071
 30
0.0
 40
0.0719860891298028
 50
4.5908010852557446
 51
20.0620411821589499
  0
ARC
  5
15E37
  8
0
 10
3736.3647181807327797
 20
132.3916504293175933
 30
0.0
 40
0.0879815806124056
 50
0.3401569646245539
 51
5.712459665105281
  0
ARC
  5
15E38
  8
0
 10
3736.300240686583038
 20
132.4091173383376088
 30
0.0
 40
0.1313124612912999
 50
25.6105514663360196
 51
43.9279699909328372
  0
LINE
  5
15E39
  8
0
 10
3736.4526982108382072
 20
132.3921727604883927
 30
0.0
 11
3736.4526982108382072
 21
131.9759609061426886
 31
0.0
  0
ARC
  5
15E3A
  8
0
 10
3735.8018422909181027
 20
131.9757556022723008
 30
0.0
 40
0.6508559523000694
 50
341.0354941324750939
 51
0.0180731933759629
  0
ARC
  5
15E3B
  8
0
 10
3735.9999314017131837
 20
131.0359841130097038
 30
0.0
 40
0.9341918946928991
 50
78.7855911255825418
 51
89.9407715424974725
  0
ARC
  5
15E3C
  8
0
 10
3736.0735294300479836
 20
131.3880583802790909
 30
0.0
 40
0.5745386643755352
 50
63.5819355254941598
 51
79.156669780182213
  0
ARC
  5
15E3D
  8
0
 10
3736.2272128250428977
 20
131.6974066395258944
 30
0.0
 40
0.2291187295192068
 50
42.3519457946472428
 51
63.5819355254941598
  0
ARC
  5
15E3E
  8
0
 10
3736.3225441279000734
 20
131.7843095725212095
 30
0.0
 40
0.1001219192192963
 50
10.0655640708430294
 51
42.3519457946472428
  0
ARC
  5
15E3F
  8
0
 10
3736.3441679134311926
 20
131.7905280526844081
 30
0.0
 40
0.0777794355779741
 50
340.2451646582766216
 51
8.3389982047939171
  0
ARC
  5
15E40
  8
0
 10
3736.2928277908281416
 20
131.8132506242652084
 30
0.0
 40
0.1338389681369904
 50
322.6675813388795859
 51
338.5185987922225195
  0
ARC
  5
15E41
  8
0
 10
3736.2457006813360749
 20
131.8584774912334865
 30
0.0
 40
0.1988755141364333
 50
303.417253628302376
 51
320.5404714082923192
  0
ARC
  5
15E42
  8
0
 10
3736.090998069988018
 20
132.1256804551447885
 30
0.0
 40
0.5074251468430862
 50
280.2329262917701271
 51
301.3809993684939741
  0
ARC
  5
15E43
  8
0
 10
3736.0051274274769639
 20
132.4964930836381996
 30
0.0
 40
0.8877899457678941
 50
273.4358785963507898
 51
281.4353348283660239
  0
ARC
  5
15E44
  8
0
 10
3735.9592881722119273
 20
133.7349212587647003
 30
0.0
 40
2.1269297230109938
 50
271.1209436377495763
 51
272.6690865375211956
  0
ARC
  5
15E45
  8
0
 10
3735.9980266910979481
 20
132.5193263803274135
 30
0.0
 40
0.9013932657323263
 50
270.1824540949460243
 51
278.4923626991657102
  0
ARC
  5
15E46
  8
0
 10
3736.0337263226579125
 20
132.2800983010457969
 30
0.0
 40
0.6595161542881272
 50
278.4941365514523
 51
292.4277454334140884
  0
ARC
  5
15E47
  8
0
 10
3736.1911612381431951
 20
131.8986569495901051
 30
0.0
 40
0.2468622348666702
 50
292.4277454334140884
 51
316.155033674980416
  0
ARC
  5
15E48
  8
0
 10
3736.3069761271158313
 20
131.7874198536451047
 30
0.0
 40
0.0862796080906639
 50
316.155033674980416
 51
6.0985897023206608
  0
ARC
  5
15E49
  8
0
 10
3736.2964742547178503
 20
131.7778987541315985
 30
0.0
 40
0.0980897395539961
 50
10.9827474188095504
 51
45.6159761771176804
  0
ARC
  5
15E4A
  8
0
 10
3736.163467791867788
 20
131.6321412427762141
 30
0.0
 40
0.2953717037624933
 50
46.9539129652512628
 51
72.3973245628048829
  0
ARC
  5
15E4B
  8
0
 10
3736.0143987466731232
 20
131.2029142822833023
 30
0.0
 40
0.7496820606419793
 50
71.4584022601864319
 51
87.6473947073108661
  0
ARC
  5
15E4C
  8
0
 10
3735.9966739097130812
 20
131.0105238637320042
 30
0.0
 40
0.9426889785520607
 50
87.0509933632669828
 51
89.7433171561396961
  0
ARC
  5
15E4D
  8
0
 10
3735.9979568853859746
 20
131.1367534488900901
 30
0.0
 40
0.7923795668569951
 50
79.4477895221117478
 51
89.7873966204923448
  0
ARC
  5
15E4E
  8
0
 10
3736.0455274196228856
 20
131.392122179337008
 30
0.0
 40
0.5326178602533309
 50
67.8743628043721685
 51
79.4477895221117478
  0
ARC
  5
15E4F
  8
0
 10
3736.1465054194100048
 20
131.6404821428550918
 30
0.0
 40
0.2645148428893538
 50
50.6567074413367422
 51
67.8743628043721685
  0
ARC
  5
15E50
  8
0
 10
3736.2459494338791046
 20
131.7617918587806969
 30
0.0
 40
0.1076545254352343
 50
30.3208969516515516
 51
50.6567074413367422
  0
ARC
  5
15E51
  8
0
 10
3736.2742288477861621
 20
131.7783308529807016
 30
0.0
 40
0.0748938236719753
 50
356.1176999089393007
 51
30.3208969516508517
  0
ARC
  5
15E52
  8
0
 10
3736.2938308130551377
 20
131.7770006085399928
 30
0.0
 40
0.0552467731893763
 50
330.3190589088181923
 51
356.1176999089393007
  0
ARC
  5
15E53
  8
0
 10
3736.2231307666920657
 20
131.8172960398472924
 30
0.0
 40
0.1366237867729077
 50
308.2736686778266062
 51
330.3190589088181923
  0
ARC
  5
15E54
  8
0
 10
3736.1401189318239631
 20
131.9319283314652864
 30
0.0
 40
0.2780974339291988
 50
291.0096003921991041
 51
307.0712075548894973
  0
ARC
  5
15E55
  8
0
 10
3736.0435963215350057
 20
132.1757188024429865
 30
0.0
 40
0.5402932633492991
 50
279.8883962571878783
 51
291.2960306628712033
  0
ARC
  5
15E56
  8
0
 10
3736.0053027446779197
 20
132.3681320282636023
 30
0.0
 40
0.7364390437774893
 50
275.5045949321399803
 51
280.252636158617122
  0
ARC
  5
15E57
  8
0
 10
3735.9973534945747815
 20
132.4488406978323098
 30
0.0
 40
0.817538080232117
 50
270.2483487616007096
 51
275.5165487833417046
  0
LINE
  5
15E58
  8
0
 10
3736.3650895956179738
 20
131.8479953446268951
 30
0.0
 11
3736.3650844887279163
 21
131.7944397876892992
 31
0.0
  0
ARC
  5
15E59
  8
0
 10
3736.2836543959801929
 20
131.7944475526074939
 30
0.0
 40
0.081430093117764
 50
332.8482050472243827
 51
359.994536454226818
  0
ARC
  5
15E5A
  8
0
 10
3736.2446462672178313
 20
131.8144535383534048
 30
0.0
 40
0.1252692716593303
 50
312.8014484495931242
 51
332.8482050472243827
  0
ARC
  5
15E5B
  8
0
 10
3736.1798806691181198
 20
131.8843904755543122
 30
0.0
 40
0.2205885135905627
 50
297.2716515740362979
 51
312.8014484495931242
  0
ARC
  5
15E5C
  8
0
 10
3736.0818319674758641
 20
132.0745871904638022
 30
0.0
 40
0.4345706115706751
 50
286.5081625657891777
 51
297.2716515740362979
  0
ARC
  5
15E5D
  8
0
 10
3736.0253488059020128
 20
132.2651714401233107
 30
0.0
 40
0.6333486379208173
 50
277.1757876855364202
 51
286.5081625657891777
  0
ARC
  5
15E5E
  8
0
 10
3735.9928956922308316
 20
132.5238062329239881
 30
0.0
 40
0.894011547335571
 50
270.5128046906796726
 51
277.168855139589084
  0
ARC
  5
15E5F
  8
0
 10
3736.2917830414648961
 20
131.7934631952026052
 30
0.0
 40
0.0733079525269219
 50
0.763304403384658
 51
28.2198641844233791
  0
ARC
  5
15E60
  8
0
 10
3736.2602466962848666
 20
131.7767356294083925
 30
0.0
 40
0.1090057456597069
 50
28.1290163415058991
 51
46.3525124817178309
  0
ARC
  5
15E61
  8
0
 10
3736.1909190178239442
 20
131.7040551116456015
 30
0.0
 40
0.2094486879851387
 50
46.3525124817178309
 51
60.3695109040281608
  0
ARC
  5
15E62
  8
0
 10
3736.1058174362751743
 20
131.554434675477097
 30
0.0
 40
0.3815781569944898
 50
60.3695109040281608
 51
75.3485313075001812
  0
ARC
  5
15E63
  8
0
 10
3735.9870180819480083
 20
131.1000307140704138
 30
0.0
 40
0.8512549040562253
 50
75.3485313075001812
 51
82.9344769017672974
  0
ARC
  5
15E64
  8
0
 10
3735.9979494107487881
 20
131.1062369419096001
 30
0.0
 40
0.8438114724842222
 50
83.6192713205023637
 51
88.8408477791304563
  0
ARC
  5
15E65
  8
0
 10
3736.0355954614860821
 20
134.4351171721322942
 30
0.0
 40
2.485326611569028
 50
269.2000512320634016
 51
269.5256421978505728
  0
ARC
  5
15E66
  8
0
 10
3735.9978336247668267
 20
131.1994517785099106
 30
0.0
 40
0.7196427163863404
 50
82.1474065463072662
 51
89.7560942025981348
  0
ARC
  5
15E67
  8
0
 10
3736.0236591837929154
 20
131.370540443127112
 30
0.0
 40
0.5466344218233113
 50
71.8567803796518376
 51
82.3788826758455315
  0
ARC
  5
15E68
  8
0
 10
3736.1144996881798761
 20
131.6335381309878017
 30
0.0
 40
0.2684620838711433
 50
52.3006101704635427
 51
72.8019182395491526
  0
ARC
  5
15E69
  8
0
 10
3736.2095089887179711
 20
131.7596242536646116
 30
0.0
 40
0.1106158343748785
 50
32.022022458403562
 51
51.3009804142611472
  0
ARC
  5
15E6A
  8
0
 10
3736.2525480608128419
 20
131.7857060493167012
 30
0.0
 40
0.0602998097356013
 50
345.320217977507923
 51
32.6947263225081883
  0
ARC
  5
15E6B
  8
0
 10
3736.2372085527467789
 20
131.7917039504307013
 30
0.0
 40
0.0766824727829038
 50
320.3050369441443195
 51
343.8893446305633006
  0
ARC
  5
15E6C
  8
0
 10
3736.1818256685251072
 20
131.8390326934402879
 30
0.0
 40
0.1495296723949067
 50
300.9743312891059759
 51
319.9048806297528813
  0
ARC
  5
15E6D
  8
0
 10
3736.0791566578050151
 20
132.0159051421503875
 30
0.0
 40
0.3540314761959122
 50
283.4945923332501252
 51
300.4888249234577984
  0
ARC
  5
15E6E
  8
0
 10
3736.0050438127641428
 20
132.2973888233013042
 30
0.0
 40
0.6450700059550685
 50
272.7411154800441864
 51
284.061413539550017
  0
ARC
  5
15E6F
  8
0
 10
3735.9965207410209587
 20
132.411020800866595
 30
0.0
 40
0.7589858139919804
 50
270.330373220352385
 51
272.9735548822137048
  0
ARC
  5
15E70
  8
0
 10
3735.9967560051150031
 20
132.4148842909482937
 30
0.0
 40
0.7523139868477738
 50
270.315385278930421
 51
274.7688803519566818
  0
ARC
  5
15E71
  8
0
 10
3736.0149275921439767
 20
132.2521799843717929
 30
0.0
 40
0.5886800447773958
 50
274.3229135007358082
 51
288.1083859690471058
  0
ARC
  5
15E72
  8
0
 10
3736.1141379146210966
 20
131.95583311216879
 30
0.0
 40
0.2761837095932052
 50
287.6546256188378266
 51
306.4408205496263236
  0
ARC
  5
15E73
  8
0
 10
3736.216261799690983
 20
131.8175220592111998
 30
0.0
 40
0.1042557151533167
 50
306.4408205496263236
 51
328.9620368614051813
  0
ARC
  5
15E74
  8
0
 10
3736.247821832252157
 20
131.7942054883988874
 30
0.0
 40
0.0652973378737573
 50
332.215388470290975
 51
349.0720946130334141
  0
ARC
  5
15E75
  8
0
 10
3736.2551052103531219
 20
131.7924719483567912
 30
0.0
 40
0.0578182924889719
 50
349.3905601406107735
 51
356.0280686334003235
  0
LINE
  5
15E76
  8
0
 10
3736.0592764272278146
 20
131.8469475036893073
 30
0.0
 11
3736.0523563804281366
 21
131.8360328510892998
 31
0.0
  0
ARC
  5
15E77
  8
0
 10
3736.0471727041699523
 20
131.83931937642501
 30
0.0
 40
0.0061377315294667
 50
273.5907383043116852
 51
327.6247145926483881
  0
ARC
  5
15E78
  8
0
 10
3736.0507186542208728
 20
131.8396466045404907
 30
0.0
 40
0.0071857807296463
 50
182.3493669743104135
 51
243.8978469888859877
  0
LINE
  5
15E79
  8
0
 10
3736.0435389135282094
 20
131.8393520399893077
 30
0.0
 11
3736.043538913428165
 21
131.8516573480893044
 31
0.0
  0
LINE
  5
15E7A
  8
0
 10
3736.043538913428165
 20
131.8393520424266967
 30
0.0
 11
3736.0496919536280984
 21
131.8490569304892972
 31
0.0
  0
LINE
  5
15E7B
  8
0
 10
3736.0475571053279964
 20
131.8331936940892888
 30
0.0
 11
3736.0469176878282269
 21
131.8326287365892995
 31
0.0
  0
LINE
  5
15E7C
  8
0
 10
3736.0536234893170331
 20
131.8380314001936995
 30
0.0
 11
3736.0731370166281522
 21
131.8297845306892953
 31
0.0
  0
LINE
  5
15E7D
  8
0
 10
3736.0731370166281522
 20
131.8297845306892953
 30
0.0
 11
3736.1005817772279443
 21
131.83289241778931
 31
0.0
  0
LINE
  5
15E7E
  8
0
 10
3736.1005817772279443
 20
131.83289241778931
 30
0.0
 11
3736.1067348173119171
 21
131.8425973082649136
 31
0.0
  0
LINE
  5
15E7F
  8
0
 10
3736.1163192909029931
 20
131.8404878815510131
 30
0.0
 11
3736.1093992442279159
 21
131.8295732289892896
 31
0.0
  0
ARC
  5
15E80
  8
0
 10
3736.1042155678242125
 20
131.832859754370304
 30
0.0
 40
0.006137731677458
 50
273.5907386522050047
 51
327.624714967079683
  0
LINE
  5
15E81
  8
0
 10
3736.104599969028186
 20
131.826734071889291
 30
0.0
 11
3736.1039626912279346
 21
131.8261693046893015
 31
0.0
  0
LINE
  5
15E82
  8
0
 10
3736.1039626912279346
 20
131.8261693046893015
 30
0.0
 11
3736.0745610164640311
 21
131.8228398656461025
 31
0.0
  0
ARC
  5
15E83
  8
0
 10
3736.0735946234658513
 20
131.831373907641705
 30
0.0
 40
0.0085885847616197
 50
257.0249482855793985
 51
276.4606395412957909
  0
ARC
  5
15E84
  8
0
 10
3736.0709168199027772
 20
131.829036964658286
 30
0.0
 40
0.0060787326295796
 50
248.0581534990276111
 51
277.0819162129719757
  0
LINE
  5
15E85
  8
0
 10
3736.0686454082278942
 20
131.8233985535892998
 30
0.0
 11
3736.0469198275281997
 21
131.8326289267893117
 31
0.0
  0
ARC
  5
15E86
  8
0
 10
3736.059832040909896
 20
131.829121275604308
 30
0.0
 40
0.0133214971320116
 50
332.6672296267850015
 51
2.8538405823291959
  0
LINE
  5
15E87
  8
0
 10
3736.0731370166199667
 20
131.8297845305885119
 30
0.0
 11
3736.0731370166281522
 21
131.8484938660787122
 31
0.0
  0
LINE
  5
15E88
  8
0
 10
3736.1005817772279443
 20
131.8451977258241925
 30
0.0
 11
3736.1005817772279443
 21
131.83289241778931
 31
0.0
  0
ARC
  5
15E89
  8
0
 10
3736.1077615345880076
 20
131.8331869932154063
 30
0.0
 40
0.0071857978285074
 50
182.3494481645930989
 51
243.8977657986127099
  0
LINE
  5
15E8A
  8
0
 10
3736.0745610165281505
 20
131.8228398655892875
 30
0.0
 11
3736.0676409697280178
 21
131.8119252129893084
 31
0.0
  0
ARC
  5
15E8B
  8
0
 10
3736.0624572934698335
 20
131.8152117383249902
 30
0.0
 40
0.0061377315294667
 50
273.5907383043116852
 51
327.6247145926483881
  0
ARC
  5
15E8C
  8
0
 10
3736.0660032435212088
 20
131.8155389664404993
 30
0.0
 40
0.0071857807296463
 50
182.3493669743104135
 51
243.8978469888859877
  0
LINE
  5
15E8D
  8
0
 10
3736.0588235028280906
 20
131.8152444018892879
 30
0.0
 11
3736.0588235027280462
 21
131.827549709989313
 31
0.0
  0
LINE
  5
15E8E
  8
0
 10
3736.0588235027280462
 20
131.8152444043267053
 30
0.0
 11
3736.0649765429279796
 21
131.8249492923893058
 31
0.0
  0
LINE
  5
15E8F
  8
0
 10
3736.0628416946278776
 20
131.8090860559892974
 30
0.0
 11
3736.0622022771271986
 21
131.8085210984893081
 31
0.0
  0
LINE
  5
15E90
  8
0
 10
3736.0689080786178238
 20
131.8139237620937081
 30
0.0
 11
3736.0884216059280334
 21
131.8056768925893039
 31
0.0
  0
LINE
  5
15E91
  8
0
 10
3736.0884216059280334
 20
131.8056768925893039
 30
0.0
 11
3736.115866366526916
 21
131.8087847796892902
 31
0.0
  0
LINE
  5
15E92
  8
0
 10
3736.115866366526916
 20
131.8087847796892902
 30
0.0
 11
3736.1220194066117983
 21
131.8184896701648938
 31
0.0
  0
LINE
  5
15E93
  8
0
 10
3736.1316038802037838
 20
131.8163802434511069
 30
0.0
 11
3736.1246838335277971
 21
131.8054655908892983
 31
0.0
  0
ARC
  5
15E94
  8
0
 10
3736.1195001571231842
 20
131.8087521162703126
 30
0.0
 40
0.006137731677458
 50
273.5907386522050047
 51
327.624714967079683
  0
LINE
  5
15E95
  8
0
 10
3736.1198845583271577
 20
131.8026264337892997
 30
0.0
 11
3736.1192472805269063
 21
131.8020616665893101
 31
0.0
  0
LINE
  5
15E96
  8
0
 10
3736.1192472805269063
 20
131.8020616665893101
 30
0.0
 11
3736.0898456057630028
 21
131.7987322275461111
 31
0.0
  0
ARC
  5
15E97
  8
0
 10
3736.0888792127661873
 20
131.8072662695416
 30
0.0
 40
0.0085885847616197
 50
257.0249482855793985
 51
276.4606395412957909
  0
ARC
  5
15E98
  8
0
 10
3736.0862014092031131
 20
131.8049293265582946
 30
0.0
 40
0.0060787326295796
 50
248.0581534990276111
 51
277.0819162129719757
  0
LINE
  5
15E99
  8
0
 10
3736.0839299975277754
 20
131.7992909154893084
 30
0.0
 11
3736.0622044168271714
 21
131.8085212886892919
 31
0.0
  0
ARC
  5
15E9A
  8
0
 10
3736.0751166302088677
 20
131.8050136375042882
 30
0.0
 40
0.0133214971320116
 50
332.6672296267850015
 51
2.8538405823291959
  0
LINE
  5
15E9B
  8
0
 10
3736.0884216059198479
 20
131.8056768924884921
 30
0.0
 11
3736.0884216059280334
 21
131.8243862279786924
 31
0.0
  0
LINE
  5
15E9C
  8
0
 10
3736.115866366526916
 20
131.8210900877242011
 30
0.0
 11
3736.115866366526916
 21
131.8087847796892902
 31
0.0
  0
ARC
  5
15E9D
  8
0
 10
3736.1230461238878888
 20
131.8090793551153865
 30
0.0
 40
0.0071857978285074
 50
182.3494481645930989
 51
243.8977657986127099
  0
LINE
  5
15E9E
  8
0
 10
3736.0898456057780095
 20
131.7987322274393023
 30
0.0
 11
3736.0829255589778768
 21
131.7878175748392948
 31
0.0
  0
ARC
  5
15E9F
  8
0
 10
3736.0777418827201473
 20
131.791104100175005
 30
0.0
 40
0.0061377315294667
 50
273.5907383043116852
 51
327.6247145926483881
  0
ARC
  5
15EA0
  8
0
 10
3736.0812878327710678
 20
131.7914313282905141
 30
0.0
 40
0.0071857807296463
 50
182.3493669743104135
 51
243.8978469888859877
  0
LINE
  5
15EA1
  8
0
 10
3736.0741080920779496
 20
131.7911367637393028
 30
0.0
 11
3736.0741080919769956
 21
131.8034420718392994
 31
0.0
  0
LINE
  5
15EA2
  8
0
 10
3736.0741080919769956
 20
131.7911367661766917
 30
0.0
 11
3736.0802611321769291
 21
131.8008416542392922
 31
0.0
  0
LINE
  5
15EA3
  8
0
 10
3736.0781262838781913
 20
131.7849784178393122
 30
0.0
 11
3736.0774868663779671
 21
131.7844134603392945
 31
0.0
  0
LINE
  5
15EA4
  8
0
 10
3736.0841926678667733
 20
131.7898161239438082
 30
0.0
 11
3736.1037061951778924
 21
131.7815692544392903
 31
0.0
  0
LINE
  5
15EA5
  8
0
 10
3736.1037061951778924
 20
131.7815692544392903
 30
0.0
 11
3736.1311509557781392
 21
131.784677141539305
 31
0.0
  0
LINE
  5
15EA6
  8
0
 10
3736.1311509557781392
 20
131.784677141539305
 30
0.0
 11
3736.1373039958621121
 21
131.7943820320149086
 31
0.0
  0
LINE
  5
15EA7
  8
0
 10
3736.146888469453188
 20
131.7922726053010081
 30
0.0
 11
3736.1399684227781108
 21
131.7813579527393131
 31
0.0
  0
ARC
  5
15EA8
  8
0
 10
3736.1347847463730432
 20
131.784644478120299
 30
0.0
 40
0.006137731677458
 50
273.5907386522050047
 51
327.624714967079683
  0
LINE
  5
15EA9
  8
0
 10
3736.1351691475779262
 20
131.7785187956392861
 30
0.0
 11
3736.1345318697781295
 21
131.7779540284392965
 31
0.0
  0
LINE
  5
15EAA
  8
0
 10
3736.1345318697781295
 20
131.7779540284392965
 30
0.0
 11
3736.105130195014226
 21
131.7746245893960975
 31
0.0
  0
ARC
  5
15EAB
  8
0
 10
3736.1041638020160462
 20
131.7831586313915864
 30
0.0
 40
0.0085885847616197
 50
257.0249482855793985
 51
276.4606395412957909
  0
ARC
  5
15EAC
  8
0
 10
3736.1014859984529721
 20
131.7808216884083095
 30
0.0
 40
0.0060787326295796
 50
248.0581534990276111
 51
277.0819162129719757
  0
LINE
  5
15EAD
  8
0
 10
3736.0992145867780891
 20
131.7751832773392948
 30
0.0
 11
3736.0774890060779398
 21
131.7844136505393067
 31
0.0
  0
ARC
  5
15EAE
  8
0
 10
3736.0904012194600909
 20
131.780905999354303
 30
0.0
 40
0.0133214971320116
 50
332.6672296267850015
 51
2.8538405823291959
  0
LINE
  5
15EAF
  8
0
 10
3736.1037061951710712
 20
131.7815692543385069
 30
0.0
 11
3736.1037061951778924
 21
131.8002785898287073
 31
0.0
  0
LINE
  5
15EB0
  8
0
 10
3736.1311509557781392
 20
131.7969824495741875
 30
0.0
 11
3736.1311509557781392
 21
131.784677141539305
 31
0.0
  0
ARC
  5
15EB1
  8
0
 10
3736.1383307131382026
 20
131.7849717169654014
 30
0.0
 40
0.0071857978285074
 50
182.3494481645930989
 51
243.8977657986127099
  0
LINE
  5
15EB2
  8
0
 10
3736.1051301950278685
 20
131.7746245893393109
 30
0.0
 11
3736.0982101482281905
 21
131.7637099367393034
 31
0.0
  0
ARC
  5
15EB3
  8
0
 10
3736.0930264719700062
 20
131.7669964620750136
 30
0.0
 40
0.0061377315294667
 50
273.5907383043116852
 51
327.6247145926483881
  0
ARC
  5
15EB4
  8
0
 10
3736.0965724220209268
 20
131.7673236901904943
 30
0.0
 40
0.0071857807296463
 50
182.3493669743104135
 51
243.8978469888859877
  0
LINE
  5
15EB5
  8
0
 10
3736.0893926813278085
 20
131.7670291256393114
 30
0.0
 11
3736.0893926812282189
 21
131.779334433739308
 31
0.0
  0
LINE
  5
15EB6
  8
0
 10
3736.0893926812282189
 20
131.7670291280767003
 30
0.0
 11
3736.0955457214281523
 21
131.7767340161393008
 31
0.0
  0
LINE
  5
15EB7
  8
0
 10
3736.0934108731280503
 20
131.7608707797392924
 30
0.0
 11
3736.0927714556278261
 21
131.7603058222393031
 31
0.0
  0
LINE
  5
15EB8
  8
0
 10
3736.0994772571179965
 20
131.7657084858437031
 30
0.0
 11
3736.1189907844268419
 21
131.7574616163392989
 31
0.0
  0
LINE
  5
15EB9
  8
0
 10
3736.1189907844268419
 20
131.7574616163392989
 30
0.0
 11
3736.1464355450270887
 21
131.7605695034393136
 31
0.0
  0
LINE
  5
15EBA
  8
0
 10
3736.1464355450270887
 20
131.7605695034393136
 30
0.0
 11
3736.152588585111971
 21
131.7702743939148888
 31
0.0
  0
LINE
  5
15EBB
  8
0
 10
3736.1621730587039565
 20
131.7681649672009883
 30
0.0
 11
3736.1552530120279698
 21
131.7572503146392933
 31
0.0
  0
ARC
  5
15EBC
  8
0
 10
3736.1500693356238116
 20
131.7605368400203076
 30
0.0
 40
0.006137731677458
 50
273.5907386522050047
 51
327.624714967079683
  0
LINE
  5
15EBD
  8
0
 10
3736.1504537368277852
 20
131.7544111575392947
 30
0.0
 11
3736.1498164590279885
 21
131.7538463903393051
 31
0.0
  0
LINE
  5
15EBE
  8
0
 10
3736.1498164590279885
 20
131.7538463903393051
 30
0.0
 11
3736.1204147842631755
 21
131.7505169512961061
 31
0.0
  0
ARC
  5
15EBF
  8
0
 10
3736.1194483912659052
 20
131.759050993291595
 30
0.0
 40
0.0085885847616197
 50
257.0249482855793985
 51
276.4606395412957909
  0
ARC
  5
15EC0
  8
0
 10
3736.1167705877028311
 20
131.7567140503082896
 30
0.0
 40
0.0060787326295796
 50
248.0581534990276111
 51
277.0819162129719757
  0
LINE
  5
15EC1
  8
0
 10
3736.1144991760279481
 20
131.7510756392393034
 30
0.0
 11
3736.0927735953268893
 21
131.7603060124392869
 31
0.0
  0
ARC
  5
15EC2
  8
0
 10
3736.1056858087099499
 20
131.7567983612543117
 30
0.0
 40
0.0133214971320116
 50
332.6672296267850015
 51
2.8538405823291959
  0
LINE
  5
15EC3
  8
0
 10
3736.1189907844200206
 20
131.7574616162384871
 30
0.0
 11
3736.1189907844282061
 21
131.7761941594266091
 31
0.0
  0
LINE
  5
15EC4
  8
0
 10
3736.1464355450270887
 20
131.7728748114741961
 30
0.0
 11
3736.1464355450270887
 21
131.7605695034393136
 31
0.0
  0
ARC
  5
15EC5
  8
0
 10
3736.1536153023880615
 20
131.76086407886541
 30
0.0
 40
0.0071857978285074
 50
182.3494481645930989
 51
243.8977657986127099
  0
LINE
  5
15EC6
  8
0
 10
3736.1204147843268402
 20
131.7505169511892973
 30
0.0
 11
3736.1134947375280717
 21
131.7396022985892898
 31
0.0
  0
ARC
  5
15EC7
  8
0
 10
3736.1083110612698874
 20
131.742888823925
 30
0.0
 40
0.0061377315294667
 50
273.5907383043116852
 51
327.6247145926483881
  0
ARC
  5
15EC8
  8
0
 10
3736.1118570113208079
 20
131.7432160520405091
 30
0.0
 40
0.0071857807296463
 50
182.3493669743104135
 51
243.8978469888859877
  0
LINE
  5
15EC9
  8
0
 10
3736.1046772706281445
 20
131.7429214874892978
 30
0.0
 11
3736.1046772705281001
 21
131.7552267955892944
 31
0.0
  0
LINE
  5
15ECA
  8
0
 10
3736.1046772705281001
 20
131.7429214899266867
 30
0.0
 11
3736.1108303107280335
 21
131.7526263779892872
 31
0.0
  0
LINE
  5
15ECB
  8
0
 10
3736.1086954624279315
 20
131.7367631415893072
 30
0.0
 11
3736.108056044928162
 21
131.7361981840892895
 31
0.0
  0
LINE
  5
15ECC
  8
0
 10
3736.1147618464178777
 20
131.7416008476936895
 30
0.0
 11
3736.1342753737280873
 21
131.7333539781893137
 31
0.0
  0
LINE
  5
15ECD
  8
0
 10
3736.1342753737280873
 20
131.7333539781893137
 30
0.0
 11
3736.1617201343269699
 21
131.7364618652893
 31
0.0
  0
LINE
  5
15ECE
  8
0
 10
3736.1617201343269699
 20
131.7364618652893
 30
0.0
 11
3736.1678731744118522
 21
131.7461667557649037
 31
0.0
  0
LINE
  5
15ECF
  8
0
 10
3736.1774576480038377
 20
131.7440573290510031
 30
0.0
 11
3736.170537601327851
 21
131.7331426764893081
 31
0.0
  0
ARC
  5
15ED0
  8
0
 10
3736.1653539249227833
 20
131.7364292018704077
 30
0.0
 40
0.006137731677458
 50
273.5907386522050047
 51
327.624714967079683
  0
LINE
  5
15ED1
  8
0
 10
3736.1657383261272116
 20
131.7303035193893095
 30
0.0
 11
3736.1651010483278696
 21
131.7297387521892915
 31
0.0
  0
LINE
  5
15ED2
  8
0
 10
3736.1651010483278696
 20
131.7297387521892915
 30
0.0
 11
3736.1356993735630567
 21
131.7264093131460925
 31
0.0
  0
ARC
  5
15ED3
  8
0
 10
3736.1347329805657864
 20
131.7349433551416098
 30
0.0
 40
0.0085885847616197
 50
257.0249482855793985
 51
276.4606395412957909
  0
ARC
  5
15ED4
  8
0
 10
3736.132055177003167
 20
131.7326064121583045
 30
0.0
 40
0.0060787326295796
 50
248.0581534990276111
 51
277.0819162129719757
  0
LINE
  5
15ED5
  8
0
 10
3736.1297837653278293
 20
131.7269680010892898
 30
0.0
 11
3736.1080581846281348
 21
131.7361983742893017
 31
0.0
  0
ARC
  5
15ED6
  8
0
 10
3736.1209703980098311
 20
131.7326907231042981
 30
0.0
 40
0.0133214971320116
 50
332.6672296267850015
 51
2.8538405823291959
  0
LINE
  5
15ED7
  8
0
 10
3736.1342753737208113
 20
131.7333539780883882
 30
0.0
 11
3736.1342753737280873
 21
131.752086521332302
 31
0.0
  0
LINE
  5
15ED8
  8
0
 10
3736.1617201343269699
 20
131.7487671733242109
 30
0.0
 11
3736.1617201343269699
 21
131.7364618652893
 31
0.0
  0
ARC
  5
15ED9
  8
0
 10
3736.1688998916870332
 20
131.7367564407153964
 30
0.0
 40
0.0071857978285074
 50
182.3494481645930989
 51
243.8977657986127099
  0
LINE
  5
15EDA
  8
0
 10
3736.1356993736280856
 20
131.7264093130893059
 30
0.0
 11
3736.1287793268279529
 21
131.7154946604892984
 31
0.0
  0
ARC
  5
15EDB
  8
0
 10
3736.1235956505702234
 20
131.7187811858250086
 30
0.0
 40
0.0061377315294667
 50
273.5907383043116852
 51
327.6247145926483881
  0
ARC
  5
15EDC
  8
0
 10
3736.1271416006211439
 20
131.7191084139404893
 30
0.0
 40
0.0071857807296463
 50
182.3493669743104135
 51
243.8978469888859877
  0
LINE
  5
15EDD
  8
0
 10
3736.1199618599280257
 20
131.7188138493893064
 30
0.0
 11
3736.1199618598279812
 21
131.731119157489303
 31
0.0
  0
LINE
  5
15EDE
  8
0
 10
3736.1199618598279812
 20
131.7188138518266953
 30
0.0
 11
3736.1261149000279147
 21
131.7285187398892958
 31
0.0
  0
LINE
  5
15EDF
  8
0
 10
3736.1239800517278127
 20
131.7126555034892874
 30
0.0
 11
3736.1233406342280432
 21
131.7120905459892981
 31
0.0
  0
LINE
  5
15EE0
  8
0
 10
3736.1300464357168494
 20
131.7174932095936981
 30
0.0
 11
3736.1495599630279685
 21
131.7092463400892939
 31
0.0
  0
LINE
  5
15EE1
  8
0
 10
3736.1495599630279685
 20
131.7092463400892939
 30
0.0
 11
3736.1770047236282153
 21
131.7123542271893086
 31
0.0
  0
LINE
  5
15EE2
  8
0
 10
3736.1770047236282153
 20
131.7123542271893086
 30
0.0
 11
3736.1831577637130977
 21
131.7220591176649123
 31
0.0
  0
LINE
  5
15EE3
  8
0
 10
3736.1927422373041736
 20
131.7199496909510117
 30
0.0
 11
3736.1858221906281869
 21
131.7090350383892883
 31
0.0
  0
ARC
  5
15EE4
  8
0
 10
3736.1806385142231193
 20
131.7123215637703026
 30
0.0
 40
0.006137731677458
 50
273.5907386522050047
 51
327.624714967079683
  0
LINE
  5
15EE5
  8
0
 10
3736.1810229154280023
 20
131.7061958812892897
 30
0.0
 11
3736.1803856376282056
 21
131.7056311140893001
 31
0.0
  0
LINE
  5
15EE6
  8
0
 10
3736.1803856376282056
 20
131.7056311140893001
 30
0.0
 11
3736.1509839628629379
 21
131.7023016750461011
 31
0.0
  0
ARC
  5
15EE7
  8
0
 10
3736.1500175698661224
 20
131.71083571704159
 30
0.0
 40
0.0085885847616197
 50
257.0249482855793985
 51
276.4606395412957909
  0
ARC
  5
15EE8
  8
0
 10
3736.1473397663030482
 20
131.7084987740583131
 30
0.0
 40
0.0060787326295796
 50
248.0581534990276111
 51
277.0819162129719757
  0
LINE
  5
15EE9
  8
0
 10
3736.1450683546281653
 20
131.7028603629892984
 30
0.0
 11
3736.123342773928016
 21
131.7120907361893103
 31
0.0
  0
ARC
  5
15EEA
  8
0
 10
3736.1362549873101671
 20
131.7085830850043067
 30
0.0
 40
0.0133214971320116
 50
332.6672296267850015
 51
2.8538405823291959
  0
LINE
  5
15EEB
  8
0
 10
3736.1495599630211473
 20
131.7092463399885105
 30
0.0
 11
3736.1495599630279685
 21
131.7279788831822884
 31
0.0
  0
LINE
  5
15EEC
  8
0
 10
3736.1770047236282153
 20
131.7246595352241911
 30
0.0
 11
3736.1770047236282153
 21
131.7123542271893086
 31
0.0
  0
ARC
  5
15EED
  8
0
 10
3736.1841844809878239
 20
131.712648802615405
 30
0.0
 40
0.0071857978285074
 50
182.3494481645930989
 51
243.8977657986127099
  0
LINE
  5
15EEE
  8
0
 10
3736.0439918379279334
 20
131.8710551417892987
 30
0.0
 11
3736.0370717911268912
 21
131.8601404891892912
 31
0.0
  0
ARC
  5
15EEF
  8
0
 10
3736.0318881148700711
 20
131.8634270145250014
 30
0.0
 40
0.0061377315294667
 50
273.5907383043116852
 51
327.6247145926483881
  0
ARC
  5
15EF0
  8
0
 10
3736.0354340649209917
 20
131.8637542426405105
 30
0.0
 40
0.0071857807296463
 50
182.3493669743104135
 51
243.8978469888859877
  0
LINE
  5
15EF1
  8
0
 10
3736.0282543242278734
 20
131.8634596780892991
 30
0.0
 11
3736.028254324127829
 21
131.8757649861892958
 31
0.0
  0
LINE
  5
15EF2
  8
0
 10
3736.028254324127829
 20
131.8634596805266881
 30
0.0
 11
3736.0344073643282172
 21
131.8731645685892886
 31
0.0
  0
LINE
  5
15EF3
  8
0
 10
3736.0322725160281152
 20
131.8573013321893086
 30
0.0
 11
3736.031633098527891
 21
131.8567363746892909
 31
0.0
  0
LINE
  5
15EF4
  8
0
 10
3736.0383389000171519
 20
131.8621390382938046
 30
0.0
 11
3736.0578524273278163
 21
131.8538921687892866
 31
0.0
  0
LINE
  5
15EF5
  8
0
 10
3736.0578524273278163
 20
131.8538921687892866
 30
0.0
 11
3736.0852971879280631
 21
131.8570000558893014
 31
0.0
  0
LINE
  5
15EF6
  8
0
 10
3736.0852971879280631
 20
131.8570000558893014
 30
0.0
 11
3736.0914502280129454
 21
131.866704946364905
 31
0.0
  0
LINE
  5
15EF7
  8
0
 10
3736.1010347016031119
 20
131.8645955196510045
 30
0.0
 11
3736.0941146549280347
 21
131.8536808670893095
 31
0.0
  0
ARC
  5
15EF8
  8
0
 10
3736.0889309785238765
 20
131.8569673924704091
 30
0.0
 40
0.006137731677458
 50
273.5907386522050047
 51
327.624714967079683
  0
LINE
  5
15EF9
  8
0
 10
3736.0893153797278501
 20
131.8508417099893109
 30
0.0
 11
3736.0886781019280534
 21
131.8502769427892929
 31
0.0
  0
LINE
  5
15EFA
  8
0
 10
3736.0886781019280534
 20
131.8502769427892929
 30
0.0
 11
3736.0592764271641499
 21
131.8469475037460938
 31
0.0
  0
ARC
  5
15EFB
  8
0
 10
3736.0583100341659701
 20
131.8554815457416112
 30
0.0
 40
0.0085885847616197
 50
257.0249482855793985
 51
276.4606395412957909
  0
ARC
  5
15EFC
  8
0
 10
3736.055632230602896
 20
131.8531446027583058
 30
0.0
 40
0.0060787326295796
 50
248.0581534990276111
 51
277.0819162129719757
  0
LINE
  5
15EFD
  8
0
 10
3736.053360818928013
 20
131.8475061916892912
 30
0.0
 11
3736.0316352382278637
 21
131.8567365648893031
 31
0.0
  0
ARC
  5
15EFE
  8
0
 10
3736.0445474516100148
 20
131.8532289137042994
 30
0.0
 40
0.0133214971320116
 50
332.6672296267850015
 51
2.8538405823291959
  0
LINE
  5
15EFF
  8
0
 10
3736.0578524273200856
 20
131.8538921686885033
 30
0.0
 11
3736.0578524273278163
 21
131.8726015041787036
 31
0.0
  0
LINE
  5
15F00
  8
0
 10
3736.0852971879280631
 20
131.8693053639242123
 30
0.0
 11
3736.0852971879280631
 21
131.8570000558893014
 31
0.0
  0
ARC
  5
15F01
  8
0
 10
3736.0924769452881264
 20
131.8572946313153977
 30
0.0
 40
0.0071857978285074
 50
182.3494481645930989
 51
243.8977657986127099
  0
LINE
  5
15F02
  8
0
 10
3736.0287072486280522
 20
131.8951627798892901
 30
0.0
 11
3736.0217872018279195
 21
131.884248127289311
 31
0.0
  0
ARC
  5
15F03
  8
0
 10
3736.01660352557019
 20
131.8875346526249928
 30
0.0
 40
0.0061377315294667
 50
273.5907383043116852
 51
327.6247145926483881
  0
ARC
  5
15F04
  8
0
 10
3736.0201494756211105
 20
131.8878618807405019
 30
0.0
 40
0.0071857807296463
 50
182.3493669743104135
 51
243.8978469888859877
  0
LINE
  5
15F05
  8
0
 10
3736.0129697349279922
 20
131.8875673161892905
 30
0.0
 11
3736.0129697348279478
 21
131.8998726242892872
 31
0.0
  0
LINE
  5
15F06
  8
0
 10
3736.0129697348279478
 20
131.8875673186267079
 30
0.0
 11
3736.0191227750278813
 21
131.8972722066893084
 31
0.0
  0
LINE
  5
15F07
  8
0
 10
3736.0169879267277793
 20
131.8814089702893
 30
0.0
 11
3736.0163485092280098
 21
131.8808440127893107
 31
0.0
  0
LINE
  5
15F08
  8
0
 10
3736.023054310716816
 20
131.8862466763937107
 30
0.0
 11
3736.0425678380279351
 21
131.8779998068893065
 31
0.0
  0
LINE
  5
15F09
  8
0
 10
3736.0425678380279351
 20
131.8779998068893065
 30
0.0
 11
3736.0700125986281819
 21
131.8811076939892928
 31
0.0
  0
LINE
  5
15F0A
  8
0
 10
3736.0700125986281819
 20
131.8811076939892928
 30
0.0
 11
3736.0761656387121548
 21
131.8908125844648964
 31
0.0
  0
LINE
  5
15F0B
  8
0
 10
3736.0857501123041402
 20
131.8887031577509958
 30
0.0
 11
3736.0788300656281535
 21
131.8777885051893008
 31
0.0
  0
ARC
  5
15F0C
  8
0
 10
3736.0736463892230859
 20
131.8810750305704005
 30
0.0
 40
0.006137731677458
 50
273.5907386522050047
 51
327.624714967079683
  0
LINE
  5
15F0D
  8
0
 10
3736.0740307904270594
 20
131.8749493480893022
 30
0.0
 11
3736.0733935126281722
 21
131.8743845808893127
 31
0.0
  0
LINE
  5
15F0E
  8
0
 10
3736.0733935126281722
 20
131.8743845808893127
 30
0.0
 11
3736.0439918378629045
 21
131.8710551418461137
 31
0.0
  0
ARC
  5
15F0F
  8
0
 10
3736.0430254448660889
 20
131.8795891838416026
 30
0.0
 40
0.0085885847616197
 50
257.0249482855793985
 51
276.4606395412957909
  0
ARC
  5
15F10
  8
0
 10
3736.0403476413030148
 20
131.8772522408582972
 30
0.0
 40
0.0060787326295796
 50
248.0581534990276111
 51
277.0819162129719757
  0
LINE
  5
15F11
  8
0
 10
3736.0380762296281318
 20
131.871613829789311
 30
0.0
 11
3736.0163506489279825
 21
131.8808442029892944
 31
0.0
  0
ARC
  5
15F12
  8
0
 10
3736.0292628623092241
 20
131.8773365518042908
 30
0.0
 40
0.0133214971320116
 50
332.6672296267850015
 51
2.8538405823291959
  0
LINE
  5
15F13
  8
0
 10
3736.0425678380202044
 20
131.8779998067884947
 30
0.0
 11
3736.0425678380279351
 21
131.8967323500266957
 31
0.0
  0
LINE
  5
15F14
  8
0
 10
3736.0700125986281819
 20
131.8934130020242037
 30
0.0
 11
3736.0700125986281819
 21
131.8811076939892928
 31
0.0
  0
ARC
  5
15F15
  8
0
 10
3736.0771923559877905
 20
131.8814022694153891
 30
0.0
 40
0.0071857978285074
 50
182.3494481645930989
 51
243.8977657986127099
  0
LINE
  5
15F16
  8
0
 10
3736.0132070001250213
 20
131.9189302692086017
 30
0.0
 11
3736.006502612577151
 21
131.9083557654392962
 31
0.0
  0
ARC
  5
15F17
  8
0
 10
3736.0013189363198762
 20
131.9116422907750064
 30
0.0
 40
0.0061377315294667
 50
273.5907383043116852
 51
327.6247145926483881
  0
ARC
  5
15F18
  8
0
 10
3736.0048648863707967
 20
131.9119695188904871
 30
0.0
 40
0.0071857807296463
 50
182.3493669743104135
 51
243.8978469888859877
  0
LINE
  5
15F19
  8
0
 10
3735.9976851456781333
 20
131.9116749543393041
 30
0.0
 11
3735.9976851456181066
 21
131.9190960631277107
 31
0.0
  0
LINE
  5
15F1A
  8
0
 10
3735.9976851455780889
 20
131.9116749567766931
 30
0.0
 11
3736.002380134978921
 21
131.9190801329351075
 31
0.0
  0
LINE
  5
15F1B
  8
0
 10
3736.0017033374770108
 20
131.9055166084393136
 30
0.0
 11
3736.0010639199781508
 21
131.9049516509392959
 31
0.0
  0
LINE
  5
15F1C
  8
0
 10
3736.007769721466957
 20
131.9103543145438096
 30
0.0
 11
3736.0272832487780761
 21
131.9021074450392916
 31
0.0
  0
LINE
  5
15F1D
  8
0
 10
3736.0272832487780761
 20
131.9021074450392916
 30
0.0
 11
3736.0547280093778681
 21
131.9052153321393064
 31
0.0
  0
LINE
  5
15F1E
  8
0
 10
3736.0547280093778681
 20
131.9052153321393064
 30
0.0
 11
3736.0608810494632053
 21
131.91492022261491
 31
0.0
  0
LINE
  5
15F1F
  8
0
 10
3736.0704655230538265
 20
131.9128107959010094
 30
0.0
 11
3736.0635454763769303
 21
131.901896143339286
 31
0.0
  0
ARC
  5
15F20
  8
0
 10
3736.0583617999732269
 20
131.9051826687203004
 30
0.0
 40
0.006137731677458
 50
273.5907386522050047
 51
327.624714967079683
  0
LINE
  5
15F21
  8
0
 10
3736.0587462011781099
 20
131.8990569862392874
 30
0.0
 11
3736.0581089233778584
 21
131.8984922190392979
 31
0.0
  0
LINE
  5
15F22
  8
0
 10
3736.0581089233778584
 20
131.8984922190392979
 30
0.0
 11
3736.028707248613955
 21
131.8951627799960988
 31
0.0
  0
ARC
  5
15F23
  8
0
 10
3736.0277408556157752
 20
131.9036968219917014
 30
0.0
 40
0.0085885847616197
 50
257.0249482855793985
 51
276.4606395412957909
  0
ARC
  5
15F24
  8
0
 10
3736.0250630520531558
 20
131.9013598790083108
 30
0.0
 40
0.0060787326295796
 50
248.0581534990276111
 51
277.0819162129719757
  0
LINE
  5
15F25
  8
0
 10
3736.0227916403769086
 20
131.8957214679392962
 30
0.0
 11
3736.0010660596781236
 21
131.904951841139308
 31
0.0
  0
ARC
  5
15F26
  8
0
 10
3736.0139782730589104
 20
131.9014441899543044
 30
0.0
 40
0.0133214971320116
 50
332.6672296267850015
 51
2.8538405823291959
  0
LINE
  5
15F27
  8
0
 10
3736.0272832487698906
 20
131.9021074449385083
 30
0.0
 11
3736.0272832487771666
 21
131.9184916653684922
 31
0.0
  0
LINE
  5
15F28
  8
0
 10
3736.0547280093778681
 20
131.9168419570374056
 30
0.0
 11
3736.0547280093778681
 21
131.9052153321393064
 31
0.0
  0
ARC
  5
15F29
  8
0
 10
3736.0619077667379315
 20
131.9055099075654027
 30
0.0
 40
0.0071857978285074
 50
182.3494481645930989
 51
243.8977657986127099
  0
LINE
  5
15F2A
  8
0
 10
3736.0648125852180783
 20
131.9038946923436981
 30
0.0
 11
3736.0843261125278332
 21
131.8956478228392939
 31
0.0
  0
LINE
  5
15F2B
  8
0
 10
3736.0843261125278332
 20
131.8956478228392939
 30
0.0
 11
3736.11177087312808
 21
131.8987557099393086
 31
0.0
  0
LINE
  5
15F2C
  8
0
 10
3736.11177087312808
 20
131.8987557099393086
 30
0.0
 11
3736.1179239132120529
 21
131.9084606004149123
 31
0.0
  0
LINE
  5
15F2D
  8
0
 10
3736.1275083868031288
 20
131.9063511737010117
 30
0.0
 11
3736.1205883401280516
 21
131.8954365211392883
 31
0.0
  0
ARC
  5
15F2E
  8
0
 10
3736.115404663722984
 20
131.8987230465203027
 30
0.0
 40
0.006137731677458
 50
273.5907386522050047
 51
327.624714967079683
  0
LINE
  5
15F2F
  8
0
 10
3736.1157890649269575
 20
131.8925973640392897
 30
0.0
 11
3736.1151517871280703
 21
131.8920325968393001
 31
0.0
  0
LINE
  5
15F30
  8
0
 10
3736.1151517871280703
 20
131.8920325968393001
 30
0.0
 11
3736.0857501123641669
 21
131.8887031577961011
 31
0.0
  0
ARC
  5
15F31
  8
0
 10
3736.0847837193650776
 20
131.89723719979159
 30
0.0
 40
0.0085885847616197
 50
257.0249482855793985
 51
276.4606395412957909
  0
ARC
  5
15F32
  8
0
 10
3736.0821059158029129
 20
131.8949002568083131
 30
0.0
 40
0.0060787326295796
 50
248.0581534990276111
 51
277.0819162129719757
  0
LINE
  5
15F33
  8
0
 10
3736.0798345041280299
 20
131.8892618457392985
 30
0.0
 11
3736.0581089234269712
 21
131.8984922189393103
 31
0.0
  0
ARC
  5
15F34
  8
0
 10
3736.0710211368091223
 20
131.8949845677543067
 30
0.0
 40
0.0133214971320116
 50
332.6672296267850015
 51
2.8538405823291959
  0
LINE
  5
15F35
  8
0
 10
3736.0843261125201025
 20
131.8956478227385105
 30
0.0
 11
3736.0843261125278332
 21
131.913877904018193
 31
0.0
  0
LINE
  5
15F36
  8
0
 10
3736.11177087312808
 20
131.9100267926529
 30
0.0
 11
3736.11177087312808
 21
131.8987557099393086
 31
0.0
  0
ARC
  5
15F37
  8
0
 10
3736.1189506304867791
 20
131.899050285365405
 30
0.0
 40
0.0071857978285074
 50
182.3494481645930989
 51
243.8977657986127099
  0
LINE
  5
15F38
  8
0
 10
3736.08009717451705
 20
131.8797870542437067
 30
0.0
 11
3736.0996107018281691
 21
131.8715401847393025
 31
0.0
  0
LINE
  5
15F39
  8
0
 10
3736.0996107018281691
 20
131.8715401847393025
 30
0.0
 11
3736.1270554624279612
 21
131.8746480718392888
 31
0.0
  0
LINE
  5
15F3A
  8
0
 10
3736.1270554624279612
 20
131.8746480718392888
 30
0.0
 11
3736.1332085025119341
 21
131.8843529623148925
 31
0.0
  0
LINE
  5
15F3B
  8
0
 10
3736.14279297610301
 20
131.8822435356009919
 30
0.0
 11
3736.1358729294270233
 21
131.8713288830392969
 31
0.0
  0
ARC
  5
15F3C
  8
0
 10
3736.1306892530237747
 20
131.8746154084203965
 30
0.0
 40
0.006137731677458
 50
273.5907386522050047
 51
327.624714967079683
  0
LINE
  5
15F3D
  8
0
 10
3736.1310736542268387
 20
131.8684897259392983
 30
0.0
 11
3736.1304363764279515
 21
131.8679249587393087
 31
0.0
  0
LINE
  5
15F3E
  8
0
 10
3736.1304363764279515
 20
131.8679249587393087
 30
0.0
 11
3736.101034701664048
 21
131.8645955196961097
 31
0.0
  0
ARC
  5
15F3F
  8
0
 10
3736.1000683086658682
 20
131.8731295616915986
 30
0.0
 40
0.0085885847616197
 50
257.0249482855793985
 51
276.4606395412957909
  0
ARC
  5
15F40
  8
0
 10
3736.0973905051027941
 20
131.8707926187082933
 30
0.0
 40
0.0060787326295796
 50
248.0581534990276111
 51
277.0819162129719757
  0
LINE
  5
15F41
  8
0
 10
3736.0951190934270016
 20
131.8651542076393071
 30
0.0
 11
3736.0733935127268524
 21
131.8743845808392905
 31
0.0
  0
ARC
  5
15F42
  8
0
 10
3736.0863057261099129
 20
131.8708769296542869
 30
0.0
 40
0.0133214971320116
 50
332.6672296267850015
 51
2.8538405823291959
  0
LINE
  5
15F43
  8
0
 10
3736.0996107018199837
 20
131.8715401846384907
 30
0.0
 11
3736.0996107018281691
 21
131.8902727278322971
 31
0.0
  0
LINE
  5
15F44
  8
0
 10
3736.1270554624279612
 20
131.8869533798741998
 30
0.0
 11
3736.1270554624279612
 21
131.8746480718392888
 31
0.0
  0
ARC
  5
15F45
  8
0
 10
3736.1342352197871151
 20
131.8749426472654136
 30
0.0
 40
0.0071857978285074
 50
182.3494481645930989
 51
243.8977657986127099
  0
LINE
  5
15F46
  8
0
 10
3736.0953817637168868
 20
131.8556794161438006
 30
0.0
 11
3736.1148952910280059
 21
131.8474325466393111
 31
0.0
  0
LINE
  5
15F47
  8
0
 10
3736.1148952910280059
 20
131.8474325466393111
 30
0.0
 11
3736.1423400516268885
 21
131.8505404337392974
 31
0.0
  0
LINE
  5
15F48
  8
0
 10
3736.1423400516268885
 20
131.8505404337392974
 30
0.0
 11
3736.1484930917122256
 21
131.8602453242149011
 31
0.0
  0
LINE
  5
15F49
  8
0
 10
3736.1580775653028468
 20
131.8581358975010005
 30
0.0
 11
3736.1511575186282244
 21
131.8472212449393055
 31
0.0
  0
ARC
  5
15F4A
  8
0
 10
3736.1459738422231567
 20
131.8505077703202915
 30
0.0
 40
0.006137731677458
 50
273.5907386522050047
 51
327.624714967079683
  0
LINE
  5
15F4B
  8
0
 10
3736.1463582434280397
 20
131.8443820878393069
 30
0.0
 11
3736.1457209656268788
 21
131.8438173206392889
 31
0.0
  0
LINE
  5
15F4C
  8
0
 10
3736.1457209656268788
 20
131.8438173206392889
 30
0.0
 11
3736.1163192908629753
 21
131.8404878815960899
 31
0.0
  0
ARC
  5
15F4D
  8
0
 10
3736.1153528978647955
 20
131.8490219235916072
 30
0.0
 40
0.0085885847616197
 50
257.0249482855793985
 51
276.4606395412957909
  0
ARC
  5
15F4E
  8
0
 10
3736.1126750943030856
 20
131.8466849806083019
 30
0.0
 40
0.0060787326295796
 50
248.0581534990276111
 51
277.0819162129719757
  0
LINE
  5
15F4F
  8
0
 10
3736.1104036826282027
 20
131.8410465695392872
 30
0.0
 11
3736.0886781019280534
 21
131.8502769427392991
 31
0.0
  0
ARC
  5
15F50
  8
0
 10
3736.1015903153102045
 20
131.8467692915542955
 30
0.0
 40
0.0133214971320116
 50
332.6672296267850015
 51
2.8538405823291959
  0
LINE
  5
15F51
  8
0
 10
3736.1148952910211847
 20
131.8474325465384993
 30
0.0
 11
3736.1148952910280059
 21
131.8661650897209938
 31
0.0
  0
LINE
  5
15F52
  8
0
 10
3736.1423400516268885
 20
131.8628457417742084
 30
0.0
 11
3736.1423400516268885
 21
131.8505404337392974
 31
0.0
  0
ARC
  5
15F53
  8
0
 10
3736.1495198089878613
 20
131.8508350091653938
 30
0.0
 40
0.0071857978285074
 50
182.3494481645930989
 51
243.8977657986127099
  0
LINE
  5
15F54
  8
0
 10
3736.1106663530667902
 20
131.8315717779937017
 30
0.0
 11
3736.1301798803769998
 21
131.8233249084892975
 31
0.0
  0
LINE
  5
15F55
  8
0
 10
3736.1301798803769998
 20
131.8233249084892975
 30
0.0
 11
3736.1576246409781561
 21
131.8264327955893123
 31
0.0
  0
LINE
  5
15F56
  8
0
 10
3736.1576246409781561
 20
131.8264327955893123
 30
0.0
 11
3736.1637776810630385
 21
131.8361376860648875
 31
0.0
  0
LINE
  5
15F57
  8
0
 10
3736.1616428327779431
 20
131.8202744496892933
 30
0.0
 11
3736.1610055549781464
 21
131.8197096824893038
 31
0.0
  0
LINE
  5
15F58
  8
0
 10
3736.1610055549781464
 20
131.8197096824893038
 30
0.0
 11
3736.1316038802137882
 21
131.8163802434461047
 31
0.0
  0
ARC
  5
15F59
  8
0
 10
3736.1306374872160632
 20
131.8249142854415936
 30
0.0
 40
0.0085885847616197
 50
257.0249482855793985
 51
276.4606395412957909
  0
ARC
  5
15F5A
  8
0
 10
3736.127959683652989
 20
131.8225773424582883
 30
0.0
 40
0.0060787326295796
 50
248.0581534990276111
 51
277.0819162129719757
  0
LINE
  5
15F5B
  8
0
 10
3736.1256882719781061
 20
131.8169389313893021
 30
0.0
 11
3736.1039626912779568
 21
131.8261693045893139
 31
0.0
  0
ARC
  5
15F5C
  8
0
 10
3736.1168749046591984
 20
131.8226616534043103
 30
0.0
 40
0.0133214971320116
 50
332.6672296267850015
 51
2.8538405823291959
  0
LINE
  5
15F5D
  8
0
 10
3736.1301798803701786
 20
131.8233249083885141
 30
0.0
 11
3736.1301798803769998
 21
131.8420342438786861
 31
0.0
  0
LINE
  5
15F5E
  8
0
 10
3736.1576246409781561
 20
131.8387381036241948
 30
0.0
 11
3736.1576246409781561
 21
131.8264327955893123
 31
0.0
  0
ARC
  5
15F5F
  8
0
 10
3736.1648043983382195
 20
131.8267273710154086
 30
0.0
 40
0.0071857978285074
 50
182.3494481645930989
 51
243.8977657986127099
  0
LINE
  5
15F60
  8
0
 10
3736.1259509423171039
 20
131.8074641398937104
 30
0.0
 11
3736.145464469628223
 21
131.7992172703893061
 31
0.0
  0
LINE
  5
15F61
  8
0
 10
3736.145464469628223
 20
131.7992172703893061
 30
0.0
 11
3736.1729092302280151
 21
131.8023251574892925
 31
0.0
  0
LINE
  5
15F62
  8
0
 10
3736.1729092302280151
 20
131.8023251574892925
 30
0.0
 11
3736.179062270311988
 21
131.8120300479648961
 31
0.0
  0
LINE
  5
15F63
  8
0
 10
3736.1886467439030639
 20
131.8099206212509955
 30
0.0
 11
3736.1817266972270772
 21
131.7990059686893005
 31
0.0
  0
ARC
  5
15F64
  8
0
 10
3736.1765430208238286
 20
131.8022924940704002
 30
0.0
 40
0.006137731677458
 50
273.5907386522050047
 51
327.624714967079683
  0
LINE
  5
15F65
  8
0
 10
3736.1769274220278021
 20
131.7961668115893019
 30
0.0
 11
3736.1762901442280054
 21
131.7956020443893124
 31
0.0
  0
LINE
  5
15F66
  8
0
 10
3736.1762901442280054
 20
131.7956020443893124
 30
0.0
 11
3736.1468884694641019
 21
131.7922726053461133
 31
0.0
  0
ARC
  5
15F67
  8
0
 10
3736.1459220764659221
 20
131.8008066473416022
 30
0.0
 40
0.0085885847616197
 50
257.0249482855793985
 51
276.4606395412957909
  0
ARC
  5
15F68
  8
0
 10
3736.143244272902848
 20
131.7984697043582969
 30
0.0
 40
0.0060787326295796
 50
248.0581534990276111
 51
277.0819162129719757
  0
LINE
  5
15F69
  8
0
 10
3736.1409728612270555
 20
131.7928312932893107
 30
0.0
 11
3736.1192472805269063
 21
131.8020616664892941
 31
0.0
  0
ARC
  5
15F6A
  8
0
 10
3736.1321594939099668
 20
131.7985540153042905
 30
0.0
 40
0.0133214971320116
 50
332.6672296267850015
 51
2.8538405823291959
  0
LINE
  5
15F6B
  8
0
 10
3736.1454644696209471
 20
131.7992172702884943
 30
0.0
 11
3736.145464469628223
 21
131.8179266057786947
 31
0.0
  0
LINE
  5
15F6C
  8
0
 10
3736.1729092302280151
 20
131.8146304655242034
 30
0.0
 11
3736.1729092302280151
 21
131.8023251574892925
 31
0.0
  0
ARC
  5
15F6D
  8
0
 10
3736.1800889875880785
 20
131.8026197329153888
 30
0.0
 40
0.0071857978285074
 50
182.3494481645930989
 51
243.8977657986127099
  0
LINE
  5
15F6E
  8
0
 10
3736.1412355316169851
 20
131.7833565017436968
 30
0.0
 11
3736.1607490589281042
 21
131.7751096322392925
 31
0.0
  0
LINE
  5
15F6F
  8
0
 10
3736.1607490589281042
 20
131.7751096322392925
 30
0.0
 11
3736.1881938195278963
 21
131.7782175193393073
 31
0.0
  0
LINE
  5
15F70
  8
0
 10
3736.1881938195278963
 20
131.7782175193393073
 30
0.0
 11
3736.1943468596118691
 21
131.7879224098149109
 31
0.0
  0
LINE
  5
15F71
  8
0
 10
3736.2039313332038546
 20
131.7858129831010956
 30
0.0
 11
3736.1970112865269584
 21
131.7748983305392869
 31
0.0
  0
ARC
  5
15F72
  8
0
 10
3736.1918276101241645
 20
131.7781848559203013
 30
0.0
 40
0.006137731677458
 50
273.5907386522050047
 51
327.624714967079683
  0
LINE
  5
15F73
  8
0
 10
3736.192212011328138
 20
131.7720591734392883
 30
0.0
 11
3736.1915747335278866
 21
131.7714944062392988
 31
0.0
  0
LINE
  5
15F74
  8
0
 10
3736.1915747335278866
 20
131.7714944062392988
 30
0.0
 11
3736.1621730587639831
 21
131.7681649671960997
 31
0.0
  0
ARC
  5
15F75
  8
0
 10
3736.1612066657658033
 20
131.7766990091915886
 30
0.0
 40
0.0085885847616197
 50
257.0249482855793985
 51
276.4606395412957909
  0
ARC
  5
15F76
  8
0
 10
3736.158528862203184
 20
131.7743620662083117
 30
0.0
 40
0.0060787326295796
 50
248.0581534990276111
 51
277.0819162129719757
  0
LINE
  5
15F77
  8
0
 10
3736.1562574505278462
 20
131.7687236551392971
 30
0.0
 11
3736.1345318698281517
 21
131.7779540283393089
 31
0.0
  0
ARC
  5
15F78
  8
0
 10
3736.147444083209848
 20
131.7744463771543053
 30
0.0
 40
0.0133214971320116
 50
332.6672296267850015
 51
2.8538405823291959
  0
LINE
  5
15F79
  8
0
 10
3736.1607490589208282
 20
131.7751096321383955
 30
0.0
 11
3736.1607490589281042
 21
131.7938421753823093
 31
0.0
  0
LINE
  5
15F7A
  8
0
 10
3736.1881938195278963
 20
131.7905228273741898
 30
0.0
 11
3736.1881938195278963
 21
131.7782175193393073
 31
0.0
  0
ARC
  5
15F7B
  8
0
 10
3736.1953735768879596
 20
131.7785120947654036
 30
0.0
 40
0.0071857978285074
 50
182.3494481645930989
 51
243.8977657986127099
  0
LINE
  5
15F7C
  8
0
 10
3736.1565201208668441
 20
131.7592488636437054
 30
0.0
 11
3736.1760336481770537
 21
131.7510019941393011
 31
0.0
  0
LINE
  5
15F7D
  8
0
 10
3736.1760336481770537
 20
131.7510019941393011
 30
0.0
 11
3736.20347840877821
 21
131.7541098812392875
 31
0.0
  0
LINE
  5
15F7E
  8
0
 10
3736.20347840877821
 20
131.7541098812392875
 30
0.0
 11
3736.2096314488630924
 21
131.7638147717148911
 31
0.0
  0
LINE
  5
15F7F
  8
0
 10
3736.2192159224528041
 20
131.7617053450009905
 30
0.0
 11
3736.2122958757781817
 21
131.7507906924392955
 31
0.0
  0
ARC
  5
15F80
  8
0
 10
3736.207112199373114
 20
131.7540772178203099
 30
0.0
 40
0.006137731677458
 50
273.5907386522050047
 51
327.624714967079683
  0
LINE
  5
15F81
  8
0
 10
3736.207496600577997
 20
131.7479515353392969
 30
0.0
 11
3736.2068593227768361
 21
131.7473867681393074
 31
0.0
  0
LINE
  5
15F82
  8
0
 10
3736.2068593227768361
 20
131.7473867681393074
 30
0.0
 11
3736.1774576480138421
 21
131.7440573290961083
 31
0.0
  0
ARC
  5
15F83
  8
0
 10
3736.1764912550161171
 20
131.7525913710915972
 30
0.0
 40
0.0085885847616197
 50
257.0249482855793985
 51
276.4606395412957909
  0
ARC
  5
15F84
  8
0
 10
3736.1738134514530429
 20
131.7502544281082919
 30
0.0
 40
0.0060787326295796
 50
248.0581534990276111
 51
277.0819162129719757
  0
LINE
  5
15F85
  8
0
 10
3736.17154203977816
 20
131.7446160170393057
 30
0.0
 11
3736.1498164590780107
 21
131.7538463902392891
 31
0.0
  0
ARC
  5
15F86
  8
0
 10
3736.1627286724587975
 20
131.7503387390543139
 30
0.0
 40
0.0133214971320116
 50
332.6672296267850015
 51
2.8538405823291959
  0
LINE
  5
15F87
  8
0
 10
3736.1760336481697777
 20
131.7510019940384893
 30
0.0
 11
3736.1760336481770537
 21
131.7697345372266113
 31
0.0
  0
LINE
  5
15F88
  8
0
 10
3736.20347840877821
 20
131.7664151892741984
 30
0.0
 11
3736.20347840877821
 21
131.7541098812392875
 31
0.0
  0
ARC
  5
15F89
  8
0
 10
3736.2106581661378186
 20
131.7544044566654122
 30
0.0
 40
0.0071857978285074
 50
182.3494481645930989
 51
243.8977657986127099
  0
LINE
  5
15F8A
  8
0
 10
3736.17180471016718
 20
131.735141225543714
 30
0.0
 11
3736.1913182374778444
 21
131.7268943560393097
 31
0.0
  0
LINE
  5
15F8B
  8
0
 10
3736.1913182374778444
 20
131.7268943560393097
 30
0.0
 11
3736.2187629980780912
 21
131.7300022431392961
 31
0.0
  0
LINE
  5
15F8C
  8
0
 10
3736.2187629980780912
 20
131.7300022431392961
 30
0.0
 11
3736.2249160381629736
 21
131.7397071336148997
 31
0.0
  0
LINE
  5
15F8D
  8
0
 10
3736.23450051175314
 20
131.7375977069009991
 30
0.0
 11
3736.2275804650780628
 21
131.7266830543393041
 31
0.0
  0
ARC
  5
15F8E
  8
0
 10
3736.2223967886739047
 20
131.7299695797204038
 30
0.0
 40
0.006137731677458
 50
273.5907386522050047
 51
327.624714967079683
  0
LINE
  5
15F8F
  8
0
 10
3736.2227811898778782
 20
131.7238438972393055
 30
0.0
 11
3736.2221439120780815
 21
131.7232791300392876
 31
0.0
  0
LINE
  5
15F90
  8
0
 10
3736.2221439120780815
 20
131.7232791300392876
 30
0.0
 11
3736.1927422373141781
 21
131.7199496909960885
 31
0.0
  0
ARC
  5
15F91
  8
0
 10
3736.1917758443159983
 20
131.7284837329916058
 30
0.0
 40
0.0085885847616197
 50
257.0249482855793985
 51
276.4606395412957909
  0
ARC
  5
15F92
  8
0
 10
3736.1890980407529241
 20
131.7261467900083005
 30
0.0
 40
0.0060787326295796
 50
248.0581534990276111
 51
277.0819162129719757
  0
LINE
  5
15F93
  8
0
 10
3736.1868266290780412
 20
131.7205083789392859
 30
0.0
 11
3736.1651010483778919
 21
131.7297387521392977
 31
0.0
  0
ARC
  5
15F94
  8
0
 10
3736.178013261760043
 20
131.7262311009542941
 30
0.0
 40
0.0133214971320116
 50
332.6672296267850015
 51
2.8538405823291959
  0
LINE
  5
15F95
  8
0
 10
3736.1913182374701137
 20
131.7268943559384979
 30
0.0
 11
3736.1913182374778444
 21
131.7456268991323043
 31
0.0
  0
LINE
  5
15F96
  8
0
 10
3736.2187629980780912
 20
131.742307551174207
 30
0.0
 11
3736.2187629980780912
 21
131.7300022431392961
 31
0.0
  0
ARC
  5
15F97
  8
0
 10
3736.2259427554381546
 20
131.7302968185653924
 30
0.0
 40
0.0071857978285074
 50
182.3494481645930989
 51
243.8977657986127099
  0
LINE
  5
15F98
  8
0
 10
3736.1616428332581563
 20
131.8202744495071954
 30
0.0
 11
3736.1704673945068862
 21
131.8341930010556098
 31
0.0
  0
LINE
  5
15F99
  8
0
 10
3736.078656509927896
 20
131.7328689351892876
 30
0.0
 11
3736.071736463128218
 21
131.7219542825893086
 31
0.0
  0
ARC
  5
15F9A
  8
0
 10
3736.0665527868700337
 20
131.7252408079249903
 30
0.0
 40
0.0061377315294667
 50
273.5907383043116852
 51
327.6247145926483881
  0
ARC
  5
15F9B
  8
0
 10
3736.0700987369209543
 20
131.7255680360404995
 30
0.0
 40
0.0071857807296463
 50
182.3493669743104135
 51
243.8978469888859877
  0
LINE
  5
15F9C
  8
0
 10
3736.0629189962269265
 20
131.7252734714892881
 30
0.0
 11
3736.0629189961277916
 21
131.7375787795893132
 31
0.0
  0
LINE
  5
15F9D
  8
0
 10
3736.0629189961277916
 20
131.7252734739267055
 30
0.0
 11
3736.0690720363281798
 21
131.734978361989306
 31
0.0
  0
LINE
  5
15F9E
  8
0
 10
3736.0669371880280778
 20
131.7191151255892976
 30
0.0
 11
3736.0662977705269441
 21
131.7185501680893083
 31
0.0
  0
LINE
  5
15F9F
  8
0
 10
3736.0730035720171145
 20
131.7239528316937083
 30
0.0
 11
3736.0925170993277789
 21
131.715705962189304
 31
0.0
  0
LINE
  5
15FA0
  8
0
 10
3736.0925170993277789
 20
131.715705962189304
 30
0.0
 11
3736.1199618599280257
 21
131.7188138492892904
 31
0.0
  0
LINE
  5
15FA1
  8
0
 10
3736.123342773928016
 20
131.7120907361893103
 30
0.0
 11
3736.0939410991641125
 21
131.7087612971461112
 31
0.0
  0
ARC
  5
15FA2
  8
0
 10
3736.0929747061659327
 20
131.7172953391416002
 30
0.0
 40
0.0085885847616197
 50
257.0249482855793985
 51
276.4606395412957909
  0
ARC
  5
15FA3
  8
0
 10
3736.0902969026028586
 20
131.7149583961582948
 30
0.0
 40
0.0060787326295796
 50
248.0581534990276111
 51
277.0819162129719757
  0
LINE
  5
15FA4
  8
0
 10
3736.0880254909279756
 20
131.7093199850893086
 30
0.0
 11
3736.0662999102269168
 21
131.718550358289292
 31
0.0
  0
ARC
  5
15FA5
  8
0
 10
3736.0792121236090679
 20
131.7150427071042884
 30
0.0
 40
0.0133214971320116
 50
332.6672296267850015
 51
2.8538405823291959
  0
LINE
  5
15FA6
  8
0
 10
3736.0925170993200481
 20
131.7157059620884922
 30
0.0
 11
3736.0925170993277789
 21
131.7344152975786926
 31
0.0
  0
LINE
  5
15FA7
  8
0
 10
3736.0633719206771275
 20
131.756976573389295
 30
0.0
 11
3736.0564518738779043
 21
131.7460619207892876
 31
0.0
  0
ARC
  5
15FA8
  8
0
 10
3736.0512681976201748
 20
131.7493484461249977
 30
0.0
 40
0.0061377315294667
 50
273.5907383043116852
 51
327.6247145926483881
  0
ARC
  5
15FA9
  8
0
 10
3736.0548141476710953
 20
131.7496756742405069
 30
0.0
 40
0.0071857807296463
 50
182.3493669743104135
 51
243.8978469888859877
  0
LINE
  5
15FAA
  8
0
 10
3736.0476344069779771
 20
131.7493811096892955
 30
0.0
 11
3736.0476344068779326
 21
131.7616864177892921
 31
0.0
  0
LINE
  5
15FAB
  8
0
 10
3736.0476344068779326
 20
131.7493811121267129
 30
0.0
 11
3736.0537874470769566
 21
131.7590860001893134
 31
0.0
  0
LINE
  5
15FAC
  8
0
 10
3736.0516525987782188
 20
131.743222763789305
 30
0.0
 11
3736.0510131812779946
 21
131.7426578062892872
 31
0.0
  0
LINE
  5
15FAD
  8
0
 10
3736.0577189827668008
 20
131.7480604698938009
 30
0.0
 11
3736.0772325100779199
 21
131.7398136003893114
 31
0.0
  0
LINE
  5
15FAE
  8
0
 10
3736.0772325100779199
 20
131.7398136003893114
 30
0.0
 11
3736.1046772706781667
 21
131.7429214874892978
 31
0.0
  0
LINE
  5
15FAF
  8
0
 10
3736.108058184678157
 20
131.7361983743892893
 30
0.0
 11
3736.0786565099128893
 21
131.7328689353460902
 31
0.0
  0
ARC
  5
15FB0
  8
0
 10
3736.0776901169160737
 20
131.7414029773416075
 30
0.0
 40
0.0085885847616197
 50
257.0249482855793985
 51
276.4606395412957909
  0
ARC
  5
15FB1
  8
0
 10
3736.0750123133529996
 20
131.7390660343583022
 30
0.0
 40
0.0060787326295796
 50
248.0581534990276111
 51
277.0819162129719757
  0
LINE
  5
15FB2
  8
0
 10
3736.0727409016781166
 20
131.7334276232892876
 30
0.0
 11
3736.0510153209779673
 21
131.7426579964892994
 31
0.0
  0
ARC
  5
15FB3
  8
0
 10
3736.0639275343601184
 20
131.7391503453042958
 30
0.0
 40
0.0133214971320116
 50
332.6672296267850015
 51
2.8538405823291959
  0
LINE
  5
15FB4
  8
0
 10
3736.0772325100710987
 20
131.7398136002884996
 30
0.0
 11
3736.0772325100779199
 21
131.7585461434879903
 31
0.0
  0
LINE
  5
15FB5
  8
0
 10
3736.0480873313281336
 20
131.7810842114892864
 30
0.0
 11
3736.0411672845280009
 21
131.7701695588893074
 31
0.0
  0
ARC
  5
15FB6
  8
0
 10
3736.0359836082698166
 20
131.7734560842249891
 30
0.0
 40
0.0061377315294667
 50
273.5907383043116852
 51
327.6247145926483881
  0
ARC
  5
15FB7
  8
0
 10
3736.0395295583211919
 20
131.7737833123404982
 30
0.0
 40
0.0071857807296463
 50
182.3493669743104135
 51
243.8978469888859877
  0
LINE
  5
15FB8
  8
0
 10
3736.0323498176280737
 20
131.7734887477892869
 30
0.0
 11
3736.0323498175280292
 21
131.7857940558893119
 31
0.0
  0
LINE
  5
15FB9
  8
0
 10
3736.0323498175280292
 20
131.7734887502267043
 30
0.0
 11
3736.0385028577279627
 21
131.7831936382893048
 31
0.0
  0
LINE
  5
15FBA
  8
0
 10
3736.0363680094278607
 20
131.7673304018892964
 30
0.0
 11
3736.0357285919280912
 21
131.766765444389307
 31
0.0
  0
LINE
  5
15FBB
  8
0
 10
3736.0424343934168974
 20
131.7721681079937071
 30
0.0
 11
3736.0619479207280165
 21
131.7639212384893028
 31
0.0
  0
LINE
  5
15FBC
  8
0
 10
3736.0619479207280165
 20
131.7639212384893028
 30
0.0
 11
3736.0893926813278085
 21
131.7670291255892892
 31
0.0
  0
LINE
  5
15FBD
  8
0
 10
3736.0927735953268893
 20
131.7603060124893091
 30
0.0
 11
3736.0633719205638954
 21
131.75697657344611
 31
0.0
  0
ARC
  5
15FBE
  8
0
 10
3736.0624055275661703
 20
131.7655106154415989
 30
0.0
 40
0.0085885847616197
 50
257.0249482855793985
 51
276.4606395412957909
  0
ARC
  5
15FBF
  8
0
 10
3736.0597277240030962
 20
131.7631736724582936
 30
0.0
 40
0.0060787326295796
 50
248.0581534990276111
 51
277.0819162129719757
  0
LINE
  5
15FC0
  8
0
 10
3736.057456312326849
 20
131.7575352613893074
 30
0.0
 11
3736.0357307316280639
 21
131.7667656345892908
 31
0.0
  0
ARC
  5
15FC1
  8
0
 10
3736.0486429450088508
 20
131.7632579834042872
 30
0.0
 40
0.0133214971320116
 50
332.6672296267850015
 51
2.8538405823291959
  0
LINE
  5
15FC2
  8
0
 10
3736.061947920719831
 20
131.763921238388491
 30
0.0
 11
3736.0619479207280165
 21
131.782653781571014
 31
0.0
  0
LINE
  5
15FC3
  8
0
 10
3736.0328027421278421
 20
131.8051918495893062
 30
0.0
 11
3736.0258826953281641
 21
131.7942771969892988
 31
0.0
  0
ARC
  5
15FC4
  8
0
 10
3736.0206990190699798
 20
131.7975637223250089
 30
0.0
 40
0.0061377315294667
 50
273.5907383043116852
 51
327.6247145926483881
  0
ARC
  5
15FC5
  8
0
 10
3736.0242449691209004
 20
131.7978909504404896
 30
0.0
 40
0.0071857807296463
 50
182.3493669743104135
 51
243.8978469888859877
  0
LINE
  5
15FC6
  8
0
 10
3736.0170652284268726
 20
131.7975963858893067
 30
0.0
 11
3736.0170652283281925
 21
131.8099016939893033
 31
0.0
  0
LINE
  5
15FC7
  8
0
 10
3736.0170652283281925
 20
131.7975963883266957
 30
0.0
 11
3736.0232182685281259
 21
131.8073012763892962
 31
0.0
  0
LINE
  5
15FC8
  8
0
 10
3736.0210834202280239
 20
131.7914380399892877
 30
0.0
 11
3736.0204461424282272
 21
131.7908732726893106
 31
0.0
  0
LINE
  5
15FC9
  8
0
 10
3736.0271498042170606
 20
131.7962757460936984
 30
0.0
 11
3736.0466633315281797
 21
131.7880288765892942
 31
0.0
  0
LINE
  5
15FCA
  8
0
 10
3736.0466633315281797
 20
131.7880288765892942
 30
0.0
 11
3736.0741080921279718
 21
131.791136763689309
 31
0.0
  0
LINE
  5
15FCB
  8
0
 10
3736.0774890061279621
 20
131.7844136505893005
 30
0.0
 11
3736.0480873313640586
 21
131.7810842115461014
 31
0.0
  0
ARC
  5
15FCC
  8
0
 10
3736.0471209383658788
 20
131.7896182535415903
 30
0.0
 40
0.0085885847616197
 50
257.0249482855793985
 51
276.4606395412957909
  0
ARC
  5
15FCD
  8
0
 10
3736.0444431348028047
 20
131.7872813105583134
 30
0.0
 40
0.0060787326295796
 50
248.0581534990276111
 51
277.0819162129719757
  0
LINE
  5
15FCE
  8
0
 10
3736.0421717231279217
 20
131.7816428994892988
 30
0.0
 11
3736.0204461424282272
 21
131.7908732726893106
 31
0.0
  0
ARC
  5
15FCF
  8
0
 10
3736.0333583558099235
 20
131.787365621504307
 30
0.0
 40
0.0133214971320116
 50
332.6672296267850015
 51
2.8538405823291959
  0
LINE
  5
15FD0
  8
0
 10
3736.0466633315199942
 20
131.7880288764885108
 30
0.0
 11
3736.0466633315281797
 21
131.8067614196766044
 31
0.0
  0
LINE
  5
15FD1
  8
0
 10
3736.0175181528770736
 20
131.8292994876892976
 30
0.0
 11
3736.0105981060778504
 21
131.8183848350892902
 31
0.0
  0
ARC
  5
15FD2
  8
0
 10
3736.0054144298201209
 20
131.8216713604250003
 30
0.0
 40
0.0061377315294667
 50
273.5907383043116852
 51
327.6247145926483881
  0
ARC
  5
15FD3
  8
0
 10
3736.0089603798710414
 20
131.8219985885405094
 30
0.0
 40
0.0071857807296463
 50
182.3493669743104135
 51
243.8978469888859877
  0
LINE
  5
15FD4
  8
0
 10
3736.0017806391779231
 20
131.8217040239892981
 30
0.0
 11
3736.0017806390769692
 21
131.8340093320892947
 31
0.0
  0
LINE
  5
15FD5
  8
0
 10
3736.0017806390769692
 20
131.8217040264266871
 30
0.0
 11
3736.0079336792769027
 21
131.8314089144892876
 31
0.0
  0
LINE
  5
15FD6
  8
0
 10
3736.0057988309781649
 20
131.8155456780893076
 30
0.0
 11
3736.0051594134770312
 21
131.8149807205892898
 31
0.0
  0
LINE
  5
15FD7
  8
0
 10
3736.0118652149681111
 20
131.8203833841936898
 30
0.0
 11
3736.031378742277866
 21
131.812136514689314
 31
0.0
  0
LINE
  5
15FD8
  8
0
 10
3736.031378742277866
 20
131.812136514689314
 30
0.0
 11
3736.0588235028781128
 21
131.8152444017893004
 31
0.0
  0
LINE
  5
15FD9
  8
0
 10
3736.0622044168781031
 20
131.8085212886892919
 30
0.0
 11
3736.0328027421141996
 21
131.8051918496460928
 31
0.0
  0
ARC
  5
15FDA
  8
0
 10
3736.0318363491151104
 20
131.8137258916416101
 30
0.0
 40
0.0085885847616197
 50
257.0249482855793985
 51
276.4606395412957909
  0
ARC
  5
15FDB
  8
0
 10
3736.0291585455529457
 20
131.8113889486583048
 30
0.0
 40
0.0060787326295796
 50
248.0581534990276111
 51
277.0819162129719757
  0
LINE
  5
15FDC
  8
0
 10
3736.0268871338780627
 20
131.8057505375892902
 30
0.0
 11
3736.005161553177004
 21
131.814980910789302
 31
0.0
  0
ARC
  5
15FDD
  8
0
 10
3736.0180737665600645
 20
131.8114732596042984
 30
0.0
 40
0.0133214971320116
 50
332.6672296267850015
 51
2.8538405823291959
  0
LINE
  5
15FDE
  8
0
 10
3736.0313787422701353
 20
131.8121365145883885
 30
0.0
 11
3736.031378742277866
 21
131.8308690577823086
 31
0.0
  0
LINE
  5
15FDF
  8
0
 10
3736.0022335635781019
 20
131.853407125789289
 30
0.0
 11
3735.9953135167779692
 21
131.84249247318931
 31
0.0
  0
ARC
  5
15FE0
  8
0
 10
3735.9901298405197849
 20
131.8457789985249917
 30
0.0
 40
0.0061377315294667
 50
273.5907383043116852
 51
327.6247145926483881
  0
ARC
  5
15FE1
  8
0
 10
3735.9936757905711602
 20
131.8461062266405008
 30
0.0
 40
0.0071857807296463
 50
182.3493669743104135
 51
243.8978469888859877
  0
LINE
  5
15FE2
  8
0
 10
3735.986496049878042
 20
131.8458116620892895
 30
0.0
 11
3735.9864960497779975
 21
131.8581169701892861
 31
0.0
  0
LINE
  5
15FE3
  8
0
 10
3735.9864960497779975
 20
131.8458116645267069
 30
0.0
 11
3735.992649089977931
 21
131.8555165525893074
 31
0.0
  0
LINE
  5
15FE4
  8
0
 10
3735.9905142416769195
 20
131.8396533161892989
 30
0.0
 11
3735.98987482417715
 21
131.8390883586893096
 31
0.0
  0
LINE
  5
15FE5
  8
0
 10
3735.9965806256668657
 20
131.8444910222937096
 30
0.0
 11
3736.0160941529779848
 21
131.8362441527893054
 31
0.0
  0
LINE
  5
15FE6
  8
0
 10
3736.0160941529779848
 20
131.8362441527893054
 30
0.0
 11
3736.0435389135768673
 21
131.8393520398892917
 31
0.0
  0
LINE
  5
15FE7
  8
0
 10
3736.0469198275782219
 20
131.8326289267893117
 30
0.0
 11
3736.0175181528129542
 21
131.8292994877461126
 31
0.0
  0
ARC
  5
15FE8
  8
0
 10
3736.0165517598161387
 20
131.8378335297416015
 30
0.0
 40
0.0085885847616197
 50
257.0249482855793985
 51
276.4606395412957909
  0
ARC
  5
15FE9
  8
0
 10
3736.0138739562530645
 20
131.8354965867582962
 30
0.0
 40
0.0060787326295796
 50
248.0581534990276111
 51
277.0819162129719757
  0
LINE
  5
15FEA
  8
0
 10
3736.0116025445781816
 20
131.82985817568931
 30
0.0
 11
3735.9898769638771228
 21
131.8390885488892934
 31
0.0
  0
ARC
  5
15FEB
  8
0
 10
3736.0027891772601834
 20
131.8355808977042898
 30
0.0
 40
0.0133214971320116
 50
332.6672296267850015
 51
2.8538405823291959
  0
LINE
  5
15FEC
  8
0
 10
3736.0160941529711636
 20
131.8362441526884936
 30
0.0
 11
3736.0160941529779848
 21
131.8549766959822875
 31
0.0
  0
LINE
  5
15FED
  8
0
 10
3735.9869489742768565
 20
131.8775147639892964
 30
0.0
 11
3735.980028927478088
 21
131.8666001113892889
 31
0.0
  0
ARC
  5
15FEE
  8
0
 10
3735.9748452512199037
 20
131.8698866367249991
 30
0.0
 40
0.0061377315294667
 50
273.5907383043116852
 51
327.6247145926483881
  0
ARC
  5
15FEF
  8
0
 10
3735.9783912012699147
 20
131.8702138648405082
 30
0.0
 40
0.0071857807296463
 50
182.3493669743104135
 51
243.8978469888859877
  0
LINE
  5
15FF0
  8
0
 10
3735.9712114605781608
 20
131.8699193002892969
 30
0.0
 11
3735.9712114604781164
 21
131.8822246083892935
 31
0.0
  0
LINE
  5
15FF1
  8
0
 10
3735.9712114604781164
 20
131.8699193027266858
 30
0.0
 11
3735.9773645006780498
 21
131.8796241907892863
 31
0.0
  0
LINE
  5
15FF2
  8
0
 10
3735.9752296523770383
 20
131.8637609543893063
 30
0.0
 11
3735.9745902348781783
 21
131.8631959968892886
 31
0.0
  0
LINE
  5
15FF3
  8
0
 10
3735.9812960363669845
 20
131.8685986604938023
 30
0.0
 11
3736.0008095636781036
 21
131.8603517909893128
 31
0.0
  0
LINE
  5
15FF4
  8
0
 10
3736.0008095636781036
 20
131.8603517909893128
 30
0.0
 11
3736.0282543242778956
 21
131.8634596780892991
 31
0.0
  0
LINE
  5
15FF5
  8
0
 10
3736.0316352382778859
 20
131.8567365649892906
 30
0.0
 11
3736.0022335635139825
 21
131.8534071259460916
 31
0.0
  0
ARC
  5
15FF6
  8
0
 10
3736.0012671705158027
 20
131.8619411679416089
 30
0.0
 40
0.0085885847616197
 50
257.0249482855793985
 51
276.4606395412957909
  0
ARC
  5
15FF7
  8
0
 10
3735.9985893669531833
 20
131.8596042249583036
 30
0.0
 40
0.0060787326295796
 50
248.0581534990276111
 51
277.0819162129719757
  0
LINE
  5
15FF8
  8
0
 10
3735.9963179552769361
 20
131.8539658138892889
 30
0.0
 11
3735.9745923745781511
 21
131.8631961870893008
 31
0.0
  0
ARC
  5
15FF9
  8
0
 10
3735.9875045879598474
 20
131.8596885359042972
 30
0.0
 40
0.0133214971320116
 50
332.6672296267850015
 51
2.8538405823291959
  0
LINE
  5
15FFA
  8
0
 10
3736.0008095636708276
 20
131.860351790888501
 30
0.0
 11
3736.0008095636781036
 21
131.8790611263787014
 31
0.0
  0
LINE
  5
15FFB
  8
0
 10
3735.9716643849769753
 20
131.901622402039294
 30
0.0
 11
3735.9647443381782068
 21
131.8907077494392865
 31
0.0
  0
ARC
  5
15FFC
  8
0
 10
3735.9595606619200225
 20
131.8939942747749967
 30
0.0
 40
0.0061377315294667
 50
273.5907383043116852
 51
327.6247145926483881
  0
ARC
  5
15FFD
  8
0
 10
3735.963106611970943
 20
131.8943215028905058
 30
0.0
 40
0.0071857807296463
 50
182.3493669743104135
 51
243.8978469888859877
  0
LINE
  5
15FFE
  8
0
 10
3735.9559268712769153
 20
131.8940269383392945
 30
0.0
 11
3735.9559268711777804
 21
131.9063322464392911
 31
0.0
  0
LINE
  5
15FFF
  8
0
 10
3735.9559268711777804
 20
131.8940269407767119
 30
0.0
 11
3735.9620799113781686
 21
131.9037318288393124
 31
0.0
  0
LINE
  5
16000
  8
0
 10
3735.9599450630780666
 20
131.8878685924393039
 30
0.0
 11
3735.9593056455769329
 21
131.8873036349392862
 31
0.0
  0
LINE
  5
16001
  8
0
 10
3735.9660114470671033
 20
131.8927062985436862
 30
0.0
 11
3735.9855249743782224
 21
131.8844594290393104
 31
0.0
  0
LINE
  5
16002
  8
0
 10
3735.9855249743782224
 20
131.8844594290393104
 30
0.0
 11
3736.0129697349780145
 21
131.8875673161392967
 31
0.0
  0
LINE
  5
16003
  8
0
 10
3736.0163506489780048
 20
131.8808442030392882
 30
0.0
 11
3735.9869489742141013
 21
131.8775147639960892
 31
0.0
  0
ARC
  5
16004
  8
0
 10
3735.9859825812159215
 20
131.8860488059916065
 30
0.0
 40
0.0085885847616197
 50
257.0249482855793985
 51
276.4606395412957909
  0
ARC
  5
16005
  8
0
 10
3735.9833047776528474
 20
131.8837118630083012
 30
0.0
 40
0.0060787326295796
 50
248.0581534990276111
 51
277.0819162129719757
  0
LINE
  5
16006
  8
0
 10
3735.9810333659770549
 20
131.8780734519392865
 30
0.0
 11
3735.9593077852769056
 21
131.8873038251392984
 31
0.0
  0
ARC
  5
16007
  8
0
 10
3735.9722199986599662
 20
131.8837961739542948
 30
0.0
 40
0.0133214971320116
 50
332.6672296267850015
 51
2.8538405823291959
  0
LINE
  5
16008
  8
0
 10
3735.9855249743700369
 20
131.8844594289384986
 30
0.0
 11
3735.9855249743782224
 21
131.903168764428699
 31
0.0
  0
LINE
  5
16009
  8
0
 10
3735.6984146955710457
 20
131.8293187368541055
 30
0.0
 11
3735.7044061488768421
 21
131.8267866096392993
 31
0.0
  0
LINE
  5
1600A
  8
0
 10
3735.7044061488768421
 20
131.8267866096392993
 30
0.0
 11
3735.7318509094770889
 21
131.829894496739314
 31
0.0
  0
LINE
  5
1600B
  8
0
 10
3735.7318509094770889
 20
131.829894496739314
 30
0.0
 11
3735.7380039495619712
 21
131.8395993872148892
 31
0.0
  0
LINE
  5
1600C
  8
0
 10
3735.7475884231539567
 20
131.8374899605011024
 30
0.0
 11
3735.74066837647797
 21
131.8265753079392937
 31
0.0
  0
ARC
  5
1600D
  8
0
 10
3735.7354847000738118
 20
131.8298618333203081
 30
0.0
 40
0.006137731677458
 50
273.5907386522050047
 51
327.624714967079683
  0
LINE
  5
1600E
  8
0
 10
3735.7358691012777854
 20
131.8237361508392951
 30
0.0
 11
3735.7352318234779887
 21
131.8231713836393055
 31
0.0
  0
LINE
  5
1600F
  8
0
 10
3735.7352318234779887
 20
131.8231713836393055
 30
0.0
 11
3735.7058301487140852
 21
131.8198419445961065
 31
0.0
  0
ARC
  5
16010
  8
0
 10
3735.7048637557159054
 20
131.8283759865915954
 30
0.0
 40
0.0085885847616197
 50
257.0249482855793985
 51
276.4606395412957909
  0
ARC
  5
16011
  8
0
 10
3735.7021859521528313
 20
131.8260390436082901
 30
0.0
 40
0.0060787326295796
 50
248.0581534990276111
 51
277.0819162129719757
  0
LINE
  5
16012
  8
0
 10
3735.6999145404779483
 20
131.8204006325393038
 30
0.0
 11
3735.6937776848899375
 21
131.823007949145989
 31
0.0
  0
ARC
  5
16013
  8
0
 10
3735.6911011731599501
 20
131.8261233545543121
 30
0.0
 40
0.0133214971320116
 50
332.6672296267850015
 51
2.8538405823291959
  0
LINE
  5
16014
  8
0
 10
3735.7044061488700208
 20
131.8267866095384875
 30
0.0
 11
3735.7044061488741136
 21
131.8361416614040138
 31
0.0
  0
LINE
  5
16015
  8
0
 10
3735.7318509094770889
 20
131.8422216026712874
 30
0.0
 11
3735.7318509094770889
 21
131.829894496739314
 31
0.0
  0
ARC
  5
16016
  8
0
 10
3735.7390306668380617
 20
131.8301890721654104
 30
0.0
 40
0.0071857978285074
 50
182.3494481645930989
 51
243.8977657986127099
  0
LINE
  5
16017
  8
0
 10
3735.7001772108169462
 20
131.8109258410437121
 30
0.0
 11
3735.7196907381280653
 21
131.8026789715393079
 31
0.0
  0
LINE
  5
16018
  8
0
 10
3735.7196907381280653
 20
131.8026789715393079
 30
0.0
 11
3735.7471354987278573
 21
131.8057868586392942
 31
0.0
  0
LINE
  5
16019
  8
0
 10
3735.7471354987278573
 20
131.8057868586392942
 30
0.0
 11
3735.7532885388131945
 21
131.8154917491148979
 31
0.0
  0
LINE
  5
1601A
  8
0
 10
3735.7628730124029062
 20
131.8133823224009973
 30
0.0
 11
3735.7559529657269195
 21
131.8024676698393023
 31
0.0
  0
ARC
  5
1601B
  8
0
 10
3735.7507692893241256
 20
131.8057541952204019
 30
0.0
 40
0.006137731677458
 50
273.5907386522050047
 51
327.624714967079683
  0
LINE
  5
1601C
  8
0
 10
3735.7511536905280991
 20
131.7996285127393037
 30
0.0
 11
3735.7505164127278476
 21
131.7990637455393141
 31
0.0
  0
LINE
  5
1601D
  8
0
 10
3735.7505164127278476
 20
131.7990637455393141
 30
0.0
 11
3735.7211147379639442
 21
131.7957343064960867
 31
0.0
  0
ARC
  5
1601E
  8
0
 10
3735.7201483449662192
 20
131.804268348491604
 30
0.0
 40
0.0085885847616197
 50
257.0249482855793985
 51
276.4606395412957909
  0
ARC
  5
1601F
  8
0
 10
3735.7174705414017808
 20
131.8019314055082987
 30
0.0
 40
0.0060787326295796
 50
248.0581534990276111
 51
277.0819162129719757
  0
LINE
  5
16020
  8
0
 10
3735.7151991297268978
 20
131.7962929944393125
 30
0.0
 11
3735.6934735490281128
 21
131.8055233676392959
 31
0.0
  0
ARC
  5
16021
  8
0
 10
3735.7063857624088996
 20
131.8020157164542923
 30
0.0
 40
0.0133214971320116
 50
332.6672296267850015
 51
2.8538405823291959
  0
LINE
  5
16022
  8
0
 10
3735.7196907381198798
 20
131.8026789714384961
 30
0.0
 11
3735.7196907381280653
 21
131.8214115146265897
 31
0.0
  0
LINE
  5
16023
  8
0
 10
3735.7471354987278573
 20
131.8181139645924986
 30
0.0
 11
3735.7471354987278573
 21
131.8057868586392942
 31
0.0
  0
ARC
  5
16024
  8
0
 10
3735.7543152560870112
 20
131.8060814340653906
 30
0.0
 40
0.0071857978285074
 50
182.3494481645930989
 51
243.8977657986127099
  0
LINE
  5
16025
  8
0
 10
3735.7154618001168274
 20
131.7868182028936985
 30
0.0
 11
3735.7349753274279465
 21
131.7785713333892943
 31
0.0
  0
LINE
  5
16026
  8
0
 10
3735.7349753274279465
 20
131.7785713333892943
 30
0.0
 11
3735.7624200880281933
 21
131.781679220489309
 31
0.0
  0
LINE
  5
16027
  8
0
 10
3735.7624200880281933
 20
131.781679220489309
 30
0.0
 11
3735.7685731281121662
 21
131.7913841109649979
 31
0.0
  0
LINE
  5
16028
  8
0
 10
3735.7781576017027874
 20
131.7892746842510974
 30
0.0
 11
3735.7712375550281649
 21
131.7783600316892887
 31
0.0
  0
ARC
  5
16029
  8
0
 10
3735.7660538786240068
 20
131.7816465570703031
 30
0.0
 40
0.006137731677458
 50
273.5907386522050047
 51
327.624714967079683
  0
LINE
  5
1602A
  8
0
 10
3735.7664382798279803
 20
131.7755208745892901
 30
0.0
 11
3735.7658010020281836
 21
131.7749561073893005
 31
0.0
  0
LINE
  5
1602B
  8
0
 10
3735.7658010020281836
 20
131.7749561073893005
 30
0.0
 11
3735.7363993272638254
 21
131.7716266683461015
 31
0.0
  0
ARC
  5
1602C
  8
0
 10
3735.7354329342661003
 20
131.7801607103417041
 30
0.0
 40
0.0085885847616197
 50
257.0249482855793985
 51
276.4606395412957909
  0
ARC
  5
1602D
  8
0
 10
3735.7327551307030262
 20
131.7778237673583135
 30
0.0
 40
0.0060787326295796
 50
248.0581534990276111
 51
277.0819162129719757
  0
LINE
  5
1602E
  8
0
 10
3735.7304837190281432
 20
131.7721853562892989
 30
0.0
 11
3735.7087581383279939
 21
131.7814157294893107
 31
0.0
  0
ARC
  5
1602F
  8
0
 10
3735.721670351710145
 20
131.7779080783043071
 30
0.0
 40
0.0133214971320116
 50
332.6672296267850015
 51
2.8538405823291959
  0
LINE
  5
16030
  8
0
 10
3735.7349753274202158
 20
131.7785713332883972
 30
0.0
 11
3735.7349753274279465
 21
131.7973038765323111
 31
0.0
  0
LINE
  5
16031
  8
0
 10
3735.7624200880281933
 20
131.7939845285241915
 30
0.0
 11
3735.7624200880281933
 21
131.781679220489309
 31
0.0
  0
ARC
  5
16032
  8
0
 10
3735.7695998453878019
 20
131.7819737959154054
 30
0.0
 40
0.0071857978285074
 50
182.3494481645930989
 51
243.8977657986127099
  0
LINE
  5
16033
  8
0
 10
3735.7307463893671411
 20
131.7627105647937071
 30
0.0
 11
3735.750259916676896
 21
131.7544636952893029
 31
0.0
  0
LINE
  5
16034
  8
0
 10
3735.750259916676896
 20
131.7544636952893029
 30
0.0
 11
3735.7777046772771428
 21
131.7575715823892892
 31
0.0
  0
LINE
  5
16035
  8
0
 10
3735.7777046772771428
 20
131.7575715823892892
 30
0.0
 11
3735.7838577173620251
 21
131.7672764728648929
 31
0.0
  0
LINE
  5
16036
  8
0
 10
3735.7934421909531011
 20
131.765167046151106
 30
0.0
 11
3735.7865221442780239
 21
131.7542523935892973
 31
0.0
  0
ARC
  5
16037
  8
0
 10
3735.7813384678729562
 20
131.7575389189703117
 30
0.0
 40
0.006137731677458
 50
273.5907386522050047
 51
327.624714967079683
  0
LINE
  5
16038
  8
0
 10
3735.7817228690778393
 20
131.7514132364892987
 30
0.0
 11
3735.7810855912771331
 21
131.7508484692893092
 31
0.0
  0
LINE
  5
16039
  8
0
 10
3735.7810855912771331
 20
131.7508484692893092
 30
0.0
 11
3735.7516839165141391
 21
131.7475190302461101
 31
0.0
  0
ARC
  5
1603A
  8
0
 10
3735.7507175235159593
 20
131.756053072241599
 30
0.0
 40
0.0085885847616197
 50
257.0249482855793985
 51
276.4606395412957909
  0
ARC
  5
1603B
  8
0
 10
3735.7480397199528852
 20
131.7537161292582937
 30
0.0
 40
0.0060787326295796
 50
248.0581534990276111
 51
277.0819162129719757
  0
LINE
  5
1603C
  8
0
 10
3735.7457683082780022
 20
131.7480777181893075
 30
0.0
 11
3735.7240427275778529
 21
131.7573080913892909
 31
0.0
  0
ARC
  5
1603D
  8
0
 10
3735.736954940960004
 20
131.7538004402042873
 30
0.0
 40
0.0133214971320116
 50
332.6672296267850015
 51
2.8538405823291959
  0
LINE
  5
1603E
  8
0
 10
3735.7502599166700747
 20
131.7544636951884911
 30
0.0
 11
3735.750259916676896
 21
131.7731730306786915
 31
0.0
  0
LINE
  5
1603F
  8
0
 10
3735.7777046772771428
 20
131.7698768904242002
 30
0.0
 11
3735.7777046772771428
 21
131.7575715823892892
 31
0.0
  0
ARC
  5
16040
  8
0
 10
3735.7848844346381156
 20
131.757866157815414
 30
0.0
 40
0.0071857978285074
 50
182.3494481645930989
 51
243.8977657986127099
  0
LINE
  5
16041
  8
0
 10
3735.7460309786670223
 20
131.7386029266936873
 30
0.0
 11
3735.7655445059781414
 21
131.7303560571893115
 31
0.0
  0
LINE
  5
16042
  8
0
 10
3735.7655445059781414
 20
131.7303560571893115
 30
0.0
 11
3735.792989266577024
 21
131.7334639442892978
 31
0.0
  0
LINE
  5
16043
  8
0
 10
3735.792989266577024
 20
131.7334639442892978
 30
0.0
 11
3735.7991423066619063
 21
131.7431688347649015
 31
0.0
  0
LINE
  5
16044
  8
0
 10
3735.8087267802538918
 20
131.7410594080510009
 30
0.0
 11
3735.8018067335779051
 21
131.7301447554893059
 31
0.0
  0
ARC
  5
16045
  8
0
 10
3735.7966230571728374
 20
131.7334312808704055
 30
0.0
 40
0.006137731677458
 50
273.5907386522050047
 51
327.624714967079683
  0
LINE
  5
16046
  8
0
 10
3735.7970074583781752
 20
131.7273055983893073
 30
0.0
 11
3735.7963701805770143
 21
131.7267408311892893
 31
0.0
  0
LINE
  5
16047
  8
0
 10
3735.7963701805770143
 20
131.7267408311892893
 30
0.0
 11
3735.7669685058140203
 21
131.7234113921460903
 31
0.0
  0
ARC
  5
16048
  8
0
 10
3735.7660021128158405
 20
131.7319454341416076
 30
0.0
 40
0.0085885847616197
 50
257.0249482855793985
 51
276.4606395412957909
  0
ARC
  5
16049
  8
0
 10
3735.7633243092532211
 20
131.7296084911583023
 30
0.0
 40
0.0060787326295796
 50
248.0581534990276111
 51
277.0819162129719757
  0
LINE
  5
1604A
  8
0
 10
3735.7610528975778834
 20
131.7239700800892876
 30
0.0
 11
3735.7393273168781889
 21
131.7332004532892995
 31
0.0
  0
ARC
  5
1604B
  8
0
 10
3735.7522395302598852
 20
131.7296928021042959
 30
0.0
 40
0.0133214971320116
 50
332.6672296267850015
 51
2.8538405823291959
  0
LINE
  5
1604C
  8
0
 10
3735.7655445059699559
 20
131.7303560570884997
 30
0.0
 11
3735.7655445059781414
 21
131.7490886002823061
 31
0.0
  0
LINE
  5
1604D
  8
0
 10
3735.792989266577024
 20
131.7457692523242088
 30
0.0
 11
3735.792989266577024
 21
131.7334639442892978
 31
0.0
  0
ARC
  5
1604E
  8
0
 10
3735.8001690239379968
 20
131.7337585197153942
 30
0.0
 40
0.0071857978285074
 50
182.3494481645930989
 51
243.8977657986127099
  0
LINE
  5
1604F
  8
0
 10
3735.7603711633169041
 20
131.7143883426938089
 30
0.0
 11
3735.7798846906280232
 21
131.706141473189291
 31
0.0
  0
LINE
  5
16050
  8
0
 10
3735.7798846906280232
 20
131.706141473189291
 30
0.0
 11
3735.8073294512269058
 21
131.7092493602893057
 31
0.0
  0
LINE
  5
16051
  8
0
 10
3735.8073294512269058
 20
131.7092493602893057
 30
0.0
 11
3735.8134824913117882
 21
131.7189542507649094
 31
0.0
  0
LINE
  5
16052
  8
0
 10
3735.8230669649028641
 20
131.7168448240510088
 30
0.0
 11
3735.8161469182268775
 21
131.7059301714893138
 31
0.0
  0
ARC
  5
16053
  8
0
 10
3735.810963241823174
 20
131.7092166968702998
 30
0.0
 40
0.006137731677458
 50
273.5907386522050047
 51
327.624714967079683
  0
LINE
  5
16054
  8
0
 10
3735.8113476430280571
 20
131.7030910143892868
 30
0.0
 11
3735.8107103652268961
 21
131.7025262471892972
 31
0.0
  0
LINE
  5
16055
  8
0
 10
3735.8107103652268961
 20
131.7025262471892972
 30
0.0
 11
3735.7789594746409421
 21
131.6989307834741965
 31
0.0
  0
ARC
  5
16056
  8
0
 10
3735.7665797149102218
 20
131.7054782181043038
 30
0.0
 40
0.0133214971320116
 50
331.8058498463574892
 51
2.8538405823291959
  0
LINE
  5
16057
  8
0
 10
3735.779884690621202
 20
131.7061414730885076
 30
0.0
 11
3735.7798846906280232
 21
131.724850808578708
 31
0.0
  0
LINE
  5
16058
  8
0
 10
3735.8073294512269058
 20
131.7215546683241882
 30
0.0
 11
3735.8073294512269058
 21
131.7092493602893057
 31
0.0
  0
ARC
  5
16059
  8
0
 10
3735.8145092085878787
 20
131.7095439357154021
 30
0.0
 40
0.0071857978285074
 50
182.3494481645930989
 51
243.8977657986127099
  0
LINE
  5
1605A
  8
0
 10
3735.7684091705168612
 20
131.8703295110437068
 30
0.0
 11
3735.7879226978279803
 21
131.8620826415393026
 31
0.0
  0
LINE
  5
1605B
  8
0
 10
3735.7879226978279803
 20
131.8620826415393026
 30
0.0
 11
3735.8153674584268629
 21
131.8651905286392889
 31
0.0
  0
LINE
  5
1605C
  8
0
 10
3735.8153674584268629
 20
131.8651905286392889
 30
0.0
 11
3735.8215204985122
 21
131.8748954191148925
 31
0.0
  0
LINE
  5
1605D
  8
0
 10
3735.8193856502271046
 20
131.8590321827392984
 30
0.0
 11
3735.8187483724268532
 21
131.8584674155393088
 31
0.0
  0
LINE
  5
1605E
  8
0
 10
3735.8187483724268532
 20
131.8584674155393088
 30
0.0
 11
3735.7893466976629497
 21
131.8551379764961098
 31
0.0
  0
ARC
  5
1605F
  8
0
 10
3735.7883803046652247
 20
131.8636720184915987
 30
0.0
 40
0.0085885847616197
 50
257.0249482855793985
 51
276.4606395412957909
  0
ARC
  5
16060
  8
0
 10
3735.7857025011030601
 20
131.8613350755082934
 30
0.0
 40
0.0060787326295796
 50
248.0581534990276111
 51
277.0819162129719757
  0
LINE
  5
16061
  8
0
 10
3735.7834310894281771
 20
131.8556966644393071
 30
0.0
 11
3735.7617055087271183
 21
131.8649270376392906
 31
0.0
  0
ARC
  5
16062
  8
0
 10
3735.7746177221101789
 20
131.861419386454287
 30
0.0
 40
0.0133214971320116
 50
332.6672296267850015
 51
2.8538405823291959
  0
LINE
  5
16063
  8
0
 10
3735.7879226978211591
 20
131.8620826414384908
 30
0.0
 11
3735.7879226978279803
 21
131.8807919769286912
 31
0.0
  0
LINE
  5
16064
  8
0
 10
3735.8153674584268629
 20
131.8774958366741998
 30
0.0
 11
3735.8153674584268629
 21
131.8651905286392889
 31
0.0
  0
ARC
  5
16065
  8
0
 10
3735.8225472157878357
 20
131.8654851040654137
 30
0.0
 40
0.0071857978285074
 50
182.3494481645930989
 51
243.8977657986127099
  0
LINE
  5
16066
  8
0
 10
3735.7836937597671749
 20
131.8462218728938069
 30
0.0
 11
3735.8032072870778393
 21
131.837975003389289
 31
0.0
  0
LINE
  5
16067
  8
0
 10
3735.8032072870778393
 20
131.837975003389289
 30
0.0
 11
3735.8306520476780861
 21
131.8410828904893037
 31
0.0
  0
LINE
  5
16068
  8
0
 10
3735.8306520476780861
 20
131.8410828904893037
 30
0.0
 11
3735.8368050877629685
 21
131.8507877809649074
 31
0.0
  0
LINE
  5
16069
  8
0
 10
3735.8463895613531349
 20
131.8486783542510068
 30
0.0
 11
3735.8394695146780577
 21
131.8377637016893118
 31
0.0
  0
ARC
  5
1606A
  8
0
 10
3735.8342858382738996
 20
131.8410502270702978
 30
0.0
 40
0.006137731677458
 50
273.5907386522050047
 51
327.624714967079683
  0
LINE
  5
1606B
  8
0
 10
3735.8346702394778731
 20
131.8349245445893132
 30
0.0
 11
3735.8340329616780764
 21
131.8343597773892952
 31
0.0
  0
LINE
  5
1606C
  8
0
 10
3735.8340329616780764
 20
131.8343597773892952
 30
0.0
 11
3735.804631286914173
 21
131.8310303383460962
 31
0.0
  0
ARC
  5
1606D
  8
0
 10
3735.8036648939159932
 20
131.8395643803416988
 30
0.0
 40
0.0085885847616197
 50
257.0249482855793985
 51
276.4606395412957909
  0
ARC
  5
1606E
  8
0
 10
3735.800987090352919
 20
131.8372274373583082
 30
0.0
 40
0.0060787326295796
 50
248.0581534990276111
 51
277.0819162129719757
  0
LINE
  5
1606F
  8
0
 10
3735.7987156786780361
 20
131.8315890262892935
 30
0.0
 11
3735.7769900979778868
 21
131.8408193994893054
 31
0.0
  0
ARC
  5
16070
  8
0
 10
3735.7899023113600379
 20
131.8373117483043018
 30
0.0
 40
0.0133214971320116
 50
332.6672296267850015
 51
2.8538405823291959
  0
LINE
  5
16071
  8
0
 10
3735.8032072870701086
 20
131.8379750032885056
 30
0.0
 11
3735.8032072870778393
 21
131.856707546526593
 31
0.0
  0
LINE
  5
16072
  8
0
 10
3735.8306520476780861
 20
131.8533881985241862
 30
0.0
 11
3735.8306520476780861
 21
131.8410828904893037
 31
0.0
  0
ARC
  5
16073
  8
0
 10
3735.8378318050381495
 20
131.8413774659154001
 30
0.0
 40
0.0071857978285074
 50
182.3494481645930989
 51
243.8977657986127099
  0
LINE
  5
16074
  8
0
 10
3735.7989783490670561
 20
131.8221142347937018
 30
0.0
 11
3735.8184918763781752
 21
131.8138673652892976
 31
0.0
  0
LINE
  5
16075
  8
0
 10
3735.8184918763781752
 20
131.8138673652892976
 30
0.0
 11
3735.8459366369779673
 21
131.8169752523893123
 31
0.0
  0
LINE
  5
16076
  8
0
 10
3735.8459366369779673
 20
131.8169752523893123
 30
0.0
 11
3735.8520896770619402
 21
131.8266801428650012
 31
0.0
  0
LINE
  5
16077
  8
0
 10
3735.8616741506539256
 20
131.8245707161511007
 30
0.0
 11
3735.8547541039779389
 21
131.813656063589292
 31
0.0
  0
ARC
  5
16078
  8
0
 10
3735.8495704275737808
 20
131.8169425889703064
 30
0.0
 40
0.006137731677458
 50
273.5907386522050047
 51
327.624714967079683
  0
LINE
  5
16079
  8
0
 10
3735.849954828778209
 20
131.8108169064892934
 30
0.0
 11
3735.8493175509779576
 21
131.8102521392893038
 31
0.0
  0
LINE
  5
1607A
  8
0
 10
3735.8493175509779576
 20
131.8102521392893038
 30
0.0
 11
3735.8199158762140542
 21
131.8069227002461048
 31
0.0
  0
ARC
  5
1607B
  8
0
 10
3735.8189494832158744
 20
131.8154567422415937
 30
0.0
 40
0.0085885847616197
 50
257.0249482855793985
 51
276.4606395412957909
  0
ARC
  5
1607C
  8
0
 10
3735.8162716796528002
 20
131.8131197992582884
 30
0.0
 40
0.0060787326295796
 50
248.0581534990276111
 51
277.0819162129719757
  0
LINE
  5
1607D
  8
0
 10
3735.8140002679779172
 20
131.8074813881893022
 30
0.0
 11
3735.7922746872768585
 21
131.816711761389314
 31
0.0
  0
ARC
  5
1607E
  8
0
 10
3735.8051869006590096
 20
131.8132041102043104
 30
0.0
 40
0.0133214971320116
 50
332.6672296267850015
 51
2.8538405823291959
  0
LINE
  5
1607F
  8
0
 10
3735.8184918763699898
 20
131.8138673651884858
 30
0.0
 11
3735.8184918763781752
 21
131.8325767006786862
 31
0.0
  0
LINE
  5
16080
  8
0
 10
3735.8459366369779673
 20
131.8292805604241948
 30
0.0
 11
3735.8459366369779673
 21
131.8169752523893123
 31
0.0
  0
ARC
  5
16081
  8
0
 10
3735.8531163943380307
 20
131.8172698278154087
 30
0.0
 40
0.0071857978285074
 50
182.3494481645930989
 51
243.8977657986127099
  0
LINE
  5
16082
  8
0
 10
3735.8142629383169151
 20
131.7980065966937104
 30
0.0
 11
3735.8337764656280342
 21
131.7897597271893062
 31
0.0
  0
LINE
  5
16083
  8
0
 10
3735.8337764656280342
 20
131.7897597271893062
 30
0.0
 11
3735.8612212262269168
 21
131.7928676142892925
 31
0.0
  0
LINE
  5
16084
  8
0
 10
3735.8612212262269168
 20
131.7928676142892925
 30
0.0
 11
3735.8673742663117991
 21
131.8025725047648962
 31
0.0
  0
LINE
  5
16085
  8
0
 10
3735.8769587399028751
 20
131.8004630780511093
 30
0.0
 11
3735.8700386932277979
 21
131.7895484254893006
 31
0.0
  0
ARC
  5
16086
  8
0
 10
3735.864855016823185
 20
131.7928349508702865
 30
0.0
 40
0.006137731677458
 50
273.5907386522050047
 51
327.624714967079683
  0
LINE
  5
16087
  8
0
 10
3735.865239418028068
 20
131.786709268389302
 30
0.0
 11
3735.8646021402269071
 21
131.7861445011893125
 31
0.0
  0
LINE
  5
16088
  8
0
 10
3735.8646021402269071
 20
131.7861445011893125
 30
0.0
 11
3735.8352004654639131
 21
131.7828150621461134
 31
0.0
  0
ARC
  5
16089
  8
0
 10
3735.8342340724661881
 20
131.7913491041416023
 30
0.0
 40
0.0085885847616197
 50
257.0249482855793985
 51
276.4606395412957909
  0
ARC
  5
1608A
  8
0
 10
3735.831556268903114
 20
131.789012161158297
 30
0.0
 40
0.0060787326295796
 50
248.0581534990276111
 51
277.0819162129719757
  0
LINE
  5
1608B
  8
0
 10
3735.8292848572277762
 20
131.7833737500893108
 30
0.0
 11
3735.8075592765280817
 21
131.7926041232892942
 31
0.0
  0
ARC
  5
1608C
  8
0
 10
3735.820471489909778
 20
131.7890964721042906
 30
0.0
 40
0.0133214971320116
 50
332.6672296267850015
 51
2.8538405823291959
  0
LINE
  5
1608D
  8
0
 10
3735.833776465621213
 20
131.7897597270884944
 30
0.0
 11
3735.8337764656280342
 21
131.8084690625786948
 31
0.0
  0
LINE
  5
1608E
  8
0
 10
3735.8612212262269168
 20
131.8051729223242035
 30
0.0
 11
3735.8612212262269168
 21
131.7928676142892925
 31
0.0
  0
ARC
  5
1608F
  8
0
 10
3735.8684009835878896
 20
131.7931621897153889
 30
0.0
 40
0.0071857978285074
 50
182.3494481645930989
 51
243.8977657986127099
  0
LINE
  5
16090
  8
0
 10
3735.8295475276167963
 20
131.7738989585936906
 30
0.0
 11
3735.8490610549279154
 21
131.7656520890892864
 31
0.0
  0
LINE
  5
16091
  8
0
 10
3735.8490610549279154
 20
131.7656520890892864
 30
0.0
 11
3735.8765058155281622
 21
131.7687599761893011
 31
0.0
  0
LINE
  5
16092
  8
0
 10
3735.8765058155281622
 20
131.7687599761893011
 30
0.0
 11
3735.8826588556121351
 21
131.7784648666649048
 31
0.0
  0
LINE
  5
16093
  8
0
 10
3735.892243329203211
 20
131.7763554399510042
 30
0.0
 11
3735.8853232825272244
 21
131.7654407873893092
 31
0.0
  0
ARC
  5
16094
  8
0
 10
3735.8801396061230662
 20
131.7687273127702952
 30
0.0
 40
0.006137731677458
 50
273.5907386522050047
 51
327.624714967079683
  0
LINE
  5
16095
  8
0
 10
3735.8805240073279492
 20
131.7626016302893106
 30
0.0
 11
3735.8798867295281525
 21
131.7620368630892926
 31
0.0
  0
LINE
  5
16096
  8
0
 10
3735.8798867295281525
 20
131.7620368630892926
 30
0.0
 11
3735.8504850547637943
 21
131.7587074240460936
 31
0.0
  0
ARC
  5
16097
  8
0
 10
3735.8495186617660693
 20
131.7672414660416109
 30
0.0
 40
0.0085885847616197
 50
257.0249482855793985
 51
276.4606395412957909
  0
ARC
  5
16098
  8
0
 10
3735.8468408582029952
 20
131.7649045230583056
 30
0.0
 40
0.0060787326295796
 50
248.0581534990276111
 51
277.0819162129719757
  0
LINE
  5
16099
  8
0
 10
3735.8445694465272027
 20
131.7592661119892909
 30
0.0
 11
3735.8228438658279629
 21
131.7684964851893028
 31
0.0
  0
ARC
  5
1609A
  8
0
 10
3735.835756079210114
 20
131.7649888340042992
 30
0.0
 40
0.0133214971320116
 50
332.6672296267850015
 51
2.8538405823291959
  0
LINE
  5
1609B
  8
0
 10
3735.8490610549210942
 20
131.7656520889883893
 30
0.0
 11
3735.8490610549279154
 21
131.7843614244787034
 31
0.0
  0
LINE
  5
1609C
  8
0
 10
3735.8765058155281622
 20
131.7810652842242121
 30
0.0
 11
3735.8765058155281622
 21
131.7687599761893011
 31
0.0
  0
ARC
  5
1609D
  8
0
 10
3735.8836855728882256
 20
131.7690545516153975
 30
0.0
 40
0.0071857978285074
 50
182.3494481645930989
 51
243.8977657986127099
  0
LINE
  5
1609E
  8
0
 10
3735.8448321169171322
 20
131.7497913204936992
 30
0.0
 11
3735.8643456442268871
 21
131.741544450989295
 31
0.0
  0
LINE
  5
1609F
  8
0
 10
3735.8643456442268871
 20
131.741544450989295
 30
0.0
 11
3735.8917904048280434
 21
131.7446523380893098
 31
0.0
  0
LINE
  5
160A0
  8
0
 10
3735.8917904048280434
 20
131.7446523380893098
 30
0.0
 11
3735.8979434449120163
 21
131.7543572285649134
 31
0.0
  0
LINE
  5
160A1
  8
0
 10
3735.9075279185040017
 20
131.7522478018510128
 30
0.0
 11
3735.9006078718271056
 21
131.7413331492892894
 31
0.0
  0
ARC
  5
160A2
  8
0
 10
3735.8954241954238569
 20
131.7446196746703038
 30
0.0
 40
0.006137731677458
 50
273.5907386522050047
 51
327.624714967079683
  0
LINE
  5
160A3
  8
0
 10
3735.8958085966269209
 20
131.7384939921892908
 30
0.0
 11
3735.8951713188280337
 21
131.7379292249893012
 31
0.0
  0
LINE
  5
160A4
  8
0
 10
3735.8951713188280337
 20
131.7379292249893012
 30
0.0
 11
3735.8657696440641303
 21
131.7345997859461022
 31
0.0
  0
ARC
  5
160A5
  8
0
 10
3735.8648032510659505
 20
131.7431338279415911
 30
0.0
 40
0.0085885847616197
 50
257.0249482855793985
 51
276.4606395412957909
  0
ARC
  5
160A6
  8
0
 10
3735.8621254475028763
 20
131.7407968849583142
 30
0.0
 40
0.0060787326295796
 50
248.0581534990276111
 51
277.0819162129719757
  0
LINE
  5
160A7
  8
0
 10
3735.8598540358279934
 20
131.7351584738892996
 30
0.0
 11
3735.8381284551278441
 21
131.7443888470893114
 31
0.0
  0
ARC
  5
160A8
  8
0
 10
3735.8510406685099952
 20
131.7408811959043078
 30
0.0
 40
0.0133214971320116
 50
332.6672296267850015
 51
2.8538405823291959
  0
LINE
  5
160A9
  8
0
 10
3735.8643456442200659
 20
131.7415444508885116
 30
0.0
 11
3735.8643456442268871
 21
131.7602769940822895
 31
0.0
  0
LINE
  5
160AA
  8
0
 10
3735.8917904048280434
 20
131.7569576461241923
 30
0.0
 11
3735.8917904048280434
 21
131.7446523380893098
 31
0.0
  0
ARC
  5
160AB
  8
0
 10
3735.8989701621881068
 20
131.7449469135154061
 30
0.0
 40
0.0071857978285074
 50
182.3494481645930989
 51
243.8977657986127099
  0
LINE
  5
160AC
  8
0
 10
3735.8601167062170134
 20
131.7256836823437141
 30
0.0
 11
3735.8796302335281325
 21
131.7174368128393098
 31
0.0
  0
LINE
  5
160AD
  8
0
 10
3735.8796302335281325
 20
131.7174368128393098
 30
0.0
 11
3735.9070749941270151
 21
131.7205446999392962
 31
0.0
  0
LINE
  5
160AE
  8
0
 10
3735.9070749941270151
 20
131.7205446999392962
 30
0.0
 11
3735.9132280342118975
 21
131.7302495904148998
 31
0.0
  0
LINE
  5
160AF
  8
0
 10
3735.9228125078038829
 20
131.7281401637009992
 30
0.0
 11
3735.9158924611269867
 21
131.7172255111393042
 31
0.0
  0
ARC
  5
160B0
  8
0
 10
3735.9107087847241928
 20
131.7205120365202902
 30
0.0
 40
0.006137731677458
 50
273.5907386522050047
 51
327.624714967079683
  0
LINE
  5
160B1
  8
0
 10
3735.9110931859281663
 20
131.7143863540393056
 30
0.0
 11
3735.9104559081279149
 21
131.7138215868392876
 31
0.0
  0
LINE
  5
160B2
  8
0
 10
3735.9104559081279149
 20
131.7138215868392876
 30
0.0
 11
3735.8810542333640115
 21
131.7104921477960886
 31
0.0
  0
ARC
  5
160B3
  8
0
 10
3735.8800878403658317
 20
131.7190261897916059
 30
0.0
 40
0.0085885847616197
 50
257.0249482855793985
 51
276.4606395412957909
  0
ARC
  5
160B4
  8
0
 10
3735.8774100368032123
 20
131.7166892468083006
 30
0.0
 40
0.0060787326295796
 50
248.0581534990276111
 51
277.0819162129719757
  0
LINE
  5
160B5
  8
0
 10
3735.8751386251278745
 20
131.711050835739286
 30
0.0
 11
3735.85341304442818
 21
131.7202812089392978
 31
0.0
  0
ARC
  5
160B6
  8
0
 10
3735.8663252578098763
 20
131.7167735577542942
 30
0.0
 40
0.0133214971320116
 50
332.6672296267850015
 51
2.8538405823291959
  0
LINE
  5
160B7
  8
0
 10
3735.8796302335208566
 20
131.717436812738498
 30
0.0
 11
3735.8796302335281325
 21
131.7361693559822982
 31
0.0
  0
LINE
  5
160B8
  8
0
 10
3735.9070749941270151
 20
131.7328500079742071
 30
0.0
 11
3735.9070749941270151
 21
131.7205446999392962
 31
0.0
  0
ARC
  5
160B9
  8
0
 10
3735.914254751487988
 20
131.7208392753653925
 30
0.0
 40
0.0071857978285074
 50
182.3494481645930989
 51
243.8977657986127099
  0
LINE
  5
160BA
  8
0
 10
3735.8754012954168502
 20
131.7015760442436942
 30
0.0
 11
3735.8949148227279693
 21
131.69332917473929
 31
0.0
  0
LINE
  5
160BB
  8
0
 10
3735.8949148227279693
 20
131.69332917473929
 30
0.0
 11
3735.9223595833268519
 21
131.6964370618393048
 31
0.0
  0
LINE
  5
160BC
  8
0
 10
3735.9223595833268519
 20
131.6964370618393048
 30
0.0
 11
3735.928512623412189
 21
131.7061419523149084
 31
0.0
  0
LINE
  5
160BD
  8
0
 10
3735.9380970970041744
 20
131.7040325256010931
 30
0.0
 11
3735.9311770503281878
 21
131.6931178730393128
 31
0.0
  0
ARC
  5
160BE
  8
0
 10
3735.9259933739231201
 20
131.6964043984202988
 30
0.0
 40
0.006137731677458
 50
273.5907386522050047
 51
327.624714967079683
  0
LINE
  5
160BF
  8
0
 10
3735.9263777751280031
 20
131.6902787159392858
 30
0.0
 11
3735.9257404973268422
 21
131.6897139487392963
 31
0.0
  0
LINE
  5
160C0
  8
0
 10
3735.9257404973268422
 20
131.6897139487392963
 30
0.0
 11
3735.8963388225629387
 21
131.6863845096960972
 31
0.0
  0
ARC
  5
160C1
  8
0
 10
3735.8953724295661232
 20
131.6949185516915861
 30
0.0
 40
0.0085885847616197
 50
257.0249482855793985
 51
276.4606395412957909
  0
ARC
  5
160C2
  8
0
 10
3735.8926946260039585
 20
131.6925816087083092
 30
0.0
 40
0.0060787326295796
 50
248.0581534990276111
 51
277.0819162129719757
  0
LINE
  5
160C3
  8
0
 10
3735.8904232143281661
 20
131.6869431976392946
 30
0.0
 11
3735.8686976336280168
 21
131.6961735708393064
 31
0.0
  0
ARC
  5
160C4
  8
0
 10
3735.8816098470088036
 20
131.6926659196543028
 30
0.0
 40
0.0133214971320116
 50
332.6672296267850015
 51
2.8538405823291959
  0
LINE
  5
160C5
  8
0
 10
3735.8949148227211481
 20
131.6933291746383929
 30
0.0
 11
3735.8949148227279693
 21
131.7120617178210011
 31
0.0
  0
LINE
  5
160C6
  8
0
 10
3735.9223595833268519
 20
131.7087423698741873
 30
0.0
 11
3735.9223595833268519
 21
131.6964370618393048
 31
0.0
  0
ARC
  5
160C7
  8
0
 10
3735.9295393406878247
 20
131.6967316372654011
 30
0.0
 40
0.0071857978285074
 50
182.3494481645930989
 51
243.8977657986127099
  0
LINE
  5
160C8
  8
0
 10
3735.7266508960178726
 20
131.852681495093691
 30
0.0
 11
3735.7461644233280822
 21
131.8444346255892867
 31
0.0
  0
LINE
  5
160C9
  8
0
 10
3735.7461644233280822
 20
131.8444346255892867
 30
0.0
 11
3735.7736091839278743
 21
131.8475425126893015
 31
0.0
  0
LINE
  5
160CA
  8
0
 10
3735.7736091839278743
 20
131.8475425126893015
 30
0.0
 11
3735.7797622240118471
 21
131.8572474031649051
 31
0.0
  0
LINE
  5
160CB
  8
0
 10
3735.7893466976038326
 20
131.8551379764510045
 30
0.0
 11
3735.7824266509278459
 21
131.8442233238893095
 31
0.0
  0
ARC
  5
160CC
  8
0
 10
3735.7772429745227782
 20
131.8475098492702955
 30
0.0
 40
0.006137731677458
 50
273.5907386522050047
 51
327.624714967079683
  0
LINE
  5
160CD
  8
0
 10
3735.7776273757272065
 20
131.8413841667893109
 30
0.0
 11
3735.7769900979278646
 21
131.840819399589293
 31
0.0
  0
LINE
  5
160CE
  8
0
 10
3735.7769900979278646
 20
131.840819399589293
 30
0.0
 11
3735.7475884231630516
 21
131.8374899605460939
 31
0.0
  0
ARC
  5
160CF
  8
0
 10
3735.7466220301657813
 20
131.8460240025416113
 30
0.0
 40
0.0085885847616197
 50
257.0249482855793985
 51
276.4606395412957909
  0
ARC
  5
160D0
  8
0
 10
3735.743944226603162
 20
131.8436870595583059
 30
0.0
 40
0.0060787326295796
 50
248.0581534990276111
 51
277.0819162129719757
  0
LINE
  5
160D1
  8
0
 10
3735.7416728149278242
 20
131.8380486484892913
 30
0.0
 11
3735.7199472342281297
 21
131.8472790216893031
 31
0.0
  0
ARC
  5
160D2
  8
0
 10
3735.732859447609826
 20
131.8437713705042995
 30
0.0
 40
0.0133214971320116
 50
332.6672296267850015
 51
2.8538405823291959
  0
LINE
  5
160D3
  8
0
 10
3735.7461644233198967
 20
131.8444346254883897
 30
0.0
 11
3735.7461644233280822
 21
131.863167193209506
 31
0.0
  0
LINE
  5
160D4
  8
0
 10
3735.7736091839278743
 20
131.8598478207242124
 30
0.0
 11
3735.7736091839278743
 21
131.8475425126893015
 31
0.0
  0
ARC
  5
160D5
  8
0
 10
3735.7807889412870281
 20
131.8478370881153978
 30
0.0
 40
0.0071857978285074
 50
182.3494481645930989
 51
243.8977657986127099
  0
LINE
  5
160D6
  8
0
 10
3735.7419354853168443
 20
131.8285738569936996
 30
0.0
 11
3735.7614490126279634
 21
131.8203269874892953
 31
0.0
  0
LINE
  5
160D7
  8
0
 10
3735.7614490126279634
 20
131.8203269874892953
 30
0.0
 11
3735.7888937732282102
 21
131.8234348745893101
 31
0.0
  0
LINE
  5
160D8
  8
0
 10
3735.7888937732282102
 20
131.8234348745893101
 30
0.0
 11
3735.7950468133130926
 21
131.8331397650649137
 31
0.0
  0
LINE
  5
160D9
  8
0
 10
3735.8046312869028043
 20
131.8310303383510131
 30
0.0
 11
3735.7977112402281819
 21
131.8201156857892897
 31
0.0
  0
ARC
  5
160DA
  8
0
 10
3735.7925275638231142
 20
131.8234022111703041
 30
0.0
 40
0.006137731677458
 50
273.5907386522050047
 51
327.624714967079683
  0
LINE
  5
160DB
  8
0
 10
3735.7929119650279972
 20
131.8172765286892911
 30
0.0
 11
3735.7922746872282005
 21
131.8167117614893016
 31
0.0
  0
LINE
  5
160DC
  8
0
 10
3735.7922746872282005
 20
131.8167117614893016
 30
0.0
 11
3735.7628730124638423
 21
131.8133823224461025
 31
0.0
  0
ARC
  5
160DD
  8
0
 10
3735.7619066194661173
 20
131.8219163644415914
 30
0.0
 40
0.0085885847616197
 50
257.0249482855793985
 51
276.4606395412957909
  0
ARC
  5
160DE
  8
0
 10
3735.7592288159030431
 20
131.8195794214582861
 30
0.0
 40
0.0060787326295796
 50
248.0581534990276111
 51
277.0819162129719757
  0
LINE
  5
160DF
  8
0
 10
3735.7569574042281602
 20
131.8139410103892999
 30
0.0
 11
3735.7352318235280109
 21
131.8231713835893117
 31
0.0
  0
ARC
  5
160E0
  8
0
 10
3735.748144036910162
 20
131.8196637324043081
 30
0.0
 40
0.0133214971320116
 50
332.6672296267850015
 51
2.8538405823291959
  0
LINE
  5
160E1
  8
0
 10
3735.7614490126197779
 20
131.820326987388512
 30
0.0
 11
3735.7614490126279634
 21
131.8390595305822899
 31
0.0
  0
LINE
  5
160E2
  8
0
 10
3735.7888937732282102
 20
131.8357401826241926
 30
0.0
 11
3735.7888937732282102
 21
131.8234348745893101
 31
0.0
  0
ARC
  5
160E3
  8
0
 10
3735.7960735305878188
 20
131.8237294500154064
 30
0.0
 40
0.0071857978285074
 50
182.3494481645930989
 51
243.8977657986127099
  0
LINE
  5
160E4
  8
0
 10
3735.7572200746171802
 20
131.804466218843686
 30
0.0
 11
3735.7767336019269351
 21
131.7962193493393102
 31
0.0
  0
LINE
  5
160E5
  8
0
 10
3735.7767336019269351
 20
131.7962193493393102
 30
0.0
 11
3735.8041783625280914
 21
131.7993272364392965
 31
0.0
  0
LINE
  5
160E6
  8
0
 10
3735.8041783625280914
 20
131.7993272364392965
 30
0.0
 11
3735.8103314026129738
 21
131.8090321269149001
 31
0.0
  0
LINE
  5
160E7
  8
0
 10
3735.8199158762031402
 20
131.8069227002009995
 30
0.0
 11
3735.812995829528063
 21
131.7960080476393046
 31
0.0
  0
ARC
  5
160E8
  8
0
 10
3735.8078121531239049
 20
131.7992945730202905
 30
0.0
 40
0.006137731677458
 50
273.5907386522050047
 51
327.624714967079683
  0
LINE
  5
160E9
  8
0
 10
3735.8081965543278784
 20
131.7931688905393059
 30
0.0
 11
3735.8075592765280817
 21
131.792604123339288
 31
0.0
  0
LINE
  5
160EA
  8
0
 10
3735.8075592765280817
 20
131.792604123339288
 30
0.0
 11
3735.7781576017641783
 21
131.7892746842960889
 31
0.0
  0
ARC
  5
160EB
  8
0
 10
3735.7771912087659985
 20
131.7978087262916063
 30
0.0
 40
0.0085885847616197
 50
257.0249482855793985
 51
276.4606395412957909
  0
ARC
  5
160EC
  8
0
 10
3735.7745134052029243
 20
131.7954717833083009
 30
0.0
 40
0.0060787326295796
 50
248.0581534990276111
 51
277.0819162129719757
  0
LINE
  5
160ED
  8
0
 10
3735.7722419935280413
 20
131.7898333722392863
 30
0.0
 11
3735.7505164128278921
 21
131.7990637454392981
 31
0.0
  0
ARC
  5
160EE
  8
0
 10
3735.7634286262100431
 20
131.7955560942542945
 30
0.0
 40
0.0133214971320116
 50
332.6672296267850015
 51
2.8538405823291959
  0
LINE
  5
160EF
  8
0
 10
3735.7767336019201139
 20
131.7962193492384984
 30
0.0
 11
3735.7767336019269351
 21
131.8149518924822985
 31
0.0
  0
LINE
  5
160F0
  8
0
 10
3735.8041783625280914
 20
131.8116325444742074
 30
0.0
 11
3735.8041783625280914
 21
131.7993272364392965
 31
0.0
  0
ARC
  5
160F1
  8
0
 10
3735.8113581198881548
 20
131.7996218118653928
 30
0.0
 40
0.0071857978285074
 50
182.3494481645930989
 51
243.8977657986127099
  0
LINE
  5
160F2
  8
0
 10
3735.7725046638670392
 20
131.7803585807436946
 30
0.0
 11
3735.7920181911781583
 21
131.7721117112392903
 31
0.0
  0
LINE
  5
160F3
  8
0
 10
3735.7920181911781583
 20
131.7721117112392903
 30
0.0
 11
3735.8194629517779504
 21
131.7752195983393051
 31
0.0
  0
LINE
  5
160F4
  8
0
 10
3735.8194629517779504
 20
131.7752195983393051
 30
0.0
 11
3735.8256159918619232
 21
131.7849244888149087
 31
0.0
  0
LINE
  5
160F5
  8
0
 10
3735.8352004654539087
 20
131.7828150621010082
 30
0.0
 11
3735.828280418777922
 21
131.7719004095393132
 31
0.0
  0
ARC
  5
160F6
  8
0
 10
3735.8230967423742186
 20
131.7751869349202991
 30
0.0
 40
0.006137731677458
 50
273.5907386522050047
 51
327.624714967079683
  0
LINE
  5
160F7
  8
0
 10
3735.8234811435781921
 20
131.7690612524392861
 30
0.0
 11
3735.8228438657779407
 21
131.7684964852392966
 31
0.0
  0
LINE
  5
160F8
  8
0
 10
3735.8228438657779407
 20
131.7684964852392966
 30
0.0
 11
3735.7934421910140372
 21
131.7651670461960975
 31
0.0
  0
ARC
  5
160F9
  8
0
 10
3735.7924757980158574
 20
131.7737010881915865
 30
0.0
 40
0.0085885847616197
 50
257.0249482855793985
 51
276.4606395412957909
  0
ARC
  5
160FA
  8
0
 10
3735.7897979944527833
 20
131.7713641452083095
 30
0.0
 40
0.0060787326295796
 50
248.0581534990276111
 51
277.0819162129719757
  0
LINE
  5
160FB
  8
0
 10
3735.7875265827779003
 20
131.7657257341392949
 30
0.0
 11
3735.7658010020768415
 21
131.7749561073393068
 31
0.0
  0
ARC
  5
160FC
  8
0
 10
3735.7787132154599021
 20
131.7714484561543031
 30
0.0
 40
0.0133214971320116
 50
332.6672296267850015
 51
2.8538405823291959
  0
LINE
  5
160FD
  8
0
 10
3735.7920181911699729
 20
131.7721117111383933
 30
0.0
 11
3735.7920181911781583
 21
131.7908210466287073
 31
0.0
  0
LINE
  5
160FE
  8
0
 10
3735.8194629517779504
 20
131.7875249063741876
 30
0.0
 11
3735.8194629517779504
 21
131.7752195983393051
 31
0.0
  0
ARC
  5
160FF
  8
0
 10
3735.8266427091380137
 20
131.7755141737654014
 30
0.0
 40
0.0071857978285074
 50
182.3494481645930989
 51
243.8977657986127099
  0
LINE
  5
16100
  8
0
 10
3735.7877892531168982
 20
131.7562509426437032
 30
0.0
 11
3735.8073027804280173
 21
131.748004073139299
 31
0.0
  0
LINE
  5
16101
  8
0
 10
3735.8073027804280173
 20
131.748004073139299
 30
0.0
 11
3735.8347475410278093
 21
131.7511119602393137
 31
0.0
  0
LINE
  5
16102
  8
0
 10
3735.8347475410278093
 20
131.7511119602393137
 30
0.0
 11
3735.8409005811131465
 21
131.7608168507148889
 31
0.0
  0
LINE
  5
16103
  8
0
 10
3735.8504850547042224
 20
131.758707424001102
 30
0.0
 11
3735.8435650080268715
 21
131.7477927714392933
 31
0.0
  0
ARC
  5
16104
  8
0
 10
3735.8383813316231681
 20
131.7510792968203077
 30
0.0
 40
0.006137731677458
 50
273.5907386522050047
 51
327.624714967079683
  0
LINE
  5
16105
  8
0
 10
3735.8387657328280511
 20
131.7449536143392947
 30
0.0
 11
3735.8381284550277996
 21
131.7443888471393052
 31
0.0
  0
LINE
  5
16106
  8
0
 10
3735.8381284550277996
 20
131.7443888471393052
 30
0.0
 11
3735.8087267802638962
 21
131.7410594080961062
 31
0.0
  0
ARC
  5
16107
  8
0
 10
3735.8077603872661712
 20
131.7495934500915951
 30
0.0
 40
0.0085885847616197
 50
257.0249482855793985
 51
276.4606395412957909
  0
ARC
  5
16108
  8
0
 10
3735.805082583703097
 20
131.7472565071082897
 30
0.0
 40
0.0060787326295796
 50
248.0581534990276111
 51
277.0819162129719757
  0
LINE
  5
16109
  8
0
 10
3735.8028111720268498
 20
131.7416180960393035
 30
0.0
 11
3735.7810855913280648
 21
131.7508484692392869
 31
0.0
  0
ARC
  5
1610A
  8
0
 10
3735.7939978047088516
 20
131.7473408180543117
 30
0.0
 40
0.0133214971320116
 50
332.6672296267850015
 51
2.8538405823291959
  0
LINE
  5
1610B
  8
0
 10
3735.8073027804211961
 20
131.7480040730384871
 30
0.0
 11
3735.8073027804280173
 21
131.7667366162266092
 31
0.0
  0
LINE
  5
1610C
  8
0
 10
3735.8347475410278093
 20
131.7634172682741962
 30
0.0
 11
3735.8347475410278093
 21
131.7511119602393137
 31
0.0
  0
ARC
  5
1610D
  8
0
 10
3735.8419272983878727
 20
131.75140653566541
 30
0.0
 40
0.0071857978285074
 50
182.3494481645930989
 51
243.8977657986127099
  0
LINE
  5
1610E
  8
0
 10
3735.8030738424167794
 20
131.7321433044938033
 30
0.0
 11
3735.822587369726989
 21
131.7238964349893138
 31
0.0
  0
LINE
  5
1610F
  8
0
 10
3735.822587369726989
 20
131.7238964349893138
 30
0.0
 11
3735.8500321303281453
 21
131.7270043220893001
 31
0.0
  0
LINE
  5
16110
  8
0
 10
3735.8500321303281453
 20
131.7270043220893001
 30
0.0
 11
3735.8561851704121182
 21
131.7367092125649037
 31
0.0
  0
LINE
  5
16111
  8
0
 10
3735.8657696440041036
 20
131.7345997858510032
 30
0.0
 11
3735.8588495973281169
 21
131.7236851332893082
 31
0.0
  0
ARC
  5
16112
  8
0
 10
3735.8536659209230493
 20
131.7269716586702941
 30
0.0
 40
0.006137731677458
 50
273.5907386522050047
 51
327.624714967079683
  0
LINE
  5
16113
  8
0
 10
3735.8540503221279323
 20
131.7208459761893096
 30
0.0
 11
3735.8534130443281356
 21
131.7202812089892916
 31
0.0
  0
LINE
  5
16114
  8
0
 10
3735.8534130443281356
 20
131.7202812089892916
 30
0.0
 11
3735.8240113695637774
 21
131.7169517699460926
 31
0.0
  0
ARC
  5
16115
  8
0
 10
3735.8230449765660524
 20
131.7254858119416951
 30
0.0
 40
0.0085885847616197
 50
257.0249482855793985
 51
276.4606395412957909
  0
ARC
  5
16116
  8
0
 10
3735.8203671730029782
 20
131.7231488689583045
 30
0.0
 40
0.0060787326295796
 50
248.0581534990276111
 51
277.0819162129719757
  0
LINE
  5
16117
  8
0
 10
3735.8180957613280953
 20
131.7175104578892899
 30
0.0
 11
3735.796370180627946
 21
131.7267408310893018
 31
0.0
  0
ARC
  5
16118
  8
0
 10
3735.8092823940091876
 20
131.7232331799042981
 30
0.0
 40
0.0133214971320116
 50
332.6672296267850015
 51
2.8538405823291959
  0
LINE
  5
16119
  8
0
 10
3735.8225873697201678
 20
131.7238964348883883
 30
0.0
 11
3735.822587369726989
 21
131.7426057703787023
 31
0.0
  0
LINE
  5
1611A
  8
0
 10
3735.8500321303281453
 20
131.739309630124211
 30
0.0
 11
3735.8500321303281453
 21
131.7270043220893001
 31
0.0
  0
ARC
  5
1611B
  8
0
 10
3735.8572118876882087
 20
131.7272988975153964
 30
0.0
 40
0.0071857978285074
 50
182.3494481645930989
 51
243.8977657986127099
  0
LINE
  5
1611C
  8
0
 10
3735.8183584317180248
 20
131.7080356663936982
 30
0.0
 11
3735.8378719590277797
 21
131.699788796889294
 31
0.0
  0
LINE
  5
1611D
  8
0
 10
3735.8378719590277797
 20
131.699788796889294
 30
0.0
 11
3735.865316719627117
 21
131.7028966839893087
 31
0.0
  0
LINE
  5
1611E
  8
0
 10
3735.865316719627117
 20
131.7028966839893087
 30
0.0
 11
3735.8714697597119994
 21
131.7126015744649976
 31
0.0
  0
LINE
  5
1611F
  8
0
 10
3735.8810542333030753
 20
131.710492147751097
 30
0.0
 11
3735.8741341866279981
 21
131.6995774951892884
 31
0.0
  0
ARC
  5
16120
  8
0
 10
3735.8689505102229305
 20
131.7028640205703027
 30
0.0
 40
0.006137731677458
 50
273.5907386522050047
 51
327.624714967079683
  0
LINE
  5
16121
  8
0
 10
3735.8693349114278135
 20
131.6967383380892898
 30
0.0
 11
3735.8686976336280168
 21
131.6961735708893002
 31
0.0
  0
LINE
  5
16122
  8
0
 10
3735.8686976336280168
 20
131.6961735708893002
 30
0.0
 11
3735.8392959588632039
 21
131.6928441318461012
 31
0.0
  0
ARC
  5
16123
  8
0
 10
3735.8383295658659335
 20
131.7013781738417038
 30
0.0
 40
0.0085885847616197
 50
257.0249482855793985
 51
276.4606395412957909
  0
ARC
  5
16124
  8
0
 10
3735.8356517623028594
 20
131.6990412308583132
 30
0.0
 40
0.0060787326295796
 50
248.0581534990276111
 51
277.0819162129719757
  0
LINE
  5
16125
  8
0
 10
3735.8333803506279764
 20
131.6934028197892985
 30
0.0
 11
3735.8116547699278271
 21
131.7026331929893104
 31
0.0
  0
ARC
  5
16126
  8
0
 10
3735.8245669833099782
 20
131.6991255418043067
 30
0.0
 40
0.0133214971320116
 50
332.6672296267850015
 51
2.8538405823291959
  0
LINE
  5
16127
  8
0
 10
3735.837871959020049
 20
131.6997887967883969
 30
0.0
 11
3735.8378719590277797
 21
131.718498132278711
 31
0.0
  0
LINE
  5
16128
  8
0
 10
3735.865316719627117
 20
131.7152019920241912
 30
0.0
 11
3735.865316719627117
 21
131.7028966839893087
 31
0.0
  0
ARC
  5
16129
  8
0
 10
3735.8724964769880899
 20
131.7031912594154051
 30
0.0
 40
0.0071857978285074
 50
182.3494481645930989
 51
243.8977657986127099
  0
LINE
  5
1612A
  8
0
 10
3735.9146215211280833
 20
131.9080820242392917
 30
0.0
 11
3735.9077014743279506
 21
131.8971673716393127
 31
0.0
  0
ARC
  5
1612B
  8
0
 10
3735.902517798070221
 20
131.9004538969749944
 30
0.0
 40
0.0061377315294667
 50
273.5907383043116852
 51
327.6247145926483881
  0
ARC
  5
1612C
  8
0
 10
3735.9060637481211415
 20
131.9007811250905036
 30
0.0
 40
0.0071857807296463
 50
182.3493669743104135
 51
243.8978469888859877
  0
LINE
  5
1612D
  8
0
 10
3735.8988840074280233
 20
131.9004865605392922
 30
0.0
 11
3735.8988840073297979
 21
131.9124407730691928
 31
0.0
  0
LINE
  5
1612E
  8
0
 10
3735.8988840073270694
 20
131.9004865629767096
 30
0.0
 11
3735.9050370475270029
 21
131.9101914510393101
 31
0.0
  0
LINE
  5
1612F
  8
0
 10
3735.9029021992278103
 20
131.8943282146393017
 30
0.0
 11
3735.9022627817280409
 21
131.8937632571393124
 31
0.0
  0
LINE
  5
16130
  8
0
 10
3735.908968583216847
 20
131.8991659207437124
 30
0.0
 11
3735.9284821105279661
 21
131.8909190512393081
 31
0.0
  0
LINE
  5
16131
  8
0
 10
3735.9284821105279661
 20
131.8909190512393081
 30
0.0
 11
3735.9559268711268487
 21
131.8940269383392945
 31
0.0
  0
LINE
  5
16132
  8
0
 10
3735.959307785126839
 20
131.887303825239286
 30
0.0
 11
3735.9299061103638451
 21
131.8839743861960869
 31
0.0
  0
ARC
  5
16133
  8
0
 10
3735.92893971736612
 20
131.8925084281916043
 30
0.0
 40
0.0085885847616197
 50
257.0249482855793985
 51
276.4606395412957909
  0
ARC
  5
16134
  8
0
 10
3735.9262619138030459
 20
131.8901714852082989
 30
0.0
 40
0.0060787326295796
 50
248.0581534990276111
 51
277.0819162129719757
  0
LINE
  5
16135
  8
0
 10
3735.9239905021281629
 20
131.8845330741393127
 30
0.0
 11
3735.9022649214280136
 21
131.8937634473392961
 31
0.0
  0
ARC
  5
16136
  8
0
 10
3735.9151771348101647
 20
131.8902557961542925
 30
0.0
 40
0.0133214971320116
 50
332.6672296267850015
 51
2.8538405823291959
  0
LINE
  5
16137
  8
0
 10
3735.9284821105211449
 20
131.8909190511384963
 30
0.0
 11
3735.9284821105279661
 21
131.9096283866286967
 31
0.0
  0
LINE
  5
16138
  8
0
 10
3735.9299061104279644
 20
131.8839743860893066
 30
0.0
 11
3735.9229860636278318
 21
131.8730597334892991
 31
0.0
  0
ARC
  5
16139
  8
0
 10
3735.9178023873701022
 20
131.8763462588250093
 30
0.0
 40
0.0061377315294667
 50
273.5907383043116852
 51
327.6247145926483881
  0
ARC
  5
1613A
  8
0
 10
3735.9213483374201132
 20
131.87667348694049
 30
0.0
 40
0.0071857807296463
 50
182.3493669743104135
 51
243.8978469888859877
  0
LINE
  5
1613B
  8
0
 10
3735.914168596726995
 20
131.876378922389307
 30
0.0
 11
3735.9141685966269506
 21
131.8886842304893037
 31
0.0
  0
LINE
  5
1613C
  8
0
 10
3735.9141685966269506
 20
131.876378924826696
 30
0.0
 11
3735.9203216368268841
 21
131.8860838128892965
 31
0.0
  0
LINE
  5
1613D
  8
0
 10
3735.9181867885281463
 20
131.8702205764892881
 30
0.0
 11
3735.9175473710270126
 21
131.8696556189892988
 31
0.0
  0
LINE
  5
1613E
  8
0
 10
3735.924253172517183
 20
131.8750582825936988
 30
0.0
 11
3735.9437666998278473
 21
131.8668114130892945
 31
0.0
  0
LINE
  5
1613F
  8
0
 10
3735.9437666998278473
 20
131.8668114130892945
 30
0.0
 11
3735.9712114604280941
 21
131.8699193001893093
 31
0.0
  0
LINE
  5
16140
  8
0
 10
3735.9745923744280844
 20
131.8631961870893008
 30
0.0
 11
3735.945190699664181
 21
131.8598667480461017
 31
0.0
  0
ARC
  5
16141
  8
0
 10
3735.9442243066660012
 20
131.8684007900415907
 30
0.0
 40
0.0085885847616197
 50
257.0249482855793985
 51
276.4606395412957909
  0
ARC
  5
16142
  8
0
 10
3735.9415465031029271
 20
131.8660638470583137
 30
0.0
 40
0.0060787326295796
 50
248.0581534990276111
 51
277.0819162129719757
  0
LINE
  5
16143
  8
0
 10
3735.9392750914271346
 20
131.8604254359892991
 30
0.0
 11
3735.9175495107269853
 21
131.869655809189311
 31
0.0
  0
ARC
  5
16144
  8
0
 10
3735.9304617241091364
 20
131.8661481580043073
 30
0.0
 40
0.0133214971320116
 50
332.6672296267850015
 51
2.8538405823291959
  0
LINE
  5
16145
  8
0
 10
3735.9437666998210261
 20
131.8668114129885112
 30
0.0
 11
3735.9437666998278473
 21
131.8855439562323113
 31
0.0
  0
LINE
  5
16146
  8
0
 10
3735.9451906997269361
 20
131.8598667479892868
 30
0.0
 11
3735.9382706529281677
 21
131.8489520953893077
 31
0.0
  0
ARC
  5
16147
  8
0
 10
3735.9330869766699834
 20
131.8522386207249895
 30
0.0
 40
0.0061377315294667
 50
273.5907383043116852
 51
327.6247145926483881
  0
ARC
  5
16148
  8
0
 10
3735.9366329267199944
 20
131.8525658488404986
 30
0.0
 40
0.0071857807296463
 50
182.3493669743104135
 51
243.8978469888859877
  0
LINE
  5
16149
  8
0
 10
3735.9294531860268762
 20
131.8522712842892872
 30
0.0
 11
3735.929453185928196
 21
131.8645765923893123
 31
0.0
  0
LINE
  5
1614A
  8
0
 10
3735.929453185928196
 20
131.8522712867267046
 30
0.0
 11
3735.9356062261281295
 21
131.8619761747893051
 31
0.0
  0
LINE
  5
1614B
  8
0
 10
3735.9334713778280275
 20
131.8461129383892967
 30
0.0
 11
3735.9328319603268937
 21
131.8455479808893074
 31
0.0
  0
LINE
  5
1614C
  8
0
 10
3735.9395377618170642
 20
131.8509506444937074
 30
0.0
 11
3735.9590512891281833
 21
131.8427037749893032
 31
0.0
  0
LINE
  5
1614D
  8
0
 10
3735.9590512891281833
 20
131.8427037749893032
 30
0.0
 11
3735.9864960497279753
 21
131.8458116620892895
 31
0.0
  0
LINE
  5
1614E
  8
0
 10
3735.9898769637279656
 20
131.8390885489893094
 30
0.0
 11
3735.9604752889640622
 21
131.8357591099461104
 31
0.0
  0
ARC
  5
1614F
  8
0
 10
3735.9595088959658824
 20
131.8442931519415993
 30
0.0
 40
0.0085885847616197
 50
257.0249482855793985
 51
276.4606395412957909
  0
ARC
  5
16150
  8
0
 10
3735.9568310924028083
 20
131.8419562089582939
 30
0.0
 40
0.0060787326295796
 50
248.0581534990276111
 51
277.0819162129719757
  0
LINE
  5
16151
  8
0
 10
3735.9545596807270158
 20
131.8363177978893077
 30
0.0
 11
3735.9328341000268665
 21
131.8455481710892911
 31
0.0
  0
ARC
  5
16152
  8
0
 10
3735.9457463134099271
 20
131.8420405199042875
 30
0.0
 40
0.0133214971320116
 50
332.6672296267850015
 51
2.8538405823291959
  0
LINE
  5
16153
  8
0
 10
3735.9590512891199978
 20
131.8427037748884914
 30
0.0
 11
3735.9590512891281833
 21
131.8614131103786917
 31
0.0
  0
LINE
  5
16154
  8
0
 10
3735.9604752889281372
 20
131.8357591098892954
 30
0.0
 11
3735.9535552421280045
 21
131.8248444572892879
 31
0.0
  0
ARC
  5
16155
  8
0
 10
3735.9483715658698202
 20
131.8281309826249981
 30
0.0
 40
0.0061377315294667
 50
273.5907383043116852
 51
327.6247145926483881
  0
ARC
  5
16156
  8
0
 10
3735.9519175159211954
 20
131.8284582107405072
 30
0.0
 40
0.0071857807296463
 50
182.3493669743104135
 51
243.8978469888859877
  0
LINE
  5
16157
  8
0
 10
3735.9447377752271677
 20
131.8281636461892958
 30
0.0
 11
3735.9447377751280328
 21
131.8404689542892925
 31
0.0
  0
LINE
  5
16158
  8
0
 10
3735.9447377751280328
 20
131.8281636486267132
 30
0.0
 11
3735.9508908153279663
 21
131.8378685366893137
 31
0.0
  0
LINE
  5
16159
  8
0
 10
3735.9487559670278642
 20
131.8220053002893053
 30
0.0
 11
3735.9481165495280948
 21
131.8214403427892876
 31
0.0
  0
LINE
  5
1615A
  8
0
 10
3735.9548223510169009
 20
131.8268430063938013
 30
0.0
 11
3735.97433587832802
 21
131.8185961368893118
 31
0.0
  0
LINE
  5
1615B
  8
0
 10
3735.97433587832802
 20
131.8185961368893118
 30
0.0
 11
3736.0017806389278121
 21
131.8217040239892981
 31
0.0
  0
LINE
  5
1615C
  8
0
 10
3736.0051615529268929
 20
131.8149809108892896
 30
0.0
 11
3735.975759878163899
 21
131.8116514718460905
 31
0.0
  0
ARC
  5
1615D
  8
0
 10
3735.9747934851661739
 20
131.8201855138416079
 30
0.0
 40
0.0085885847616197
 50
257.0249482855793985
 51
276.4606395412957909
  0
ARC
  5
1615E
  8
0
 10
3735.9721156816030998
 20
131.8178485708583025
 30
0.0
 40
0.0060787326295796
 50
248.0581534990276111
 51
277.0819162129719757
  0
LINE
  5
1615F
  8
0
 10
3735.9698442699282168
 20
131.8122101597892879
 30
0.0
 11
3735.9481186892280675
 21
131.8214405329892998
 31
0.0
  0
ARC
  5
16160
  8
0
 10
3735.9610309026102186
 20
131.8179328818042961
 30
0.0
 40
0.0133214971320116
 50
332.6672296267850015
 51
2.8538405823291959
  0
LINE
  5
16161
  8
0
 10
3735.9743358783211988
 20
131.8185961367885
 30
0.0
 11
3735.97433587832802
 21
131.8373054722787003
 31
0.0
  0
LINE
  5
16162
  8
0
 10
3735.99104446752699
 20
131.7875438336392904
 30
0.0
 11
3735.9841244207282216
 21
131.7766291810393113
 31
0.0
  0
ARC
  5
16163
  8
0
 10
3735.9789407444700373
 20
131.7799157063749931
 30
0.0
 40
0.0061377315294667
 50
273.5907383043116852
 51
327.6247145926483881
  0
ARC
  5
16164
  8
0
 10
3735.9824866945209578
 20
131.7802429344905022
 30
0.0
 40
0.0071857807296463
 50
182.3493669743104135
 51
243.8978469888859877
  0
LINE
  5
16165
  8
0
 10
3735.9753069538269301
 20
131.7799483699392908
 30
0.0
 11
3735.9753069537277952
 21
131.7922536780392875
 31
0.0
  0
LINE
  5
16166
  8
0
 10
3735.9753069537277952
 20
131.7799483723767082
 30
0.0
 11
3735.9814599939281834
 21
131.7896532604393087
 31
0.0
  0
LINE
  5
16167
  8
0
 10
3735.9793251456280814
 20
131.7737900240393003
 30
0.0
 11
3735.9786857281269477
 21
131.773225066539311
 31
0.0
  0
LINE
  5
16168
  8
0
 10
3735.9853915296171181
 20
131.778627730143711
 30
0.0
 11
3736.0049050569268729
 21
131.7703808606393068
 31
0.0
  0
LINE
  5
16169
  8
0
 10
3736.0049050569268729
 20
131.7703808606393068
 30
0.0
 11
3736.0323498175280292
 21
131.7734887477392931
 31
0.0
  0
LINE
  5
1616A
  8
0
 10
3736.0357307315280195
 20
131.766765634639313
 30
0.0
 11
3736.0063290567641161
 21
131.763436195596114
 31
0.0
  0
ARC
  5
1616B
  8
0
 10
3736.0053626637659363
 20
131.7719702375916029
 30
0.0
 40
0.0085885847616197
 50
257.0249482855793985
 51
276.4606395412957909
  0
ARC
  5
1616C
  8
0
 10
3736.0026848602028622
 20
131.7696332946082975
 30
0.0
 40
0.0060787326295796
 50
248.0581534990276111
 51
277.0819162129719757
  0
LINE
  5
1616D
  8
0
 10
3736.0004134485279792
 20
131.7639948835393113
 30
0.0
 11
3735.9786878678269204
 21
131.7732252567392948
 31
0.0
  0
ARC
  5
1616E
  8
0
 10
3735.991600081209981
 20
131.7697176055542911
 30
0.0
 40
0.0133214971320116
 50
332.6672296267850015
 51
2.8538405823291959
  0
LINE
  5
1616F
  8
0
 10
3736.0049050569200517
 20
131.770380860538495
 30
0.0
 11
3736.0049050569268729
 21
131.7891134036642029
 31
0.0
  0
LINE
  5
16170
  8
0
 10
3736.0063290568277807
 20
131.763436195539299
 30
0.0
 11
3735.9994090100281028
 21
131.7525215429392915
 31
0.0
  0
ARC
  5
16171
  8
0
 10
3735.9942253337699185
 20
131.7558080682750017
 30
0.0
 40
0.0061377315294667
 50
273.5907383043116852
 51
327.6247145926483881
  0
ARC
  5
16172
  8
0
 10
3735.9977712838199295
 20
131.7561352963905108
 30
0.0
 40
0.0071857807296463
 50
182.3493669743104135
 51
243.8978469888859877
  0
LINE
  5
16173
  8
0
 10
3735.9905915431281755
 20
131.7558407318392995
 30
0.0
 11
3735.9905915430281311
 21
131.7681460399392961
 31
0.0
  0
LINE
  5
16174
  8
0
 10
3735.9905915430281311
 20
131.7558407342766884
 30
0.0
 11
3735.9967445832280646
 21
131.7655456223392889
 31
0.0
  0
LINE
  5
16175
  8
0
 10
3735.9946097349270531
 20
131.7496823859393089
 30
0.0
 11
3735.9939703174281931
 21
131.7491174284392912
 31
0.0
  0
LINE
  5
16176
  8
0
 10
3736.0006761189169993
 20
131.7545200920438049
 30
0.0
 11
3736.0201896462281184
 21
131.746273222539287
 31
0.0
  0
LINE
  5
16177
  8
0
 10
3736.0201896462281184
 20
131.746273222539287
 30
0.0
 11
3736.0476344068279104
 21
131.7493811096393017
 31
0.0
  0
LINE
  5
16178
  8
0
 10
3736.0510153208269912
 20
131.7426579965392932
 30
0.0
 11
3736.0216136460639973
 21
131.7393285574960942
 31
0.0
  0
ARC
  5
16179
  8
0
 10
3736.0206472530658175
 20
131.7478625994916115
 30
0.0
 40
0.0085885847616197
 50
257.0249482855793985
 51
276.4606395412957909
  0
ARC
  5
1617A
  8
0
 10
3736.0179694495031981
 20
131.7455256565083062
 30
0.0
 40
0.0060787326295796
 50
248.0581534990276111
 51
277.0819162129719757
  0
LINE
  5
1617B
  8
0
 10
3736.0156980378278604
 20
131.7398872454392915
 30
0.0
 11
3735.9939724571281658
 21
131.7491176186393034
 31
0.0
  0
ARC
  5
1617C
  8
0
 10
3736.0068846705098622
 20
131.7456099674542997
 30
0.0
 40
0.0133214971320116
 50
332.6672296267850015
 51
2.8538405823291959
  0
LINE
  5
1617D
  8
0
 10
3736.0201896462208424
 20
131.7462732224385036
 30
0.0
 11
3736.0201896462281184
 21
131.764982557928704
 31
0.0
  0
LINE
  5
1617E
  8
0
 10
3736.0216136460780945
 20
131.7393285574393076
 30
0.0
 11
3736.0146935992770523
 21
131.7284139048393001
 31
0.0
  0
ARC
  5
1617F
  8
0
 10
3736.0095099230197775
 20
131.7317004301750103
 30
0.0
 40
0.0061377315294667
 50
273.5907383043116852
 51
327.6247145926483881
  0
ARC
  5
16180
  8
0
 10
3736.0130558730711527
 20
131.732027658290491
 30
0.0
 40
0.0071857807296463
 50
182.3493669743104135
 51
243.8978469888859877
  0
LINE
  5
16181
  8
0
 10
3736.0058761323780345
 20
131.7317330937393081
 30
0.0
 11
3736.0058761322779901
 21
131.7440384018393047
 31
0.0
  0
LINE
  5
16182
  8
0
 10
3736.0058761322779901
 20
131.731733096176697
 30
0.0
 11
3736.0120291724779236
 21
131.7414379842392975
 31
0.0
  0
LINE
  5
16183
  8
0
 10
3736.0098943241769121
 20
131.7255747478392891
 30
0.0
 11
3736.0092549066780521
 21
131.7250097903392998
 31
0.0
  0
LINE
  5
16184
  8
0
 10
3736.0159607081668582
 20
131.7304124539436998
 30
0.0
 11
3736.0354742354779773
 21
131.7221655844392956
 31
0.0
  0
LINE
  5
16185
  8
0
 10
3736.0354742354779773
 20
131.7221655844392956
 30
0.0
 11
3736.0629189960782242
 21
131.7252734715393103
 31
0.0
  0
LINE
  5
16186
  8
0
 10
3736.0662999100782145
 20
131.7185503584393018
 30
0.0
 11
3736.0368982353138563
 21
131.7152209193961028
 31
0.0
  0
ARC
  5
16187
  8
0
 10
3736.0359318423161312
 20
131.7237549613917054
 30
0.0
 40
0.0085885847616197
 50
257.0249482855793985
 51
276.4606395412957909
  0
ARC
  5
16188
  8
0
 10
3736.0332540387530571
 20
131.7214180184082863
 30
0.0
 40
0.0060787326295796
 50
248.0581534990276111
 51
277.0819162129719757
  0
LINE
  5
16189
  8
0
 10
3736.0309826270781741
 20
131.7157796073393001
 30
0.0
 11
3736.0092570463780248
 21
131.725009980539312
 31
0.0
  0
ARC
  5
1618A
  8
0
 10
3736.0221692597588117
 20
131.7215023293543084
 30
0.0
 40
0.0133214971320116
 50
332.6672296267850015
 51
2.8538405823291959
  0
LINE
  5
1618B
  8
0
 10
3736.0354742354697919
 20
131.7221655843385122
 30
0.0
 11
3736.0354742354779773
 21
131.7408981275266058
 31
0.0
  0
LINE
  5
1618C
  8
0
 10
3736.0368982353779757
 20
131.715220919289294
 30
0.0
 11
3736.0299781885769335
 21
131.7043062666892865
 31
0.0
  0
ARC
  5
1618D
  8
0
 10
3736.0247945123201134
 20
131.7075927920249967
 30
0.0
 40
0.0061377315294667
 50
273.5907383043116852
 51
327.6247145926483881
  0
ARC
  5
1618E
  8
0
 10
3736.0283404623710339
 20
131.7079200201405058
 30
0.0
 40
0.0071857807296463
 50
182.3493669743104135
 51
243.8978469888859877
  0
LINE
  5
1618F
  8
0
 10
3736.0211607216779157
 20
131.7076254555892945
 30
0.0
 11
3736.0211607215769618
 21
131.7199307636892911
 31
0.0
  0
LINE
  5
16190
  8
0
 10
3736.0211607215769618
 20
131.7076254580267118
 30
0.0
 11
3736.0273137617768953
 21
131.7173303460893123
 31
0.0
  0
LINE
  5
16191
  8
0
 10
3736.0251789134781575
 20
131.7014671096893039
 30
0.0
 11
3736.0245394959779333
 21
131.7009021521892862
 31
0.0
  0
LINE
  5
16192
  8
0
 10
3736.0312452974681037
 20
131.7063048157936862
 30
0.0
 11
3736.0507588247778585
 21
131.6980579462893104
 31
0.0
  0
LINE
  5
16193
  8
0
 10
3736.0507588247778585
 20
131.6980579462893104
 30
0.0
 11
3736.0782035853781053
 21
131.7011658333892967
 31
0.0
  0
LINE
  5
16194
  8
0
 10
3736.0815844993780956
 20
131.6944427202892882
 30
0.0
 11
3736.0521828246141922
 21
131.6911132812460892
 31
0.0
  0
ARC
  5
16195
  8
0
 10
3736.0512164316151029
 20
131.6996473232416065
 30
0.0
 40
0.0085885847616197
 50
257.0249482855793985
 51
276.4606395412957909
  0
ARC
  5
16196
  8
0
 10
3736.0485386280529383
 20
131.6973103802583012
 30
0.0
 40
0.0060787326295796
 50
248.0581534990276111
 51
277.0819162129719757
  0
LINE
  5
16197
  8
0
 10
3736.0462672163780553
 20
131.6916719691892865
 30
0.0
 11
3736.024541635677906
 21
131.7009023423892984
 31
0.0
  0
ARC
  5
16198
  8
0
 10
3736.0374538490600571
 20
131.6973946912042948
 30
0.0
 40
0.0133214971320116
 50
332.6672296267850015
 51
2.8538405823291959
  0
LINE
  5
16199
  8
0
 10
3736.0507588247701278
 20
131.6980579461884986
 30
0.0
 11
3736.0507588247778585
 21
131.7167904894322987
 31
0.0
  0
LINE
  5
1619A
  8
0
 10
3736.0939410990781653
 20
131.70876129713929
 30
0.0
 11
3736.0870210522780326
 21
131.697846644539311
 31
0.0
  0
ARC
  5
1619B
  8
0
 10
3736.0818373760198483
 20
131.7011331698749927
 30
0.0
 40
0.0061377315294667
 50
273.5907383043116852
 51
327.6247145926483881
  0
ARC
  5
1619C
  8
0
 10
3736.0853833260698593
 20
131.7014603979905019
 30
0.0
 40
0.0071857807296463
 50
182.3493669743104135
 51
243.8978469888859877
  0
LINE
  5
1619D
  8
0
 10
3736.0782035853781053
 20
131.7011658334392905
 30
0.0
 11
3736.0782035852780609
 21
131.7134711415392871
 31
0.0
  0
LINE
  5
1619E
  8
0
 10
3736.0782035852780609
 20
131.7011658358767079
 30
0.0
 11
3736.0843566254779944
 21
131.7108707239393084
 31
0.0
  0
LINE
  5
1619F
  8
0
 10
3736.0822217771778924
 20
131.6950074875393
 30
0.0
 11
3736.0815823596781229
 21
131.6944425300393107
 31
0.0
  0
LINE
  5
161A0
  8
0
 10
3736.0882881611669291
 20
131.6998451936437107
 30
0.0
 11
3736.1078016884780482
 21
131.6915983241393064
 31
0.0
  0
LINE
  5
161A1
  8
0
 10
3736.1078016884780482
 20
131.6915983241393064
 30
0.0
 11
3736.1352464490769307
 21
131.6947062112392928
 31
0.0
  0
LINE
  5
161A2
  8
0
 10
3736.1386273630778305
 20
131.6879830981393127
 30
0.0
 11
3736.1092256883130176
 21
131.6846536590961136
 31
0.0
  0
ARC
  5
161A3
  8
0
 10
3736.108259295316202
 20
131.6931877010916025
 30
0.0
 40
0.0085885847616197
 50
257.0249482855793985
 51
276.4606395412957909
  0
ARC
  5
161A4
  8
0
 10
3736.1055814917531279
 20
131.6908507581082972
 30
0.0
 40
0.0060787326295796
 50
248.0581534990276111
 51
277.0819162129719757
  0
LINE
  5
161A5
  8
0
 10
3736.1033100800777902
 20
131.685212347039311
 30
0.0
 11
3736.0815844993780956
 21
131.6944427202392944
 31
0.0
  0
ARC
  5
161A6
  8
0
 10
3736.0944967127588825
 20
131.6909350690542908
 30
0.0
 40
0.0133214971320116
 50
332.6672296267850015
 51
2.8538405823291959
  0
LINE
  5
161A7
  8
0
 10
3736.107801688471227
 20
131.6915983240384946
 30
0.0
 11
3736.1078016884780482
 21
131.710330867165311
 31
0.0
  0
LINE
  5
161A8
  8
0
 10
3735.8540989601401634
 20
131.9047070809496915
 30
0.0
 11
3735.8714392467782091
 21
131.8973786733893121
 31
0.0
  0
LINE
  5
161A9
  8
0
 10
3735.8714392467782091
 20
131.8973786733893121
 30
0.0
 11
3735.8988840073780011
 21
131.9004865604892984
 31
0.0
  0
LINE
  5
161AA
  8
0
 10
3735.9022649213779914
 20
131.8937634473892899
 30
0.0
 11
3735.872863246614088
 21
131.8904340083460909
 31
0.0
  0
ARC
  5
161AB
  8
0
 10
3735.8718968536159082
 20
131.8989680503416082
 30
0.0
 40
0.0085885847616197
 50
257.0249482855793985
 51
276.4606395412957909
  0
ARC
  5
161AC
  8
0
 10
3735.8692190500528341
 20
131.8966311073583029
 30
0.0
 40
0.0060787326295796
 50
248.0581534990276111
 51
277.0819162129719757
  0
LINE
  5
161AD
  8
0
 10
3735.8669476383779511
 20
131.8909926962892882
 30
0.0
 11
3735.8452220576768923
 21
131.9002230694893001
 31
0.0
  0
ARC
  5
161AE
  8
0
 10
3735.8581342710590434
 20
131.8967154183042965
 30
0.0
 40
0.0133214971320116
 50
332.6672296267850015
 51
2.8538405823291959
  0
LINE
  5
161AF
  8
0
 10
3735.8714392467700236
 20
131.8973786732885003
 30
0.0
 11
3735.8714392467750258
 21
131.9081331519907963
 31
0.0
  0
LINE
  5
161B0
  8
0
 10
3735.8672103087669711
 20
131.8815179047938102
 30
0.0
 11
3735.8867238360780902
 21
131.8732710352892923
 31
0.0
  0
LINE
  5
161B1
  8
0
 10
3735.8867238360780902
 20
131.8732710352892923
 30
0.0
 11
3735.9141685966778823
 21
131.876378922389307
 31
0.0
  0
LINE
  5
161B2
  8
0
 10
3735.9175495106778726
 20
131.8696558092892985
 30
0.0
 11
3735.8881478359139692
 21
131.8663263702460995
 31
0.0
  0
ARC
  5
161B3
  8
0
 10
3735.8871814429157894
 20
131.8748604122417021
 30
0.0
 40
0.0085885847616197
 50
257.0249482855793985
 51
276.4606395412957909
  0
ARC
  5
161B4
  8
0
 10
3735.8734188603589246
 20
131.8726077802043051
 30
0.0
 40
0.0133214971320116
 50
332.6672296267850015
 51
2.8538405823291959
  0
LINE
  5
161B5
  8
0
 10
3735.8867238360699048
 20
131.8732710351885089
 30
0.0
 11
3735.8867238360780902
 21
131.8920035783822868
 31
0.0
  0
LINE
  5
161B6
  8
0
 10
3735.8824948980168301
 20
131.8574102666437113
 30
0.0
 11
3735.9020084253270397
 21
131.8491633971393071
 31
0.0
  0
LINE
  5
161B7
  8
0
 10
3735.9020084253270397
 20
131.8491633971393071
 30
0.0
 11
3735.929453185928196
 21
131.8522712842392934
 31
0.0
  0
LINE
  5
161B8
  8
0
 10
3735.9328340999281863
 20
131.8455481711393134
 30
0.0
 11
3735.9034324251629187
 21
131.8422187320960859
 31
0.0
  0
ARC
  5
161B9
  8
0
 10
3735.9024660321661031
 20
131.8507527740916032
 30
0.0
 40
0.0085885847616197
 50
257.0249482855793985
 51
276.4606395412957909
  0
ARC
  5
161BA
  8
0
 10
3735.8997882286039385
 20
131.8484158311082979
 30
0.0
 40
0.0060787326295796
 50
248.0581534990276111
 51
277.0819162129719757
  0
LINE
  5
161BB
  8
0
 10
3735.897516816928146
 20
131.8427774200393117
 30
0.0
 11
3735.8757912362279967
 21
131.8520077932392951
 31
0.0
  0
ARC
  5
161BC
  8
0
 10
3735.8887034496087836
 20
131.8485001420542915
 30
0.0
 40
0.0133214971320116
 50
332.6672296267850015
 51
2.8538405823291959
  0
LINE
  5
161BD
  8
0
 10
3735.9020084253202185
 20
131.8491633970384953
 30
0.0
 11
3735.9020084253270397
 21
131.8678959402766964
 31
0.0
  0
LINE
  5
161BE
  8
0
 10
3735.8977794873171661
 20
131.8333026285438052
 30
0.0
 11
3735.9172930146269209
 21
131.8250557590392873
 31
0.0
  0
LINE
  5
161BF
  8
0
 10
3735.9172930146269209
 20
131.8250557590392873
 30
0.0
 11
3735.9447377752271677
 21
131.828163646139302
 31
0.0
  0
LINE
  5
161C0
  8
0
 10
3735.9481186892280675
 20
131.8214405330392935
 30
0.0
 11
3735.9187170144641641
 21
131.8181110939960945
 31
0.0
  0
ARC
  5
161C1
  8
0
 10
3735.9177506214659843
 20
131.8266451359916118
 30
0.0
 40
0.0085885847616197
 50
257.0249482855793985
 51
276.4606395412957909
  0
ARC
  5
161C2
  8
0
 10
3735.9150728179029102
 20
131.8243081930083065
 30
0.0
 40
0.0060787326295796
 50
248.0581534990276111
 51
277.0819162129719757
  0
LINE
  5
161C3
  8
0
 10
3735.9128014062280272
 20
131.8186697819392919
 30
0.0
 11
3735.8910758255278779
 21
131.8279001551393037
 31
0.0
  0
ARC
  5
161C4
  8
0
 10
3735.903988038910029
 20
131.8243925039543001
 30
0.0
 40
0.0133214971320116
 50
332.6672296267850015
 51
2.8538405823291959
  0
LINE
  5
161C5
  8
0
 10
3735.9172930146200997
 20
131.8250557589385039
 30
0.0
 11
3735.9172930146269209
 21
131.8437650944287043
 31
0.0
  0
LINE
  5
161C6
  8
0
 10
3735.913064076567025
 20
131.8091949904437001
 30
0.0
 11
3735.9325776038781441
 21
131.8009481209392959
 31
0.0
  0
LINE
  5
161C7
  8
0
 10
3735.9325776038781441
 20
131.8009481209392959
 30
0.0
 11
3735.9600223644779362
 21
131.8040560080393107
 31
0.0
  0
LINE
  5
161C8
  8
0
 10
3735.9634032784779265
 20
131.7973328949393022
 30
0.0
 11
3735.9340016037140231
 21
131.7940034558961031
 31
0.0
  0
ARC
  5
161C9
  8
0
 10
3735.9330352107158433
 20
131.802537497891592
 30
0.0
 40
0.0085885847616197
 50
257.0249482855793985
 51
276.4606395412957909
  0
ARC
  5
161CA
  8
0
 10
3735.9303574071518597
 20
131.8002005549082867
 30
0.0
 40
0.0060787326295796
 50
248.0581534990276111
 51
277.0819162129719757
  0
LINE
  5
161CB
  8
0
 10
3735.9280859954769767
 20
131.7945621438393005
 30
0.0
 11
3735.9063604147781916
 21
131.8037925170393123
 31
0.0
  0
ARC
  5
161CC
  8
0
 10
3735.919272628159888
 20
131.8002848658543087
 30
0.0
 40
0.0133214971320116
 50
332.6672296267850015
 51
2.8538405823291959
  0
LINE
  5
161CD
  8
0
 10
3735.9325776038699587
 20
131.8009481208385125
 30
0.0
 11
3735.9325776038781441
 21
131.8196806640266061
 31
0.0
  0
LINE
  5
161CE
  8
0
 10
3735.928348665816884
 20
131.7850873523437087
 30
0.0
 11
3735.9478621931270936
 21
131.7768404828393045
 31
0.0
  0
LINE
  5
161CF
  8
0
 10
3735.9478621931270936
 20
131.7768404828393045
 30
0.0
 11
3735.9753069537277952
 21
131.7799483699392908
 31
0.0
  0
LINE
  5
161D0
  8
0
 10
3735.9786878677277855
 20
131.7732252568393108
 30
0.0
 11
3735.9492861929638821
 21
131.7698958177961117
 31
0.0
  0
ARC
  5
161D1
  8
0
 10
3735.948319799966157
 20
131.7784298597916006
 30
0.0
 40
0.0085885847616197
 50
257.0249482855793985
 51
276.4606395412957909
  0
ARC
  5
161D2
  8
0
 10
3735.9456419964039924
 20
131.7760929168082953
 30
0.0
 40
0.0060787326295796
 50
248.0581534990276111
 51
277.0819162129719757
  0
LINE
  5
161D3
  8
0
 10
3735.9433705847281999
 20
131.7704545057393091
 30
0.0
 11
3735.9216450040280506
 21
131.7796848789392925
 31
0.0
  0
ARC
  5
161D4
  8
0
 10
3735.9345572174088375
 20
131.7761772277542889
 30
0.0
 40
0.0133214971320116
 50
332.6672296267850015
 51
2.8538405823291959
  0
LINE
  5
161D5
  8
0
 10
3735.9478621931198177
 20
131.7768404827384927
 30
0.0
 11
3735.9478621931270936
 21
131.7955730259265863
 31
0.0
  0
LINE
  5
161D6
  8
0
 10
3735.94363325511722
 20
131.7609797141938088
 30
0.0
 11
3735.9631467824269748
 21
131.7527328446892909
 31
0.0
  0
LINE
  5
161D7
  8
0
 10
3735.9631467824269748
 20
131.7527328446892909
 30
0.0
 11
3735.9905915430281311
 21
131.7558407317893057
 31
0.0
  0
LINE
  5
161D8
  8
0
 10
3735.9939724570272119
 20
131.7491176186892972
 30
0.0
 11
3735.964570782264218
 21
131.7457881796460981
 31
0.0
  0
ARC
  5
161D9
  8
0
 10
3735.9636043892660382
 20
131.754322221641587
 30
0.0
 40
0.0085885847616197
 50
257.0249482855793985
 51
276.4606395412957909
  0
ARC
  5
161DA
  8
0
 10
3735.9609265857029641
 20
131.7519852786583101
 30
0.0
 40
0.0060787326295796
 50
248.0581534990276111
 51
277.0819162129719757
  0
LINE
  5
161DB
  8
0
 10
3735.9586551740280811
 20
131.7463468675892955
 30
0.0
 11
3735.9369295933279318
 21
131.7555772407893073
 31
0.0
  0
ARC
  5
161DC
  8
0
 10
3735.9498418067100829
 20
131.7520695896043037
 30
0.0
 40
0.0133214971320116
 50
332.6672296267850015
 51
2.8538405823291959
  0
LINE
  5
161DD
  8
0
 10
3735.9631467824201536
 20
131.7527328445885075
 30
0.0
 11
3735.9631467824269748
 21
131.7714653878323077
 31
0.0
  0
LINE
  5
161DE
  8
0
 10
3735.9589178444171012
 20
131.7368720760937038
 30
0.0
 11
3735.9784313717282203
 21
131.7286252065892995
 31
0.0
  0
LINE
  5
161DF
  8
0
 10
3735.9784313717282203
 20
131.7286252065892995
 30
0.0
 11
3736.0058761323280123
 21
131.7317330936892859
 31
0.0
  0
LINE
  5
161E0
  8
0
 10
3736.0092570463270931
 20
131.7250099805893058
 30
0.0
 11
3735.9798553715640992
 21
131.7216805415461067
 31
0.0
  0
ARC
  5
161E1
  8
0
 10
3735.9788889785668289
 20
131.7302145835415956
 30
0.0
 40
0.0085885847616197
 50
257.0249482855793985
 51
276.4606395412957909
  0
ARC
  5
161E2
  8
0
 10
3735.9762111750028453
 20
131.7278776405582903
 30
0.0
 40
0.0060787326295796
 50
248.0581534990276111
 51
277.0819162129719757
  0
LINE
  5
161E3
  8
0
 10
3735.9739397633279623
 20
131.7222392294893041
 30
0.0
 11
3735.952214182627813
 21
131.7314696026892875
 31
0.0
  0
ARC
  5
161E4
  8
0
 10
3735.9651263960099641
 20
131.7279619515043123
 30
0.0
 40
0.0133214971320116
 50
332.6672296267850015
 51
2.8538405823291959
  0
LINE
  5
161E5
  8
0
 10
3735.9784313717200348
 20
131.7286252064884877
 30
0.0
 11
3735.9784313717282203
 21
131.7473577496822941
 31
0.0
  0
LINE
  5
161E6
  8
0
 10
3735.9742024337169823
 20
131.7127644379436902
 30
0.0
 11
3735.9937159610281014
 21
131.7045175684392859
 31
0.0
  0
LINE
  5
161E7
  8
0
 10
3735.9937159610281014
 20
131.7045175684392859
 30
0.0
 11
3736.0211607216278935
 21
131.7076254555393007
 31
0.0
  0
LINE
  5
161E8
  8
0
 10
3736.0245416356278838
 20
131.7009023424392922
 30
0.0
 11
3735.9951399608630709
 21
131.6975729033960931
 31
0.0
  0
ARC
  5
161E9
  8
0
 10
3735.9941735678658006
 20
131.7061069453916105
 30
0.0
 40
0.0085885847616197
 50
257.0249482855793985
 51
276.4606395412957909
  0
ARC
  5
161EA
  8
0
 10
3735.9914957643031812
 20
131.7037700024083051
 30
0.0
 40
0.0060787326295796
 50
248.0581534990276111
 51
277.0819162129719757
  0
LINE
  5
161EB
  8
0
 10
3735.9892243526278435
 20
131.6981315913392905
 30
0.0
 11
3735.9674987719281489
 21
131.7073619645393023
 31
0.0
  0
ARC
  5
161EC
  8
0
 10
3735.9804109853089358
 20
131.7038543133542987
 30
0.0
 40
0.0133214971320116
 50
332.6672296267850015
 51
2.8538405823291959
  0
LINE
  5
161ED
  8
0
 10
3735.9937159610208255
 20
131.7045175683383889
 30
0.0
 11
3735.9937159610281014
 21
131.7232501115823027
 31
0.0
  0
LINE
  5
161EE
  8
0
 10
3735.9894870229668413
 20
131.6886567998436988
 30
0.0
 11
3736.0090005502779604
 21
131.6804099303392945
 31
0.0
  0
LINE
  5
161EF
  8
0
 10
3736.0090005502779604
 20
131.6804099303392945
 30
0.0
 11
3736.036445310876843
 21
131.6835178174393093
 31
0.0
  0
LINE
  5
161F0
  8
0
 10
3736.0398262248781975
 20
131.6767947043393008
 30
0.0
 11
3736.0104245501138394
 21
131.6734652652961017
 31
0.0
  0
ARC
  5
161F1
  8
0
 10
3736.0094581571152048
 20
131.6819993072915906
 30
0.0
 40
0.0085885847616197
 50
257.0249482855793985
 51
276.4606395412957909
  0
ARC
  5
161F2
  8
0
 10
3736.0067803535530402
 20
131.6796623643083137
 30
0.0
 40
0.0060787326295796
 50
248.0581534990276111
 51
277.0819162129719757
  0
LINE
  5
161F3
  8
0
 10
3736.0045089418781572
 20
131.6740239532392991
 30
0.0
 11
3735.9827833611780079
 21
131.6832543264393109
 31
0.0
  0
ARC
  5
161F4
  8
0
 10
3735.995695574560159
 20
131.6797466752543073
 30
0.0
 40
0.0133214971320116
 50
332.6672296267850015
 51
2.8538405823291959
  0
LINE
  5
161F5
  8
0
 10
3736.0090005502711392
 20
131.6804099302385112
 30
0.0
 11
3736.0090005502779604
 21
131.6991424734266047
 31
0.0
  0
ARC
  5
161F6
  8
0
 10
3735.997006487786166
 20
131.1901347813968073
 30
0.0
 40
0.7289635754909246
 50
89.694200061108603
 51
93.5976431554806396
  0
ARC
  5
161F7
  8
0
 10
3735.9965411675730138
 20
131.1980522852975071
 30
0.0
 40
0.7210324766662534
 50
93.6002190393888753
 51
99.3663766878740802
  0
ARC
  5
161F8
  8
0
 10
3735.9652715593419998
 20
131.3876270311766916
 30
0.0
 40
0.5288961379010471
 50
99.3663766878740802
 51
106.2667313862925056
  0
ARC
  5
161F9
  8
0
 10
3735.9311100991048988
 20
131.5047024218648062
 30
0.0
 40
0.4069385531828719
 50
106.2667313862925056
 51
114.4676898968583032
  0
ARC
  5
161FA
  8
0
 10
3735.8542303345129767
 20
131.6736520815825884
 30
0.0
 40
0.2213193577246777
 50
114.4676898968583032
 51
130.040879070271302
  0
ARC
  5
161FB
  8
0
 10
3735.7744544628790209
 20
131.7685876228129871
 30
0.0
 40
0.0973155405109017
 50
130.040879070271302
 51
155.3846529996231141
  0
ARC
  5
161FC
  8
0
 10
3735.7343631681028455
 20
131.7869558419124871
 30
0.0
 40
0.0532167492606349
 50
155.3846529996224035
 51
175.1358908498158087
  0
ARC
  5
161FD
  8
0
 10
3735.7381383497358911
 20
131.7855618166688032
 30
0.0
 40
0.057106542718832
 50
174.0633895059997087
 51
193.9790490346171055
  0
ARC
  5
161FE
  8
0
 10
3735.7519951929662057
 20
131.7896132707836045
 30
0.0
 40
0.0715340861264302
 50
194.446901352800694
 51
214.7772778951749899
  0
ARC
  5
161FF
  8
0
 10
3735.7833419885969306
 20
131.8110138420508122
 30
0.0
 40
0.1094886179690675
 50
214.6192778401490955
 51
227.4944327471710892
  0
ARC
  5
16200
  8
0
 10
3735.8353629082957923
 20
131.8699694559192039
 30
0.0
 40
0.1881057870355638
 50
227.9463409302454124
 51
242.0013524560380915
  0
ARC
  5
16201
  8
0
 10
3735.9268839481269424
 20
132.0491057815202112
 30
0.0
 40
0.3892542510610661
 50
242.4850928587783869
 51
257.3202641359405902
  0
ARC
  5
16202
  8
0
 10
3735.9942544716482189
 20
132.3344405289315091
 30
0.0
 40
0.6824252547507799
 50
257.0603094719720048
 51
270.5577180447293131
  0
ARC
  5
16203
  8
0
 10
3735.844966999936787
 20
131.9080165573404031
 30
0.0
 40
0.0072835886370667
 50
277.0371667202527988
 51
326.9797490501067045
  0
LINE
  5
16204
  8
0
 10
3735.845859335428031
 20
131.9007878367893056
 30
0.0
 11
3735.8452220576768923
 21
131.9002230694893001
 31
0.0
  0
LINE
  5
16205
  8
0
 10
3735.8452220576768923
 20
131.9002230694893001
 30
0.0
 11
3735.8272076487201048
 21
131.8981850408783885
 31
0.0
  0
LINE
  5
16206
  8
0
 10
3735.8296806174739686
 20
131.8984648158676123
 30
0.0
 11
3735.829680972227834
 21
131.8797306573893025
 31
0.0
  0
LINE
  5
16207
  8
0
 10
3735.829680972227834
 20
131.8797306573893025
 30
0.0
 11
3735.8571257329281252
 21
131.8828385445893048
 31
0.0
  0
LINE
  5
16208
  8
0
 10
3735.8571257329281252
 20
131.8828385445893048
 30
0.0
 11
3735.8632822345989553
 21
131.8925499869907867
 31
0.0
  0
LINE
  5
16209
  8
0
 10
3735.8728632467277748
 20
131.8904340083892919
 30
0.0
 11
3735.8659431999280969
 21
131.8795193556892968
 31
0.0
  0
ARC
  5
1620A
  8
0
 10
3735.8607595237090209
 20
131.882805880970011
 30
0.0
 40
0.0061377314669973
 50
273.5907370600306763
 51
327.6247148300498111
  0
ARC
  5
1620B
  8
0
 10
3735.8643519281408771
 20
131.8831634197426865
 30
0.0
 40
0.0072334943923755
 50
182.5741692297810914
 51
243.6730447542304887
  0
LINE
  5
1620C
  8
0
 10
3735.8571257329281252
 20
131.8828385445893048
 30
0.0
 11
3735.8571189370059074
 21
131.8951685378000036
 31
0.0
  0
LINE
  5
1620D
  8
0
 10
3735.8852530756680608
 20
131.8664911119145984
 30
0.0
 11
3735.861143924730186
 21
131.8766801986884047
 31
0.0
  0
LINE
  5
1620E
  8
0
 10
3735.8611439247388262
 20
131.8766801986905932
 30
0.0
 11
3735.8282102120278978
 21
131.8729507340893008
 31
0.0
  0
LINE
  5
1620F
  8
0
 10
3735.8282102120278978
 20
131.8729507340893008
 30
0.0
 11
3735.8266740503331675
 21
131.8729554711536025
 31
0.0
  0
ARC
  5
16210
  8
0
 10
3735.8273331845489338
 20
131.8784961834155922
 30
0.0
 40
0.0055797804871339
 50
247.4051487812043888
 51
263.2158624934810973
  0
LINE
  5
16211
  8
0
 10
3735.8251893639280752
 20
131.8733446803892946
 30
0.0
 11
3735.8033732761728061
 21
131.8825648565446045
 31
0.0
  0
LINE
  5
16212
  8
0
 10
3735.8034616434279087
 20
131.8825748633892943
 30
0.0
 11
3735.7729142695279734
 21
131.8791156314892987
 31
0.0
  0
LINE
  5
16213
  8
0
 10
3735.7729142695279734
 20
131.8791156314892987
 30
0.0
 11
3735.7718930735040885
 21
131.8792006526018952
 31
0.0
  0
LINE
  5
16214
  8
0
 10
3735.8034616434279087
 20
131.8825748633892943
 30
0.0
 11
3735.8041010609281329
 21
131.883139820789296
 31
0.0
  0
ARC
  5
16215
  8
0
 10
3735.8033524057750583
 20
131.8898811647871128
 30
0.0
 40
0.0067828160652466
 50
276.336630137223608
 51
324.879017016070577
  0
LINE
  5
16216
  8
0
 10
3735.8089003361269533
 20
131.8859789778892946
 30
0.0
 11
3735.8143183485581176
 21
131.8945211913857065
 31
0.0
  0
LINE
  5
16217
  8
0
 10
3735.8101678372308925
 20
131.8879773610925099
 30
0.0
 11
3735.829680972227834
 21
131.8797306573893025
 31
0.0
  0
ARC
  5
16218
  8
0
 10
3735.8142634932441979
 20
131.8795256649100054
 30
0.0
 40
0.0154188417242909
 50
334.7593056726357759
 51
0.7617660352837627
  0
LINE
  5
16219
  8
0
 10
3735.8282102120069794
 20
131.8729507340555926
 30
0.0
 11
3735.8193856509701618
 21
131.8590321823753868
 31
0.0
  0
LINE
  5
1621A
  8
0
 10
3735.8193856509701618
 20
131.8590321823753868
 30
0.0
 11
3735.843494801327779
 21
131.8488430959893094
 31
0.0
  0
ARC
  5
1621B
  8
0
 10
3735.845255961346993
 20
131.8542743110789104
 30
0.0
 40
0.0057096218759032
 50
252.0338684597259089
 51
281.4517146385966839
  0
LINE
  5
1621C
  8
0
 10
3735.846389561342221
 20
131.8486783542331864
 30
0.0
 11
3735.8757912361888884
 21
131.8520077932554955
 31
0.0
  0
LINE
  5
1621D
  8
0
 10
3735.8757912362279967
 20
131.8520077932392951
 30
0.0
 11
3735.8764285140277934
 21
131.8525725605892944
 31
0.0
  0
LINE
  5
1621E
  8
0
 10
3735.8764285140277934
 20
131.8525725605892944
 30
0.0
 11
3735.8852530757781096
 21
131.8664911118893031
 31
0.0
  0
LINE
  5
1621F
  8
0
 10
3735.8881478359721768
 20
131.8663263702582924
 30
0.0
 11
3735.8812277891279336
 21
131.8554117175893055
 31
0.0
  0
ARC
  5
16220
  8
0
 10
3735.8760441128702041
 20
131.8586982429249872
 30
0.0
 40
0.0061377315294627
 50
273.590738304285594
 51
327.6247145926457165
  0
LINE
  5
16221
  8
0
 10
3735.8764285140277934
 20
131.8525725605892944
 30
0.0
 11
3735.8434948006238301
 21
131.8488430959095865
 31
0.0
  0
ARC
  5
16222
  8
0
 10
3735.842759269187809
 20
131.8549789314749887
 30
0.0
 40
0.0061797641247023
 50
248.2863443886737969
 51
276.8357025224970016
  0
LINE
  5
16223
  8
0
 10
3735.8404729530279837
 20
131.8492376560892865
 30
0.0
 11
3735.8186579622051795
 21
131.8584571775060112
 31
0.0
  0
LINE
  5
16224
  8
0
 10
3735.7971310312550486
 20
131.8889531153510859
 30
0.0
 11
3735.8000828691278912
 21
131.8892981667893025
 31
0.0
  0
LINE
  5
16225
  8
0
 10
3735.8000828691278912
 20
131.8892981667893025
 30
0.0
 11
3735.8006253028920582
 21
131.8901537210244044
 31
0.0
  0
LINE
  5
16226
  8
0
 10
3735.8000828691278912
 20
131.8899694900892996
 30
0.0
 11
3735.8000828691970128
 21
131.889298166797289
 31
0.0
  0
ARC
  5
16227
  8
0
 10
3735.8068112327741801
 20
131.889298167483588
 30
0.0
 40
0.0067283635773237
 50
180.0000058442452939
 51
246.2464351995521099
  0
LINE
  5
16228
  8
0
 10
3735.7740621083958104
 20
131.8792456145392862
 30
0.0
 11
3735.7671420616279647
 21
131.8683309618893134
 31
0.0
  0
ARC
  5
16229
  8
0
 10
3735.7619583853979748
 20
131.8716174871767919
 30
0.0
 40
0.0061377314795918
 50
273.5907380669004851
 51
327.6247148300166145
  0
ARC
  5
1622A
  8
0
 10
3735.7655528825362126
 20
131.8719763914342877
 30
0.0
 40
0.0072356464148183
 50
182.5842267717231096
 51
243.6629884965749966
  0
LINE
  5
1622B
  8
0
 10
3735.7583245946270836
 20
131.8716501507892929
 30
0.0
 11
3735.7583298597742214
 21
131.873114752397214
 31
0.0
  0
LINE
  5
1622C
  8
0
 10
3735.7583245947280375
 20
131.8716501786061883
 30
0.0
 11
3735.7596831786058829
 21
131.8737597861162953
 31
0.0
  0
LINE
  5
1622D
  8
0
 10
3735.758325732315825
 20
131.871651945052605
 30
0.0
 11
3735.7544647863091996
 21
131.8712099047513959
 31
0.0
  0
LINE
  5
1622E
  8
0
 10
3735.7384947595542144
 20
131.8622986685984131
 30
0.0
 11
3735.7617033689280106
 21
131.8649268474893006
 31
0.0
  0
LINE
  5
1622F
  8
0
 10
3735.7617033689280106
 20
131.8649268474893006
 30
0.0
 11
3735.7623427861581149
 21
131.865491805072395
 31
0.0
  0
LINE
  5
16230
  8
0
 10
3735.7164928636489094
 20
131.8468878955002026
 30
0.0
 11
3735.7199472342281297
 21
131.8472790216893031
 31
0.0
  0
LINE
  5
16231
  8
0
 10
3735.7199472342281297
 20
131.8472790216893031
 30
0.0
 11
3735.7205845120279264
 21
131.8478437888892927
 31
0.0
  0
ARC
  5
16232
  8
0
 10
3735.7192449174049216
 20
131.8557460264918859
 30
0.0
 40
0.0080149780338796
 50
279.6213651919514973
 51
337.5206414040084724
  0
LINE
  5
16233
  8
0
 10
3735.7266508960738065
 20
131.8526814950699872
 30
0.0
 11
3735.7287160152400247
 21
131.8559387068771116
 31
0.0
  0
ARC
  5
16234
  8
0
 10
3735.7226889961480083
 20
131.8527526301755017
 30
0.0
 40
0.005340934018287
 50
226.6441302275698888
 51
246.7945566077463013
  0
LINE
  5
16235
  8
0
 10
3735.7058301487140852
 20
131.8198419445961065
 30
0.0
 11
3735.6989101020280941
 21
131.8089272918892902
 31
0.0
  0
ARC
  5
16236
  8
0
 10
3735.6937264258899631
 20
131.8122138170623998
 30
0.0
 40
0.0061377313407848
 50
273.5907367821023968
 51
327.624715272998003
  0
ARC
  5
16237
  8
0
 10
3735.6973209228299311
 20
131.8125727213530922
 30
0.0
 40
0.0072356463051039
 50
182.5842261673082021
 51
243.6629885253281032
  0
LINE
  5
16238
  8
0
 10
3735.6900926350281225
 20
131.8122464807892982
 30
0.0
 11
3735.6900926350281225
 21
131.817099440203009
 31
0.0
  0
LINE
  5
16239
  8
0
 10
3735.6900926350281225
 20
131.8122464807892982
 30
0.0
 11
3735.6962490410801365
 21
131.8219579638657137
 31
0.0
  0
LINE
  5
1623A
  8
0
 10
3735.6900926350281225
 20
131.8122464807892982
 30
0.0
 11
3735.6873295356281233
 21
131.8119335830893135
 31
0.0
  0
LINE
  5
1623B
  8
0
 10
3735.6841166804420027
 20
131.8044861835967083
 30
0.0
 11
3735.6934735490658568
 21
131.8055233676230955
 31
0.0
  0
LINE
  5
1623C
  8
0
 10
3735.6934735490658568
 20
131.8055233676230955
 30
0.0
 11
3735.694110826827
 21
131.8060881348893076
 31
0.0
  0
LINE
  5
1623D
  8
0
 10
3735.681032131190932
 20
131.7853693982744119
 30
0.0
 11
3735.7053772243280036
 21
131.7881388426893068
 31
0.0
  0
LINE
  5
1623E
  8
0
 10
3735.7053772243280036
 20
131.7881388426893068
 30
0.0
 11
3735.7115363826769681
 21
131.7978491563980015
 31
0.0
  0
LINE
  5
1623F
  8
0
 10
3735.7211147379639442
 20
131.7957343064960867
 30
0.0
 11
3735.7141946913279753
 21
131.7848196537892989
 31
0.0
  0
ARC
  5
16240
  8
0
 10
3735.7090110149829343
 20
131.788106179070212
 30
0.0
 40
0.0061377315738587
 50
273.5907381591081844
 51
327.624715460198388
  0
ARC
  5
16241
  8
0
 10
3735.7126055122062098
 20
131.7884650831574902
 30
0.0
 40
0.0072356463771745
 50
182.5842253837458884
 51
243.6629877278884919
  0
LINE
  5
16242
  8
0
 10
3735.7053772243280036
 20
131.7881388426893068
 30
0.0
 11
3735.705377869115182
 21
131.8004656746545038
 31
0.0
  0
LINE
  5
16243
  8
0
 10
3735.7093954163879062
 20
131.7819804967055859
 30
0.0
 11
3735.7087581383279939
 21
131.7814157294893107
 31
0.0
  0
LINE
  5
16244
  8
0
 10
3735.7087581383279939
 20
131.7814157294893107
 30
0.0
 11
3735.6814973401428688
 21
131.7783076533314102
 31
0.0
  0
ARC
  5
16245
  8
0
 10
3735.7511279148980066
 20
131.8001092931365008
 30
0.0
 40
0.0729667324021053
 50
197.3851703789316048
 51
216.7924283711919031
  0
ARC
  5
16246
  8
0
 10
3735.8038440861560048
 20
131.8457812599662873
 30
0.0
 40
0.1426238881094135
 50
218.8022516638793036
 51
234.6499469181952122
  0
ARC
  5
16247
  8
0
 10
3735.8529191066818385
 20
131.913496620534886
 30
0.0
 40
0.2262496809621958
 50
234.4349245917827034
 51
243.1915688156715873
  0
ARC
  5
16248
  8
0
 10
3735.9022338822869642
 20
132.0104606116236994
 30
0.0
 40
0.3350334511766243
 50
243.143209880051586
 51
250.2432276399065074
  0
ARC
  5
16249
  8
0
 10
3735.9474387275790832
 20
132.1359628849033925
 30
0.0
 40
0.4684286843301518
 50
250.2284724872586992
 51
256.6193610019681728
  0
ARC
  5
1624A
  8
0
 10
3735.9850623972779431
 20
132.2970350143683049
 30
0.0
 40
0.6338355670231507
 50
256.6801823376649736
 51
264.5256740477067865
  0
ARC
  5
1624B
  8
0
 10
3735.9969842125860851
 20
132.4089172356760002
 30
0.0
 40
0.7463457913786595
 50
264.4340195066728825
 51
270.3003879208636135
  0
ARC
  5
1624C
  8
0
 10
3735.2339663932489202
 20
131.4312022105723088
 30
0.0
 40
0.5654920758407452
 50
35.6689073180670917
 51
37.5458490123595467
  0
LINE
  5
1624D
  8
0
 10
3735.6933721994419102
 20
131.7609408844865868
 30
0.0
 11
3735.6933691304279819
 21
131.779661187739606
 31
0.0
  0
ARC
  5
1624E
  8
0
 10
3735.7034445763911208
 20
131.7613540516354078
 30
0.0
 40
0.0100808473309446
 50
182.3489351463302057
 51
225.4160204616163981
  0
LINE
  5
1624F
  8
0
 10
3735.6963682859268374
 20
131.7541742468893062
 30
0.0
 11
3735.7240427276269656
 21
131.7573080913892909
 31
0.0
  0
LINE
  5
16250
  8
0
 10
3735.724042727611959
 20
131.7573080913749095
 30
0.0
 11
3735.7246800054281266
 21
131.7578728585893089
 31
0.0
  0
ARC
  5
16251
  8
0
 10
3735.7235680902931563
 20
131.7654895906333081
 30
0.0
 40
0.0076974646668242
 50
278.3055543058833905
 51
338.8364526455986834
  0
LINE
  5
16252
  8
0
 10
3735.7307463893312161
 20
131.7627105646876089
 30
0.0
 11
3735.7363993272638254
 21
131.7716266683461015
 31
0.0
  0
LINE
  5
16253
  8
0
 10
3735.7268148537268644
 20
131.7737360950893049
 30
0.0
 11
3735.7206618135269309
 21
131.7640312044892994
 31
0.0
  0
LINE
  5
16254
  8
0
 10
3735.7206618135269309
 20
131.7640312044892994
 30
0.0
 11
3735.6933721996879285
 21
131.7609408804030124
 31
0.0
  0
LINE
  5
16255
  8
0
 10
3735.7206592113661827
 20
131.7763594160520029
 30
0.0
 11
3735.7206618136360703
 21
131.7640301813810026
 31
0.0
  0
ARC
  5
16256
  8
0
 10
3735.7273907083372251
 20
131.7640316016149029
 30
0.0
 40
0.006728894851167
 50
180.0120931313778101
 51
246.2438341823900032
  0
LINE
  5
16257
  8
0
 10
3735.7184304412280653
 20
131.7566725579588933
 30
0.0
 11
3735.7184304478500962
 21
131.7382602580246953
 31
0.0
  0
ARC
  5
16258
  8
0
 10
3735.7261393134740501
 20
131.7382602607972046
 30
0.0
 40
0.0077088656237599
 50
180.0000206056861884
 51
244.0989989737547887
  0
LINE
  5
16259
  8
0
 10
3735.7227719460279332
 20
131.7313257495893026
 30
0.0
 11
3735.7393273168781889
 21
131.7332004532892995
 31
0.0
  0
LINE
  5
1625A
  8
0
 10
3735.7393251770281495
 20
131.7332002630892873
 30
0.0
 11
3735.7399645946270539
 21
131.733765220489289
 31
0.0
  0
ARC
  5
1625B
  8
0
 10
3735.7393072092031616
 20
131.7403528783370916
 30
0.0
 40
0.0066203769920489
 50
275.6987061550537987
 51
325.4994158194941178
  0
LINE
  5
1625C
  8
0
 10
3735.7447631970280781
 20
131.7366029998892998
 30
0.0
 11
3735.7516839165677993
 21
131.7475190302521924
 31
0.0
  0
LINE
  5
1625D
  8
0
 10
3735.7421032143902266
 20
131.7496348772295107
 30
0.0
 11
3735.7359464028281764
 21
131.739923566389308
 31
0.0
  0
LINE
  5
1625E
  8
0
 10
3735.7359464028281764
 20
131.739923566389308
 30
0.0
 11
3735.718437070759137
 21
131.737940782519189
 31
0.0
  0
LINE
  5
1625F
  8
0
 10
3735.7359452039008829
 20
131.7522511817495001
 30
0.0
 11
3735.7359464028281764
 21
131.739923566389308
 31
0.0
  0
ARC
  5
16260
  8
0
 10
3735.7426756921490778
 20
131.739924220848593
 30
0.0
 40
0.0067292893528808
 50
180.0055723200028126
 51
246.2416416423106114
  0
ARC
  5
16261
  8
0
 10
3735.8045524200069849
 20
131.8579123913058027
 30
0.0
 40
0.1474250115486443
 50
224.5312236621064983
 51
234.2556552977549131
  0
ARC
  5
16262
  8
0
 10
3735.8595046223699683
 20
131.9370005211827106
 30
0.0
 40
0.2437986864258356
 50
237.2808585941781132
 51
243.9407871356839905
  0
LINE
  5
16263
  8
0
 10
3735.7524040030280048
 20
131.7276254947514076
 30
0.0
 11
3735.7524049357270997
 21
131.7176675323892994
 31
0.0
  0
ARC
  5
16264
  8
0
 10
3735.7588339967969659
 20
131.7176681345592044
 30
0.0
 40
0.006429061097178
 50
180.005366537002601
 51
248.9430276358008882
  0
ARC
  5
16265
  8
0
 10
3735.758101578518108
 20
131.7145019719067989
 30
0.0
 40
0.003243114299926
 50
240.8943998828814017
 51
283.5214602458192985
  0
ARC
  5
16266
  8
0
 10
3735.7582867989208353
 20
131.7130257797672925
 30
0.0
 40
0.0017722357673713
 50
288.8655806868579816
 51
328.3492436812720143
  0
LINE
  5
16267
  8
0
 10
3735.7597954366278827
 20
131.7120958163893079
 30
0.0
 11
3735.7669685058140203
 21
131.7234113921460903
 31
0.0
  0
LINE
  5
16268
  8
0
 10
3735.7573840322279466
 20
131.7255208187893061
 30
0.0
 11
3735.752404935659797
 21
131.7176675323082975
 31
0.0
  0
LINE
  5
16269
  8
0
 10
3735.9034324252779697
 20
131.8422187320892931
 30
0.0
 11
3735.896512378477837
 21
131.8313040794893141
 31
0.0
  0
ARC
  5
1626A
  8
0
 10
3735.8913287022201075
 20
131.8345906048249958
 30
0.0
 40
0.0061377315294667
 50
273.5907383043116852
 51
327.6247145926483881
  0
ARC
  5
1626B
  8
0
 10
3735.894874652271028
 20
131.8349178329405049
 30
0.0
 40
0.0071857807296463
 50
182.3493669743104135
 51
243.8978469888859877
  0
LINE
  5
1626C
  8
0
 10
3735.8876949115779098
 20
131.8346232683892936
 30
0.0
 11
3735.8876949114778654
 21
131.8469285764892902
 31
0.0
  0
LINE
  5
1626D
  8
0
 10
3735.8876949114778654
 20
131.834623270826711
 30
0.0
 11
3735.8938479516777988
 21
131.8443281588893115
 31
0.0
  0
LINE
  5
1626E
  8
0
 10
3735.8917131033781516
 20
131.828464922489303
 30
0.0
 11
3735.8910736858770179
 21
131.8278999649893137
 31
0.0
  0
LINE
  5
1626F
  8
0
 10
3735.8407366235669542
 20
131.839762250743803
 30
0.0
 11
3735.8602501508780733
 21
131.8315153812393135
 31
0.0
  0
LINE
  5
16270
  8
0
 10
3735.8602501508780733
 20
131.8315153812393135
 30
0.0
 11
3735.8876949114778654
 21
131.8346232683392998
 31
0.0
  0
LINE
  5
16271
  8
0
 10
3735.8910758254769462
 20
131.8279001552392913
 30
0.0
 11
3735.8616741507139523
 21
131.8245707161960922
 31
0.0
  0
ARC
  5
16272
  8
0
 10
3735.8607077577162272
 20
131.8331047581916096
 30
0.0
 40
0.0085885847616197
 50
257.0249482855793985
 51
276.4606395412957909
  0
ARC
  5
16273
  8
0
 10
3735.8580299541531531
 20
131.8307678152083042
 30
0.0
 40
0.0060787326295796
 50
248.0581534990276111
 51
277.0819162129719757
  0
LINE
  5
16274
  8
0
 10
3735.8557585424778154
 20
131.8251294041392896
 30
0.0
 11
3735.8340329617781208
 21
131.8343597773393014
 31
0.0
  0
ARC
  5
16275
  8
0
 10
3735.8469451751598172
 20
131.8308521261542978
 30
0.0
 40
0.0133214971320116
 50
332.6672296267850015
 51
2.8538405823291959
  0
LINE
  5
16276
  8
0
 10
3735.8602501508707974
 20
131.8315153811385017
 30
0.0
 11
3735.8602501508780733
 21
131.8502479242631864
 31
0.0
  0
LINE
  5
16277
  8
0
 10
3735.9187170145278287
 20
131.8181110939393079
 30
0.0
 11
3735.9117969677281508
 21
131.8071964413393005
 31
0.0
  0
ARC
  5
16278
  8
0
 10
3735.9066132914699665
 20
131.8104829666750106
 30
0.0
 40
0.0061377315294667
 50
273.5907383043116852
 51
327.6247145926483881
  0
ARC
  5
16279
  8
0
 10
3735.910159241520887
 20
131.8108101947904913
 30
0.0
 40
0.0071857807296463
 50
182.3493669743104135
 51
243.8978469888859877
  0
LINE
  5
1627A
  8
0
 10
3735.9029795008282235
 20
131.8105156302393084
 30
0.0
 11
3735.9029795007268149
 21
131.8228427361426043
 31
0.0
  0
LINE
  5
1627B
  8
0
 10
3735.9029795007281791
 20
131.8105156326766974
 30
0.0
 11
3735.9091325409272031
 21
131.8202205207392979
 31
0.0
  0
LINE
  5
1627C
  8
0
 10
3735.9069976926280106
 20
131.8043572843392894
 30
0.0
 11
3735.9063582751277863
 21
131.8037923268393001
 31
0.0
  0
LINE
  5
1627D
  8
0
 10
3735.8560212128168132
 20
131.8156546125937041
 30
0.0
 11
3735.8755347401279323
 21
131.8074077430892999
 31
0.0
  0
LINE
  5
1627E
  8
0
 10
3735.8755347401279323
 20
131.8074077430892999
 30
0.0
 11
3735.9029795007281791
 21
131.8105156301892862
 31
0.0
  0
LINE
  5
1627F
  8
0
 10
3735.9063604147281694
 20
131.8037925170893061
 30
0.0
 11
3735.8769587399638112
 21
131.8004630780461071
 31
0.0
  0
ARC
  5
16280
  8
0
 10
3735.8759923469651767
 20
131.808997120041596
 30
0.0
 40
0.0085885847616197
 50
257.0249482855793985
 51
276.4606395412957909
  0
ARC
  5
16281
  8
0
 10
3735.8733145434030121
 20
131.8066601770582906
 30
0.0
 40
0.0060787326295796
 50
248.0581534990276111
 51
277.0819162129719757
  0
LINE
  5
16282
  8
0
 10
3735.8710431317281291
 20
131.8010217659893044
 30
0.0
 11
3735.8493175510279798
 21
131.8102521391892878
 31
0.0
  0
ARC
  5
16283
  8
0
 10
3735.8622297644101309
 20
131.8067444880043126
 30
0.0
 40
0.0133214971320116
 50
332.6672296267850015
 51
2.8538405823291959
  0
LINE
  5
16284
  8
0
 10
3735.8755347401202016
 20
131.8074077429884881
 30
0.0
 11
3735.8755347401279323
 21
131.8261402862266038
 31
0.0
  0
LINE
  5
16285
  8
0
 10
3735.9340016038281647
 20
131.7940034558392881
 30
0.0
 11
3735.927081557028032
 21
131.7830888032393091
 31
0.0
  0
ARC
  5
16286
  8
0
 10
3735.9218978807698477
 20
131.7863753285749908
 30
0.0
 40
0.0061377315294667
 50
273.5907383043116852
 51
327.6247145926483881
  0
ARC
  5
16287
  8
0
 10
3735.9254438308212229
 20
131.7867025566904999
 30
0.0
 40
0.0071857807296463
 50
182.3493669743104135
 51
243.8978469888859877
  0
LINE
  5
16288
  8
0
 10
3735.9182640901271952
 20
131.7864079921392886
 30
0.0
 11
3735.9182640900280603
 21
131.7987133002393136
 31
0.0
  0
LINE
  5
16289
  8
0
 10
3735.9182640900280603
 20
131.786407994576706
 30
0.0
 11
3735.9244171302279938
 21
131.7961128826393065
 31
0.0
  0
LINE
  5
1628A
  8
0
 10
3735.9222822819278917
 20
131.780249646239298
 30
0.0
 11
3735.9216428644281223
 21
131.7796846887393087
 31
0.0
  0
LINE
  5
1628B
  8
0
 10
3735.8713058021171491
 20
131.791546974493798
 30
0.0
 11
3735.8908193294278135
 21
131.7833001049893085
 31
0.0
  0
LINE
  5
1628C
  8
0
 10
3735.8908193294278135
 20
131.7833001049893085
 30
0.0
 11
3735.9182640900280603
 21
131.7864079920892948
 31
0.0
  0
LINE
  5
1628D
  8
0
 10
3735.9216450040280506
 20
131.7796848789892863
 30
0.0
 11
3735.8922433292641472
 21
131.7763554399460872
 31
0.0
  0
ARC
  5
1628E
  8
0
 10
3735.8912769362650579
 20
131.7848894819416046
 30
0.0
 40
0.0085885847616197
 50
257.0249482855793985
 51
276.4606395412957909
  0
ARC
  5
1628F
  8
0
 10
3735.8885991327028933
 20
131.7825525389582992
 30
0.0
 40
0.0060787326295796
 50
248.0581534990276111
 51
277.0819162129719757
  0
LINE
  5
16290
  8
0
 10
3735.8863277210280103
 20
131.776914127889313
 30
0.0
 11
3735.864602140327861
 21
131.7861445010892965
 31
0.0
  0
ARC
  5
16291
  8
0
 10
3735.8775143537100121
 20
131.7826368499042928
 30
0.0
 40
0.0133214971320116
 50
332.6672296267850015
 51
2.8538405823291959
  0
LINE
  5
16292
  8
0
 10
3735.8908193294209923
 20
131.7833001048884967
 30
0.0
 11
3735.8908193294278135
 21
131.802009440378697
 31
0.0
  0
LINE
  5
16293
  8
0
 10
3735.9492861931280459
 20
131.7698958176893029
 30
0.0
 11
3735.9423661463279132
 21
131.7589811650892955
 31
0.0
  0
ARC
  5
16294
  8
0
 10
3735.9371824700701836
 20
131.7622676904250056
 30
0.0
 40
0.0061377315294667
 50
273.5907383043116852
 51
327.6247145926483881
  0
ARC
  5
16295
  8
0
 10
3735.9407284201201946
 20
131.7625949185404863
 30
0.0
 40
0.0071857807296463
 50
182.3493669743104135
 51
243.8978469888859877
  0
LINE
  5
16296
  8
0
 10
3735.9335486794279859
 20
131.7623003539893034
 30
0.0
 11
3735.9335486793279415
 21
131.7746056620893
 31
0.0
  0
LINE
  5
16297
  8
0
 10
3735.9335486793279415
 20
131.7623003564266924
 30
0.0
 11
3735.939701719527875
 21
131.7720052444892929
 31
0.0
  0
LINE
  5
16298
  8
0
 10
3735.9375668712277729
 20
131.7561420080893129
 30
0.0
 11
3735.9369274537280035
 21
131.7555770505892951
 31
0.0
  0
LINE
  5
16299
  8
0
 10
3735.8865903914170303
 20
131.7674393363436991
 30
0.0
 11
3735.9061039187281494
 21
131.7591924668392949
 31
0.0
  0
LINE
  5
1629A
  8
0
 10
3735.9061039187281494
 20
131.7591924668392949
 30
0.0
 11
3735.9335486793279415
 21
131.7623003539393096
 31
0.0
  0
LINE
  5
1629B
  8
0
 10
3735.9369295933279318
 20
131.7555772408393011
 30
0.0
 11
3735.9075279185640284
 21
131.7522478017961021
 31
0.0
  0
ARC
  5
1629C
  8
0
 10
3735.9065615255658486
 20
131.760781843791591
 30
0.0
 40
0.0085885847616197
 50
257.0249482855793985
 51
276.4606395412957909
  0
ARC
  5
1629D
  8
0
 10
3735.9038837220027744
 20
131.7584449008083141
 30
0.0
 40
0.0060787326295796
 50
248.0581534990276111
 51
277.0819162129719757
  0
LINE
  5
1629E
  8
0
 10
3735.901612310326982
 20
131.7528064897392994
 30
0.0
 11
3735.8798867296281969
 21
131.7620368629393113
 31
0.0
  0
ARC
  5
1629F
  8
0
 10
3735.8927989430089838
 20
131.7585292117543077
 30
0.0
 40
0.0133214971320116
 50
332.6672296267850015
 51
2.8538405823291959
  0
LINE
  5
162A0
  8
0
 10
3735.9061039187208735
 20
131.7591924667385115
 30
0.0
 11
3735.9061039187281494
 21
131.7779250099823116
 31
0.0
  0
LINE
  5
162A1
  8
0
 10
3735.9645707823278826
 20
131.7457881795893115
 30
0.0
 11
3735.9576507355268404
 21
131.7348735269893041
 31
0.0
  0
ARC
  5
162A2
  8
0
 10
3735.9524670592700204
 20
131.7381600523249858
 30
0.0
 40
0.0061377315294667
 50
273.5907383043116852
 51
327.6247145926483881
  0
ARC
  5
162A3
  8
0
 10
3735.9560130093209409
 20
131.7384872804404949
 30
0.0
 40
0.0071857807296463
 50
182.3493669743104135
 51
243.8978469888859877
  0
LINE
  5
162A4
  8
0
 10
3735.9488332686278227
 20
131.738192715889312
 30
0.0
 11
3735.9488332685277783
 21
131.7504980239893086
 31
0.0
  0
LINE
  5
162A5
  8
0
 10
3735.9488332685277783
 20
131.738192718326701
 30
0.0
 11
3735.9549863087281665
 21
131.7478976063893015
 31
0.0
  0
LINE
  5
162A6
  8
0
 10
3735.9528514604280645
 20
131.7320343699892931
 30
0.0
 11
3735.9522120429278402
 21
131.7314694124893037
 31
0.0
  0
LINE
  5
162A7
  8
0
 10
3735.9018749806168671
 20
131.7433316982437077
 30
0.0
 11
3735.9213885079279862
 21
131.7350848287393035
 31
0.0
  0
LINE
  5
162A8
  8
0
 10
3735.9213885079279862
 20
131.7350848287393035
 30
0.0
 11
3735.9488332685277783
 21
131.7381927158392898
 31
0.0
  0
LINE
  5
162A9
  8
0
 10
3735.9522141825268591
 20
131.7314696027393097
 30
0.0
 11
3735.9228125077638651
 21
131.7281401636961107
 31
0.0
  0
ARC
  5
162AA
  8
0
 10
3735.9218461147661401
 20
131.7366742056915996
 30
0.0
 40
0.0085885847616197
 50
257.0249482855793985
 51
276.4606395412957909
  0
ARC
  5
162AB
  8
0
 10
3735.919168311203066
 20
131.7343372627082942
 30
0.0
 40
0.0060787326295796
 50
248.0581534990276111
 51
277.0819162129719757
  0
LINE
  5
162AC
  8
0
 10
3735.916896899528183
 20
131.728698851639308
 30
0.0
 11
3735.8951713188280337
 21
131.7379292248392915
 31
0.0
  0
ARC
  5
162AD
  8
0
 10
3735.9080835322101848
 20
131.7344215736542878
 30
0.0
 40
0.0133214971320116
 50
332.6672296267850015
 51
2.8538405823291959
  0
LINE
  5
162AE
  8
0
 10
3735.921388507921165
 20
131.7350848286384917
 30
0.0
 11
3735.9213885079279862
 21
131.7538173718209862
 31
0.0
  0
LINE
  5
162AF
  8
0
 10
3735.9951399609280998
 20
131.6975729033893003
 30
0.0
 11
3735.9882199141279671
 21
131.6866582507892929
 31
0.0
  0
ARC
  5
162B0
  8
0
 10
3735.9830362378697828
 20
131.689944776125003
 30
0.0
 40
0.0061377315294667
 50
273.5907383043116852
 51
327.6247145926483881
  0
ARC
  5
162B1
  8
0
 10
3735.986582187921158
 20
131.6902720042405122
 30
0.0
 40
0.0071857807296463
 50
182.3493669743104135
 51
243.8978469888859877
  0
LINE
  5
162B2
  8
0
 10
3735.9794024472280398
 20
131.6899774396893008
 30
0.0
 11
3735.9794024471279954
 21
131.7022827477892974
 31
0.0
  0
LINE
  5
162B3
  8
0
 10
3735.9794024471279954
 20
131.6899774421266898
 30
0.0
 11
3735.9855554873279289
 21
131.6996823301892903
 31
0.0
  0
LINE
  5
162B4
  8
0
 10
3735.9834206390278268
 20
131.6838190937893103
 30
0.0
 11
3735.9827812215280574
 21
131.6832541362892925
 31
0.0
  0
LINE
  5
162B5
  8
0
 10
3735.9324441592170842
 20
131.6951164220438102
 30
0.0
 11
3735.9519576865268391
 21
131.6868695525392923
 31
0.0
  0
LINE
  5
162B6
  8
0
 10
3735.9519576865268391
 20
131.6868695525392923
 30
0.0
 11
3735.9794024471279954
 21
131.689977439639307
 31
0.0
  0
LINE
  5
162B7
  8
0
 10
3735.9827833611279857
 20
131.6832543265392985
 30
0.0
 11
3735.9533816863640823
 21
131.6799248874960995
 31
0.0
  0
ARC
  5
162B8
  8
0
 10
3735.9524152933659025
 20
131.6884589294917021
 30
0.0
 40
0.0085885847616197
 50
257.0249482855793985
 51
276.4606395412957909
  0
ARC
  5
162B9
  8
0
 10
3735.9497374898028283
 20
131.6861219865083115
 30
0.0
 40
0.0060787326295796
 50
248.0581534990276111
 51
277.0819162129719757
  0
LINE
  5
162BA
  8
0
 10
3735.9474660781270359
 20
131.6804835754392968
 30
0.0
 11
3735.9257404974268866
 21
131.6897139486393087
 31
0.0
  0
ARC
  5
162BB
  8
0
 10
3735.9386527108090377
 20
131.6862062974543051
 30
0.0
 40
0.0133214971320116
 50
332.6672296267850015
 51
2.8538405823291959
  0
LINE
  5
162BC
  8
0
 10
3735.9519576865200179
 20
131.6868695524385089
 30
0.0
 11
3735.9519576865282033
 21
131.7060946689659033
 31
0.0
  0
LINE
  5
162BD
  8
0
 10
3735.9103654009859383
 20
131.713811389723503
 30
0.0
 11
3735.9321819133438112
 21
131.7045910341938111
 31
0.0
  0
ARC
  5
162BE
  8
0
 10
3735.9344028913710645
 20
131.7098461454972096
 30
0.0
 40
0.005705167675471
 50
247.0895266248851954
 51
278.0551701560689253
  0
LINE
  5
162BF
  8
0
 10
3735.9352023369278868
 20
131.7041972672892882
 30
0.0
 11
3735.9681360497079368
 21
131.7079267318088114
 31
0.0
  0
ARC
  5
162C0
  8
0
 10
3735.967388307552028
 20
131.7146666011012996
 30
0.0
 40
0.0067812208643212
 50
276.3306840042155841
 51
324.8847701127465939
  0
LINE
  5
162C1
  8
0
 10
3735.9729353248280859
 20
131.7107658888893127
 30
0.0
 11
3735.9798553715640992
 21
131.7216805415461067
 31
0.0
  0
LINE
  5
162C2
  8
0
 10
3735.9769606114277849
 20
131.7218452831893103
 30
0.0
 11
3735.9681360497088463
 21
131.7079267318088966
 31
0.0
  0
LINE
  5
162C3
  8
0
 10
3735.9681360497088463
 20
131.7079267318088966
 30
0.0
 11
3735.9674987719281489
 21
131.7073619645393023
 31
0.0
  0
LINE
  5
162C4
  8
0
 10
3735.9674987719281489
 20
131.7073619645393023
 30
0.0
 11
3735.9380970969609734
 21
131.704032525534501
 31
0.0
  0
ARC
  5
162C5
  8
0
 10
3735.9369040704450526
 20
131.7085842693932989
 30
0.0
 40
0.00470549513067
 50
248.798552089122694
 51
284.6870311039460262
  0
LINE
  5
162C6
  8
0
 10
3735.9352023369278868
 20
131.7041972672892882
 30
0.0
 11
3735.9110931866712235
 21
131.714386353675394
 31
0.0
  0
ARC
  5
162C7
  8
0
 10
3735.9436823143541915
 20
132.137889648420412
 30
0.0
 40
0.4619661903468267
 50
251.1558892313508125
 51
255.3632673572996907
  0
LINE
  5
162C8
  8
0
 10
3735.8269470522200209
 20
131.6961360836791073
 30
0.0
 11
3735.8269482561490804
 21
131.6909154772027932
 31
0.0
  0
ARC
  5
162C9
  8
0
 10
3735.8325316599239159
 20
131.6909167647970946
 30
0.0
 40
0.0055834039235668
 50
180.0132130366528997
 51
240.1196175053235038
  0
ARC
  5
162CA
  8
0
 10
3735.8322259012229551
 20
131.6903846125686925
 30
0.0
 40
0.0049696658871625
 50
240.1196175053235038
 51
307.0968321725331975
  0
LINE
  5
162CB
  8
0
 10
3735.8352234242279337
 20
131.6864207211893074
 30
0.0
 11
3735.839295958970979
 21
131.6928441318582941
 31
0.0
  0
LINE
  5
162CC
  8
0
 10
3735.8297158329069134
 20
131.6949597340384912
 30
0.0
 11
3735.8269567629381527
 21
131.6906086690896984
 31
0.0
  0
ARC
  5
162CD
  8
0
 10
3735.9743106654600524
 20
132.256852064115094
 30
0.0
 40
0.5848215549669887
 50
256.3739398407121257
 51
260.8067572280593254
  0
LINE
  5
162CE
  8
0
 10
3735.8808741435400407
 20
131.6910002347468094
 30
0.0
 11
3735.880876785548935
 21
131.6795436748440125
 31
0.0
  0
ARC
  5
162CF
  8
0
 10
3735.8864601893242252
 20
131.6795449624383139
 30
0.0
 40
0.0055834039235668
 50
180.0132130366528997
 51
240.1196175053235038
  0
ARC
  5
162D0
  8
0
 10
3735.886154430624174
 20
131.6790128102099118
 30
0.0
 40
0.0049696658871625
 50
240.1196175053235038
 51
307.0968321725331975
  0
LINE
  5
162D1
  8
0
 10
3735.8891519536268788
 20
131.6750489188304982
 30
0.0
 11
3735.8963388858010148
 21
131.6863845168572027
 31
0.0
  0
LINE
  5
162D2
  8
0
 10
3735.8867591271628044
 20
131.6884999289617042
 30
0.0
 11
3735.8808852923370978
 21
131.6792368667310029
 31
0.0
  0
LINE
  5
162D3
  8
0
 10
3735.9376821712007768
 20
131.684640385493509
 30
0.0
 11
3735.9376849218488132
 21
131.6727127330439941
 31
0.0
  0
ARC
  5
162D4
  8
0
 10
3735.9432683256250129
 20
131.6727140206382956
 30
0.0
 40
0.0055834039235668
 50
180.0132130366528997
 51
240.1196175053235038
  0
ARC
  5
162D5
  8
0
 10
3735.9429625669231427
 20
131.6721818684098935
 30
0.0
 40
0.0049696658871625
 50
240.1196175053235038
 51
307.0968321725331975
  0
LINE
  5
162D6
  8
0
 10
3735.9459600899281213
 20
131.6682179770305083
 30
0.0
 11
3735.9533824977847871
 21
131.6799249793812976
 31
0.0
  0
LINE
  5
162D7
  8
0
 10
3735.9438025670970092
 20
131.682040061983912
 30
0.0
 11
3735.937693428636976
 21
131.672405924931013
 31
0.0
  0
LINE
  5
162D8
  8
0
 10
3735.9973459103621281
 20
131.6770672529812032
 30
0.0
 11
3735.9973474518487819
 21
131.6703828912440031
 31
0.0
  0
ARC
  5
162D9
  8
0
 10
3736.0029308556249816
 20
131.6703841788383045
 30
0.0
 40
0.0055834039235668
 50
180.0132130366528997
 51
240.1196175053235038
  0
ARC
  5
162DA
  8
0
 10
3736.0026250969240209
 20
131.6698520266099024
 30
0.0
 40
0.0049696658871625
 50
240.1196175053235038
 51
307.0968321725331975
  0
LINE
  5
162DB
  8
0
 10
3736.00562261992809
 20
131.6658881352304888
 30
0.0
 11
3736.0104267901888306
 21
131.6734655189617058
 31
0.0
  0
LINE
  5
162DC
  8
0
 10
3736.0008461523229926
 20
131.6755801332562896
 30
0.0
 11
3735.9973559586369447
 21
131.6700760831309935
 31
0.0
  0
ARC
  5
162DD
  8
0
 10
3735.9924180012608304
 20
132.3685283696756017
 30
0.0
 40
0.6979649777481497
 50
261.6453900764132072
 51
265.5023568011444013
  0
ARC
  5
162DE
  8
0
 10
3735.9969410379280816
 20
132.4273037330889053
 30
0.0
 40
0.7569176798995804
 50
266.317403726033092
 51
270.030766574889924
  0
ARC
  5
162DF
  8
0
 10
3735.9972592108561003
 20
132.4207666538225965
 30
0.0
 40
0.7503775311945179
 50
270.8606155486131115
 51
274.0616243071564782
  0
LINE
  5
162E0
  8
0
 10
3736.0397358148011335
 20
131.6767844663226015
 30
0.0
 11
3736.0580697299278654
 21
131.6690361282892923
 31
0.0
  0
ARC
  5
162E1
  8
0
 10
3736.0605245928018121
 20
131.6758346163522901
 30
0.0
 40
0.0072281250455723
 50
250.1458793916019943
 51
284.7309520554165942
  0
ARC
  5
162E2
  8
0
 10
3736.0616618079138789
 20
131.6747247764664053
 30
0.0
 40
0.0059223050391577
 50
276.7954333149198192
 51
346.7357205142516818
  0
LINE
  5
162E3
  8
0
 10
3736.0364417849878009
 20
131.6958464214092999
 30
0.0
 11
3736.036445310828185
 21
131.6835178174893031
 31
0.0
  0
ARC
  5
162E4
  8
0
 10
3736.0431765474199892
 20
131.6835197425463093
 30
0.0
 40
0.0067312368673704
 50
180.0163859397030137
 51
246.2308293286380092
  0
LINE
  5
162E5
  8
0
 10
3736.0398240852277922
 20
131.6767945141893108
 30
0.0
 11
3736.040463504617037
 21
131.6773594707574091
 31
0.0
  0
ARC
  5
162E6
  8
0
 10
3736.0397907776159627
 20
131.6839725309006042
 30
0.0
 40
0.0066471893365149
 50
275.8085483941633242
 51
325.4069379331397727
  0
LINE
  5
162E7
  8
0
 10
3736.0452627779282011
 20
131.6801986285892951
 30
0.0
 11
3736.0521828246278346
 21
131.6911132812892902
 31
0.0
  0
LINE
  5
162E8
  8
0
 10
3736.0426019416440795
 20
131.693229205064199
 30
0.0
 11
3736.0364453109277747
 21
131.6835178174449084
 31
0.0
  0
LINE
  5
162E9
  8
0
 10
3736.0465298867729871
 20
131.682197177670389
 30
0.0
 11
3736.0674261184030911
 21
131.6733659455086922
 31
0.0
  0
LINE
  5
162EA
  8
0
 10
3736.067426113224883
 20
131.6733656443913105
 30
0.0
 11
3736.0674286355279037
 21
131.6928397134479951
 31
0.0
  0
ARC
  5
162EB
  8
0
 10
3736.0019318811041558
 20
132.3663358551251861
 30
0.0
 40
0.6957405165074541
 50
275.4018002587220053
 51
277.5196793476135895
  0
LINE
  5
162EC
  8
0
 10
3736.0929798630031655
 20
131.6896012635037891
 30
0.0
 11
3736.0929811573378174
 21
131.6765787271392014
 31
0.0
  0
ARC
  5
162ED
  8
0
 10
3736.0966607588129591
 20
131.6765790928616866
 30
0.0
 40
0.0036796014929596
 50
180.005694736036105
 51
269.5376745649876966
  0
ARC
  5
162EE
  8
0
 10
3736.0967100745288008
 20
131.6826906343333121
 30
0.0
 40
0.0097913419324032
 50
269.5376745649876966
 51
314.0807037694734731
  0
LINE
  5
162EF
  8
0
 10
3736.1035216262271206
 20
131.6756569197893043
 30
0.0
 11
3736.1092256883621303
 21
131.6846536591430095
 31
0.0
  0
LINE
  5
162F0
  8
0
 10
3736.0996412148329
 20
131.686763085797196
 30
0.0
 11
3736.0929934994651376
 21
131.6762779682574944
 31
0.0
  0
LINE
  5
162F1
  8
0
 10
3736.1218554490169481
 20
131.8974350701938079
 30
0.0
 11
3736.1413689763280672
 21
131.8891882006892899
 31
0.0
  0
LINE
  5
162F2
  8
0
 10
3736.1413689763280672
 20
131.8891882006892899
 30
0.0
 11
3736.1688137369278593
 21
131.8922960877893047
 31
0.0
  0
LINE
  5
162F3
  8
0
 10
3736.1688137369278593
 20
131.8922960877893047
 30
0.0
 11
3736.1716452949608538
 21
131.896762166380114
 31
0.0
  0
LINE
  5
162F4
  8
0
 10
3736.1808673240329881
 20
131.8940810736079072
 30
0.0
 11
3736.1776312039278309
 21
131.8889768989893128
 31
0.0
  0
ARC
  5
162F5
  8
0
 10
3736.172447527523218
 20
131.8922634243702987
 30
0.0
 40
0.006137731677458
 50
273.5907386522050047
 51
327.624714967079683
  0
LINE
  5
162F6
  8
0
 10
3736.172831928728101
 20
131.8861377418893142
 30
0.0
 11
3736.1721946509278496
 21
131.8855729746892962
 31
0.0
  0
LINE
  5
162F7
  8
0
 10
3736.1721946509278496
 20
131.8855729746892962
 30
0.0
 11
3736.1427929761639462
 21
131.8822435356460971
 31
0.0
  0
ARC
  5
162F8
  8
0
 10
3736.1418265831662211
 20
131.890777577641586
 30
0.0
 40
0.0085885847616197
 50
257.0249482855793985
 51
276.4606395412957909
  0
ARC
  5
162F9
  8
0
 10
3736.139148779603147
 20
131.8884406346583091
 30
0.0
 40
0.0060787326295796
 50
248.0581534990276111
 51
277.0819162129719757
  0
LINE
  5
162FA
  8
0
 10
3736.1368773679278092
 20
131.8828022235892945
 30
0.0
 11
3736.1151517872281147
 21
131.8920325967893064
 31
0.0
  0
ARC
  5
162FB
  8
0
 10
3736.128064000609811
 20
131.8885249456043027
 30
0.0
 40
0.0133214971320116
 50
332.6672296267850015
 51
2.8538405823291959
  0
LINE
  5
162FC
  8
0
 10
3736.1413689763198818
 20
131.8891882005885066
 30
0.0
 11
3736.1413689763257935
 21
131.9043508925039134
 31
0.0
  0
LINE
  5
162FD
  8
0
 10
3736.1688137369278593
 20
131.8975502597589866
 30
0.0
 11
3736.1688137369278593
 21
131.8922960877893047
 31
0.0
  0
ARC
  5
162FE
  8
0
 10
3736.1759934942870132
 20
131.892590663215401
 30
0.0
 40
0.0071857978285074
 50
182.3494481645930989
 51
243.8977657986127099
  0
LINE
  5
162FF
  8
0
 10
3736.1371400382167849
 20
131.873327432043709
 30
0.0
 11
3736.156653565527904
 21
131.8650805625393048
 31
0.0
  0
LINE
  5
16300
  8
0
 10
3736.156653565527904
 20
131.8650805625393048
 30
0.0
 11
3736.1840983261281508
 21
131.8681884496392911
 31
0.0
  0
LINE
  5
16301
  8
0
 10
3736.1840983261281508
 20
131.8681884496392911
 30
0.0
 11
3736.1902513662121237
 21
131.8778933401148947
 31
0.0
  0
LINE
  5
16302
  8
0
 10
3736.1998358398041091
 20
131.8757839134011078
 30
0.0
 11
3736.1929157931281225
 21
131.8648692608392992
 31
0.0
  0
ARC
  5
16303
  8
0
 10
3736.1877321167239643
 20
131.8681557862203135
 30
0.0
 40
0.006137731677458
 50
273.5907386522050047
 51
327.624714967079683
  0
LINE
  5
16304
  8
0
 10
3736.1881165179279378
 20
131.8620301037393006
 30
0.0
 11
3736.1874792401281411
 21
131.861465336539311
 31
0.0
  0
LINE
  5
16305
  8
0
 10
3736.1874792401281411
 20
131.861465336539311
 30
0.0
 11
3736.1580775653628734
 21
131.858135897496112
 31
0.0
  0
ARC
  5
16306
  8
0
 10
3736.1571111723660579
 20
131.8666699394916009
 30
0.0
 40
0.0085885847616197
 50
257.0249482855793985
 51
276.4606395412957909
  0
ARC
  5
16307
  8
0
 10
3736.1544333688029838
 20
131.8643329965082955
 30
0.0
 40
0.0060787326295796
 50
248.0581534990276111
 51
277.0819162129719757
  0
LINE
  5
16308
  8
0
 10
3736.1521619571281008
 20
131.8586945854393093
 30
0.0
 11
3736.1304363764279515
 21
131.8679249586392928
 31
0.0
  0
ARC
  5
16309
  8
0
 10
3736.1433485898091931
 20
131.8644173074542891
 30
0.0
 40
0.0133214971320116
 50
332.6672296267850015
 51
2.8538405823291959
  0
LINE
  5
1630A
  8
0
 10
3736.1566535655201733
 20
131.865080562438493
 30
0.0
 11
3736.156653565527904
 21
131.8838131056710097
 31
0.0
  0
LINE
  5
1630B
  8
0
 10
3736.1840983261281508
 20
131.880493757674202
 30
0.0
 11
3736.1840983261281508
 21
131.8681884496392911
 31
0.0
  0
ARC
  5
1630C
  8
0
 10
3736.1912780834882142
 20
131.8684830250653874
 30
0.0
 40
0.0071857978285074
 50
182.3494481645930989
 51
243.8977657986127099
  0
LINE
  5
1630D
  8
0
 10
3736.1524246275180303
 20
131.8492197939436892
 30
0.0
 11
3736.1719381548277852
 21
131.8409729244393134
 31
0.0
  0
LINE
  5
1630E
  8
0
 10
3736.1719381548277852
 20
131.8409729244393134
 30
0.0
 11
3736.199382915428032
 21
131.8440808115392997
 31
0.0
  0
LINE
  5
1630F
  8
0
 10
3736.199382915428032
 20
131.8440808115392997
 30
0.0
 11
3736.2055359555120049
 21
131.8537857020149033
 31
0.0
  0
LINE
  5
16310
  8
0
 10
3736.2151204291030808
 20
131.8516762753010028
 30
0.0
 11
3736.2082003824280036
 21
131.8407616227393078
 31
0.0
  0
ARC
  5
16311
  8
0
 10
3736.203016706022936
 20
131.8440481481204074
 30
0.0
 40
0.006137731677458
 50
273.5907386522050047
 51
327.624714967079683
  0
LINE
  5
16312
  8
0
 10
3736.203401107227819
 20
131.8379224656393092
 30
0.0
 11
3736.2027638294280223
 21
131.8373576984392912
 31
0.0
  0
LINE
  5
16313
  8
0
 10
3736.2027638294280223
 20
131.8373576984392912
 30
0.0
 11
3736.1733621546641189
 21
131.8340282593960922
 31
0.0
  0
ARC
  5
16314
  8
0
 10
3736.1723957616659391
 20
131.8425623013916095
 30
0.0
 40
0.0085885847616197
 50
257.0249482855793985
 51
276.4606395412957909
  0
ARC
  5
16315
  8
0
 10
3736.1697179581028649
 20
131.8402253584083041
 30
0.0
 40
0.0060787326295796
 50
248.0581534990276111
 51
277.0819162129719757
  0
LINE
  5
16316
  8
0
 10
3736.167446546427982
 20
131.8345869473392895
 30
0.0
 11
3736.1457209657278327
 21
131.8438173205393014
 31
0.0
  0
ARC
  5
16317
  8
0
 10
3736.1586331791099838
 20
131.8403096693542977
 30
0.0
 40
0.0133214971320116
 50
332.6672296267850015
 51
2.8538405823291959
  0
LINE
  5
16318
  8
0
 10
3736.1719381548200545
 20
131.8409729243383879
 30
0.0
 11
3736.1719381548277852
 21
131.8597054675323079
 31
0.0
  0
LINE
  5
16319
  8
0
 10
3736.199382915428032
 20
131.8563861195742106
 30
0.0
 11
3736.199382915428032
 21
131.8440808115392997
 31
0.0
  0
ARC
  5
1631A
  8
0
 10
3736.2065626727880954
 20
131.844375386965396
 30
0.0
 40
0.0071857978285074
 50
182.3494481645930989
 51
243.8977657986127099
  0
LINE
  5
1631B
  8
0
 10
3736.1829938061168832
 20
131.8010045177437064
 30
0.0
 11
3736.2025073334270928
 21
131.7927576482393022
 31
0.0
  0
LINE
  5
1631C
  8
0
 10
3736.2025073334270928
 20
131.7927576482393022
 30
0.0
 11
3736.2299520940277944
 21
131.7958655353392885
 31
0.0
  0
LINE
  5
1631D
  8
0
 10
3736.2299520940277944
 20
131.7958655353392885
 30
0.0
 11
3736.2361051341131315
 21
131.8055704258148921
 31
0.0
  0
LINE
  5
1631E
  8
0
 10
3736.2456896077042074
 20
131.8034609991009916
 30
0.0
 11
3736.2387695610268565
 21
131.7925463465392966
 31
0.0
  0
ARC
  5
1631F
  8
0
 10
3736.2335858846231531
 20
131.7958328719203109
 30
0.0
 40
0.006137731677458
 50
273.5907386522050047
 51
327.624714967079683
  0
LINE
  5
16320
  8
0
 10
3736.2339702858280361
 20
131.789707189439298
 30
0.0
 11
3736.2333330080277847
 21
131.7891424222393084
 31
0.0
  0
LINE
  5
16321
  8
0
 10
3736.2333330080277847
 20
131.7891424222393084
 30
0.0
 11
3736.2039313332638812
 21
131.7858129831961094
 31
0.0
  0
ARC
  5
16322
  8
0
 10
3736.2029649402661562
 20
131.7943470251915983
 30
0.0
 40
0.0085885847616197
 50
257.0249482855793985
 51
276.4606395412957909
  0
ARC
  5
16323
  8
0
 10
3736.2002871367030821
 20
131.7920100822082929
 30
0.0
 40
0.0060787326295796
 50
248.0581534990276111
 51
277.0819162129719757
  0
LINE
  5
16324
  8
0
 10
3736.1980157250268348
 20
131.7863716711393067
 30
0.0
 11
3736.1762901443280498
 21
131.7956020443392902
 31
0.0
  0
ARC
  5
16325
  8
0
 10
3736.1892023577088366
 20
131.7920943931542865
 30
0.0
 40
0.0133214971320116
 50
332.6672296267850015
 51
2.8538405823291959
  0
LINE
  5
16326
  8
0
 10
3736.2025073334198169
 20
131.7927576481384904
 30
0.0
 11
3736.2025073334270928
 21
131.8114901912855998
 31
0.0
  0
LINE
  5
16327
  8
0
 10
3736.2299520940277944
 20
131.8081708433741994
 30
0.0
 11
3736.2299520940277944
 21
131.7958655353392885
 31
0.0
  0
ARC
  5
16328
  8
0
 10
3736.2371318513878578
 20
131.7961601107654133
 30
0.0
 40
0.0071857978285074
 50
182.3494481645930989
 51
243.8977657986127099
  0
LINE
  5
16329
  8
0
 10
3736.1982783953671969
 20
131.7768968795936928
 30
0.0
 11
3736.2177919226769518
 21
131.7686500100892886
 31
0.0
  0
LINE
  5
1632A
  8
0
 10
3736.2177919226769518
 20
131.7686500100892886
 30
0.0
 11
3736.2452366832781081
 21
131.7717578971893033
 31
0.0
  0
LINE
  5
1632B
  8
0
 10
3736.2452366832781081
 20
131.7717578971893033
 30
0.0
 11
3736.251389723362081
 21
131.781462787664907
 31
0.0
  0
LINE
  5
1632C
  8
0
 10
3736.2609741969540664
 20
131.7793533609510064
 30
0.0
 11
3736.2540541502780798
 21
131.7684387083893114
 31
0.0
  0
ARC
  5
1632D
  8
0
 10
3736.2488704738739216
 20
131.7717252337702973
 30
0.0
 40
0.006137731677458
 50
273.5907386522050047
 51
327.624714967079683
  0
LINE
  5
1632E
  8
0
 10
3736.2492548750769856
 20
131.7655995512893128
 30
0.0
 11
3736.2486175972780984
 21
131.7650347840892948
 31
0.0
  0
LINE
  5
1632F
  8
0
 10
3736.2486175972780984
 20
131.7650347840892948
 30
0.0
 11
3736.219215922514195
 21
131.7617053450460958
 31
0.0
  0
ARC
  5
16330
  8
0
 10
3736.2182495295160152
 20
131.7702393870416131
 30
0.0
 40
0.0085885847616197
 50
257.0249482855793985
 51
276.4606395412957909
  0
ARC
  5
16331
  8
0
 10
3736.2155717259529411
 20
131.7679024440583078
 30
0.0
 40
0.0060787326295796
 50
248.0581534990276111
 51
277.0819162129719757
  0
LINE
  5
16332
  8
0
 10
3736.2133003142780581
 20
131.7622640329892931
 30
0.0
 11
3736.1915747335779088
 21
131.771494406189305
 31
0.0
  0
ARC
  5
16333
  8
0
 10
3736.2044869469600599
 20
131.7679867550043014
 30
0.0
 40
0.0133214971320116
 50
332.6672296267850015
 51
2.8538405823291959
  0
LINE
  5
16334
  8
0
 10
3736.2177919226701306
 20
131.7686500099883915
 30
0.0
 11
3736.2177919226769518
 21
131.7873593454787056
 31
0.0
  0
LINE
  5
16335
  8
0
 10
3736.2452366832781081
 20
131.7840632052241858
 30
0.0
 11
3736.2452366832781081
 21
131.7717578971893033
 31
0.0
  0
ARC
  5
16336
  8
0
 10
3736.2524164406381715
 20
131.7720524726153997
 30
0.0
 40
0.0071857978285074
 50
182.3494481645930989
 51
243.8977657986127099
  0
LINE
  5
16337
  8
0
 10
3736.2135629846170559
 20
131.7527892414937014
 30
0.0
 11
3736.233076511928175
 21
131.7445423719892972
 31
0.0
  0
LINE
  5
16338
  8
0
 10
3736.233076511928175
 20
131.7445423719892972
 30
0.0
 11
3736.2605212725279671
 21
131.7476502590893119
 31
0.0
  0
LINE
  5
16339
  8
0
 10
3736.2605212725279671
 20
131.7476502590893119
 30
0.0
 11
3736.26667431261194
 21
131.7573551495648871
 31
0.0
  0
LINE
  5
1633A
  8
0
 10
3736.2762587862039254
 20
131.7552457228509866
 30
0.0
 11
3736.2693387395279387
 21
131.7443310702892916
 31
0.0
  0
ARC
  5
1633B
  8
0
 10
3736.2641550631228711
 20
131.7476175956703059
 30
0.0
 40
0.006137731677458
 50
273.5907386522050047
 51
327.624714967079683
  0
LINE
  5
1633C
  8
0
 10
3736.2645394643282089
 20
131.741491913189293
 30
0.0
 11
3736.2639021865279574
 21
131.7409271459893034
 31
0.0
  0
LINE
  5
1633D
  8
0
 10
3736.2639021865279574
 20
131.7409271459893034
 30
0.0
 11
3736.234500511764054
 21
131.7375977069461044
 31
0.0
  0
ARC
  5
1633E
  8
0
 10
3736.2335341187658742
 20
131.7461317489415933
 30
0.0
 40
0.0085885847616197
 50
257.0249482855793985
 51
276.4606395412957909
  0
ARC
  5
1633F
  8
0
 10
3736.2308563152028
 20
131.743794805958288
 30
0.0
 40
0.0060787326295796
 50
248.0581534990276111
 51
277.0819162129719757
  0
LINE
  5
16340
  8
0
 10
3736.2285849035270076
 20
131.7381563948893017
 30
0.0
 11
3736.2068593228268583
 21
131.7473867680893136
 31
0.0
  0
ARC
  5
16341
  8
0
 10
3736.2197715362090094
 20
131.74387911690431
 30
0.0
 40
0.0133214971320116
 50
332.6672296267850015
 51
2.8538405823291959
  0
LINE
  5
16342
  8
0
 10
3736.2330765119208991
 20
131.7445423718885138
 30
0.0
 11
3736.233076511928175
 21
131.7632749150766074
 31
0.0
  0
LINE
  5
16343
  8
0
 10
3736.2605212725279671
 20
131.7599555671241944
 30
0.0
 11
3736.2605212725279671
 21
131.7476502590893119
 31
0.0
  0
ARC
  5
16344
  8
0
 10
3736.2677010298880305
 20
131.7479448345154083
 30
0.0
 40
0.0071857978285074
 50
182.3494481645930989
 51
243.8977657986127099
  0
LINE
  5
16345
  8
0
 10
3736.2557412796340941
 20
131.7704848212275976
 30
0.0
 11
3736.275254806943849
 21
131.7622379517231082
 31
0.0
  0
LINE
  5
16346
  8
0
 10
3736.275254806943849
 20
131.7622379517231082
 30
0.0
 11
3736.3026995675440958
 21
131.7653458388230945
 31
0.0
  0
LINE
  5
16347
  8
0
 10
3736.3026995675440958
 20
131.7653458388230945
 30
0.0
 11
3736.3087400635367885
 21
131.7748732189841974
 31
0.0
  0
LINE
  5
16348
  8
0
 10
3736.3019648004569717
 20
131.7581566669217068
 30
0.0
 11
3736.2766788067801826
 21
131.7552932866798869
 31
0.0
  0
ARC
  5
16349
  8
0
 10
3736.2757124137820028
 20
131.7638273286754895
 30
0.0
 40
0.0085885847616197
 50
257.0249482855793985
 51
276.4606395412957909
  0
ARC
  5
1634A
  8
0
 10
3736.2730346102198382
 20
131.7614903856920989
 30
0.0
 40
0.0060787326295796
 50
248.0581534990276111
 51
277.0819162129719757
  0
LINE
  5
1634B
  8
0
 10
3736.2707631985449552
 20
131.7558519746231127
 30
0.0
 11
3736.2490376178438964
 21
131.7650823478230961
 31
0.0
  0
ARC
  5
1634C
  8
0
 10
3736.2619498312260475
 20
131.7615746966382062
 30
0.0
 40
0.0133214971320116
 50
332.6672296267850015
 51
2.8538405823291959
  0
LINE
  5
1634D
  8
0
 10
3736.2752548069370278
 20
131.7622379516222964
 30
0.0
 11
3736.275254806943849
 21
131.7809704940611937
 31
0.0
  0
LINE
  5
1634E
  8
0
 10
3736.3026995675440958
 20
131.777426072767696
 30
0.0
 11
3736.3026995675440958
 21
131.7653458388230945
 31
0.0
  0
ARC
  5
1634F
  8
0
 10
3736.3098793249050686
 20
131.7656404142491908
 30
0.0
 40
0.0071857978285074
 50
182.3494481645930989
 51
216.4875179775515051
  0
LINE
  5
16350
  8
0
 10
3736.2400366698179823
 20
131.7945448955437087
 30
0.0
 11
3736.2595501971281919
 21
131.7862980260393044
 31
0.0
  0
LINE
  5
16351
  8
0
 10
3736.2595501971281919
 20
131.7862980260393044
 30
0.0
 11
3736.2869949577270745
 21
131.7894059131392908
 31
0.0
  0
LINE
  5
16352
  8
0
 10
3736.2869949577270745
 20
131.7894059131392908
 30
0.0
 11
3736.2931479978119569
 21
131.7991108036148944
 31
0.0
  0
LINE
  5
16353
  8
0
 10
3736.3027324714030328
 20
131.7970013769011075
 30
0.0
 11
3736.2958124247279557
 21
131.7860867243392988
 31
0.0
  0
ARC
  5
16354
  8
0
 10
3736.290628748322888
 20
131.7893732497203132
 30
0.0
 40
0.006137731677458
 50
273.5907386522050047
 51
327.624714967079683
  0
LINE
  5
16355
  8
0
 10
3736.2910131495282258
 20
131.7832475672393002
 30
0.0
 11
3736.2903758717270648
 21
131.7826828000393107
 31
0.0
  0
LINE
  5
16356
  8
0
 10
3736.2903758717270648
 20
131.7826828000393107
 30
0.0
 11
3736.2609741969640709
 21
131.7793533609961116
 31
0.0
  0
ARC
  5
16357
  8
0
 10
3736.2600078039658911
 20
131.7878874029916005
 30
0.0
 40
0.0085885847616197
 50
257.0249482855793985
 51
276.4606395412957909
  0
ARC
  5
16358
  8
0
 10
3736.2573300004028169
 20
131.7855504600082952
 30
0.0
 40
0.0060787326295796
 50
248.0581534990276111
 51
277.0819162129719757
  0
LINE
  5
16359
  8
0
 10
3736.255058588727934
 20
131.779912048939309
 30
0.0
 11
3736.2333330080277847
 21
131.7891424221392924
 31
0.0
  0
ARC
  5
1635A
  8
0
 10
3736.2462452214099358
 20
131.7856347709542888
 30
0.0
 40
0.0133214971320116
 50
332.6672296267850015
 51
2.8538405823291959
  0
LINE
  5
1635B
  8
0
 10
3736.2595501971200065
 20
131.7862980259384926
 30
0.0
 11
3736.2595501971281919
 21
131.8050305691766084
 31
0.0
  0
LINE
  5
1635C
  8
0
 10
3736.2869949577270745
 20
131.8017112211742017
 30
0.0
 11
3736.2869949577270745
 21
131.7894059131392908
 31
0.0
  0
ARC
  5
1635D
  8
0
 10
3736.2941747150880474
 20
131.7897004885653871
 30
0.0
 40
0.0071857978285074
 50
182.3494481645930989
 51
243.8977657986127099
  0
LINE
  5
1635E
  8
0
 10
3736.2247520805672139
 20
131.8186525336938075
 30
0.0
 11
3736.2442656078778782
 21
131.8104056641892896
 31
0.0
  0
LINE
  5
1635F
  8
0
 10
3736.2442656078778782
 20
131.8104056641892896
 30
0.0
 11
3736.271710368478125
 21
131.8135135512893044
 31
0.0
  0
LINE
  5
16360
  8
0
 10
3736.271710368478125
 20
131.8135135512893044
 30
0.0
 11
3736.2778634085620979
 21
131.823218441764908
 31
0.0
  0
LINE
  5
16361
  8
0
 10
3736.2874478821531739
 20
131.8211090150510074
 30
0.0
 11
3736.2805278354780967
 21
131.8101943624893124
 31
0.0
  0
ARC
  5
16362
  8
0
 10
3736.2753441590739385
 20
131.8134808878702984
 30
0.0
 40
0.006137731677458
 50
273.5907386522050047
 51
327.624714967079683
  0
LINE
  5
16363
  8
0
 10
3736.275728560277912
 20
131.8073552053893138
 30
0.0
 11
3736.2750912824781153
 21
131.8067904381892959
 31
0.0
  0
LINE
  5
16364
  8
0
 10
3736.2750912824781153
 20
131.8067904381892959
 30
0.0
 11
3736.2456896077142119
 21
131.8034609991460968
 31
0.0
  0
ARC
  5
16365
  8
0
 10
3736.2447232147160321
 20
131.8119950411416141
 30
0.0
 40
0.0085885847616197
 50
257.0249482855793985
 51
276.4606395412957909
  0
ARC
  5
16366
  8
0
 10
3736.242045411152958
 20
131.8096580981583088
 30
0.0
 40
0.0060787326295796
 50
248.0581534990276111
 51
277.0819162129719757
  0
LINE
  5
16367
  8
0
 10
3736.239773999478075
 20
131.8040196870892942
 30
0.0
 11
3736.2180484187770162
 21
131.813250060289306
 31
0.0
  0
ARC
  5
16368
  8
0
 10
3736.2309606321591673
 20
131.8097424091043024
 30
0.0
 40
0.0133214971320116
 50
332.6672296267850015
 51
2.8538405823291959
  0
LINE
  5
16369
  8
0
 10
3736.244265607871057
 20
131.8104056640885062
 30
0.0
 11
3736.2442656078778782
 21
131.8291382072765998
 31
0.0
  0
LINE
  5
1636A
  8
0
 10
3736.271710368478125
 20
131.8258188593241869
 30
0.0
 11
3736.271710368478125
 21
131.8135135512893044
 31
0.0
  0
ARC
  5
1636B
  8
0
 10
3736.2788901258381884
 20
131.8138081267154007
 30
0.0
 40
0.0071857978285074
 50
182.3494481645930989
 51
243.8977657986127099
  0
LINE
  5
1636C
  8
0
 10
3736.2094674913169001
 20
131.8427601717937137
 30
0.0
 11
3736.2289810186280192
 21
131.8345133022893094
 31
0.0
  0
LINE
  5
1636D
  8
0
 10
3736.2289810186280192
 20
131.8345133022893094
 30
0.0
 11
3736.2564257792269018
 21
131.8376211893892958
 31
0.0
  0
LINE
  5
1636E
  8
0
 10
3736.2564257792269018
 20
131.8376211893892958
 30
0.0
 11
3736.2625788193117842
 21
131.8473260798648994
 31
0.0
  0
LINE
  5
1636F
  8
0
 10
3736.2721632929028601
 20
131.8452166531509988
 30
0.0
 11
3736.2652432462277829
 21
131.8343020005893038
 31
0.0
  0
ARC
  5
16370
  8
0
 10
3736.26005956982317
 20
131.8375885259704035
 30
0.0
 40
0.006137731677458
 50
273.5907386522050047
 51
327.624714967079683
  0
LINE
  5
16371
  8
0
 10
3736.2604439710280531
 20
131.8314628434893052
 30
0.0
 11
3736.2598066932268921
 21
131.8308980762892872
 31
0.0
  0
LINE
  5
16372
  8
0
 10
3736.2598066932268921
 20
131.8308980762892872
 30
0.0
 11
3736.2304050184638982
 21
131.8275686372460882
 31
0.0
  0
ARC
  5
16373
  8
0
 10
3736.2294386254661731
 20
131.8361026792416055
 30
0.0
 40
0.0085885847616197
 50
257.0249482855793985
 51
276.4606395412957909
  0
ARC
  5
16374
  8
0
 10
3736.226760821903099
 20
131.8337657362583002
 30
0.0
 40
0.0060787326295796
 50
248.0581534990276111
 51
277.0819162129719757
  0
LINE
  5
16375
  8
0
 10
3736.224489410228216
 20
131.828127325189314
 30
0.0
 11
3736.2027638295280667
 21
131.8373576983892974
 31
0.0
  0
ARC
  5
16376
  8
0
 10
3736.2156760429102178
 20
131.8338500472042938
 30
0.0
 40
0.0133214971320116
 50
332.6672296267850015
 51
2.8538405823291959
  0
LINE
  5
16377
  8
0
 10
3736.228981018621198
 20
131.8345133021884976
 30
0.0
 11
3736.2289810186280192
 21
131.8532458454322978
 31
0.0
  0
LINE
  5
16378
  8
0
 10
3736.2564257792269018
 20
131.8499264974242067
 30
0.0
 11
3736.2564257792269018
 21
131.8376211893892958
 31
0.0
  0
ARC
  5
16379
  8
0
 10
3736.2636055365878747
 20
131.8379157648153921
 30
0.0
 40
0.0071857978285074
 50
182.3494481645930989
 51
243.8977657986127099
  0
LINE
  5
1637A
  8
0
 10
3736.1941829020170189
 20
131.8668678099436988
 30
0.0
 11
3736.213696429328138
 21
131.8586209404392946
 31
0.0
  0
LINE
  5
1637B
  8
0
 10
3736.213696429328138
 20
131.8586209404392946
 30
0.0
 11
3736.2411411899270206
 21
131.8617288275393093
 31
0.0
  0
LINE
  5
1637C
  8
0
 10
3736.2411411899270206
 20
131.8617288275393093
 30
0.0
 11
3736.2451557528120247
 21
131.8680608020694081
 31
0.0
  0
LINE
  5
1637D
  8
0
 10
3736.2531416668321071
 20
131.8634300452249022
 30
0.0
 11
3736.2499586569279018
 21
131.858409638739289
 31
0.0
  0
ARC
  5
1637E
  8
0
 10
3736.2447749805228341
 20
131.8616961641203034
 30
0.0
 40
0.006137731677458
 50
273.5907386522050047
 51
327.624714967079683
  0
LINE
  5
1637F
  8
0
 10
3736.2451593817281719
 20
131.8555704816392904
 30
0.0
 11
3736.2445221039270109
 21
131.8550057144393008
 31
0.0
  0
LINE
  5
16380
  8
0
 10
3736.2445221039270109
 20
131.8550057144393008
 30
0.0
 11
3736.215120429164017
 21
131.8516762753961018
 31
0.0
  0
ARC
  5
16381
  8
0
 10
3736.2141540361658372
 20
131.8602103173917044
 30
0.0
 40
0.0085885847616197
 50
257.0249482855793985
 51
276.4606395412957909
  0
ARC
  5
16382
  8
0
 10
3736.2114762326032178
 20
131.8578733744083138
 30
0.0
 40
0.0060787326295796
 50
248.0581534990276111
 51
277.0819162129719757
  0
LINE
  5
16383
  8
0
 10
3736.2092048209278801
 20
131.8522349633392992
 30
0.0
 11
3736.1874792402281855
 21
131.861465336539311
 31
0.0
  0
ARC
  5
16384
  8
0
 10
3736.2003914536098819
 20
131.8579576853543074
 30
0.0
 40
0.0133214971320116
 50
332.6672296267850015
 51
2.8538405823291959
  0
LINE
  5
16385
  8
0
 10
3736.2136964293199526
 20
131.8586209403385112
 30
0.0
 11
3736.213696429328138
 21
131.8773302758287116
 31
0.0
  0
LINE
  5
16386
  8
0
 10
3736.2411411899270206
 20
131.8702527703985936
 30
0.0
 11
3736.2411411899270206
 21
131.8617288275393093
 31
0.0
  0
ARC
  5
16387
  8
0
 10
3736.2483209472879935
 20
131.8620234029654057
 30
0.0
 40
0.0071857978285074
 50
182.3494481645930989
 51
243.8977657986127099
  0
LINE
  5
16388
  8
0
 10
3735.9600223644779362
 20
131.8040560080393107
 30
0.0
 11
3735.9600223644779362
 21
131.8163831139713125
 31
0.0
  0
LINE
  5
16389
  8
0
 10
3735.9600223644779362
 20
131.8040560080104058
 30
0.0
 11
3735.9661795434558371
 21
131.8137671627287943
 31
0.0
  0
ARC
  5
1638A
  8
0
 10
3735.9671880729479199
 20
131.8043414168764116
 30
0.0
 40
0.0071713900566755
 50
182.280874242902712
 51
243.9663397202953092
  0
LINE
  5
1638B
  8
0
 10
3735.9634011388270665
 20
131.7973327046892962
 30
0.0
 11
3735.9640405563282002
 21
131.7978976621893139
 31
0.0
  0
LINE
  5
1638C
  8
0
 10
3735.9640405563282002
 20
131.7978976621893139
 30
0.0
 11
3735.9728651181958412
 21
131.8118162137544971
 31
0.0
  0
LINE
  5
1638D
  8
0
 10
3735.9640405563282002
 20
131.7978976621893139
 30
0.0
 11
3735.9881497073279206
 21
131.7877085753893027
 31
0.0
  0
ARC
  5
1638E
  8
0
 10
3735.9898509300810474
 20
131.7920866015356012
 30
0.0
 40
0.0046969428137658
 50
248.7647628294857896
 51
284.7208209258404281
  0
LINE
  5
1638F
  8
0
 10
3735.99104446752699
 20
131.7875438336392904
 30
0.0
 11
3736.0204461424282272
 21
131.7908732726893106
 31
0.0
  0
LINE
  5
16390
  8
0
 10
3736.0210834200001955
 20
131.7914380397870104
 30
0.0
 11
3735.9881497073279206
 21
131.7877085753893027
 31
0.0
  0
ARC
  5
16391
  8
0
 10
3735.9874359718528467
 20
131.7940113461185092
 30
0.0
 40
0.0063430542480041
 50
248.6613069548797057
 51
276.4607394696723759
  0
LINE
  5
16392
  8
0
 10
3735.9851278591281698
 20
131.7881031354893082
 30
0.0
 11
3735.9633128684022267
 21
131.7973226569226028
 31
0.0
  0
LINE
  5
16393
  8
0
 10
3735.8995122250480563
 20
131.9125263693061072
 30
0.0
 11
3735.9087062902258367
 21
131.9086405528080945
 31
0.0
  0
ARC
  5
16394
  8
0
 10
3735.9109273119329373
 20
131.913895617824295
 30
0.0
 40
0.0057051420445877
 50
247.0889415888418057
 51
278.0552414577725244
  0
ARC
  5
16395
  8
0
 10
3735.9134883925830763
 20
131.9136862673402959
 30
0.0
 40
0.0057176499573288
 50
252.0549854156676872
 51
281.4305983396238275
  0
LINE
  5
16396
  8
0
 10
3735.9146215211280833
 20
131.9080820242392917
 30
0.0
 11
3735.9440231959279117
 21
131.911411463289312
 31
0.0
  0
LINE
  5
16397
  8
0
 10
3735.9440231959279117
 20
131.911411463289312
 30
0.0
 11
3735.9446604737281632
 21
131.9119762305892891
 31
0.0
  0
ARC
  5
16398
  8
0
 10
3735.948312383854045
 20
131.9188391246252934
 30
0.0
 40
0.0077740441288603
 50
194.2545394978110096
 51
241.9814886685537942
  0
ARC
  5
16399
  8
0
 10
3735.9439998252419173
 20
131.9185688779153907
 30
0.0
 40
0.0066256663957238
 50
275.7224998239545926
 51
325.492953072702619
  0
LINE
  5
1639A
  8
0
 10
3735.9494597488269392
 20
131.9148153875893001
 30
0.0
 11
3735.951264412728051
 21
131.9176617959892894
 31
0.0
  0
LINE
  5
1639B
  8
0
 10
3735.9507268577272043
 20
131.9168139366896924
 30
0.0
 11
3735.9702403850278642
 21
131.9085670671892956
 31
0.0
  0
LINE
  5
1639C
  8
0
 10
3735.9702403850278642
 20
131.9085670671892956
 30
0.0
 11
3735.99768514387506
 21
131.9116749540908131
 31
0.0
  0
LINE
  5
1639D
  8
0
 10
3735.9702355043600619
 20
131.9186067866693008
 30
0.0
 11
3735.9702403849278198
 21
131.908567067089308
 31
0.0
  0
ARC
  5
1639E
  8
0
 10
3735.9539145156882114
 20
131.9085591306611036
 30
0.0
 40
0.016325871168923
 50
335.4932183964764931
 51
0.0278529612201846
  0
ARC
  5
1639F
  8
0
 10
3735.968020009562224
 20
131.9078181314957021
 30
0.0
 40
0.0060773953635944
 50
248.0548923773029912
 51
277.0851805782338033
  0
LINE
  5
163A0
  8
0
 10
3735.9657487767281054
 20
131.9021810900893001
 30
0.0
 11
3735.9439327857198805
 21
131.911401225257606
 31
0.0
  0
ARC
  5
163A1
  8
0
 10
3735.9704588223598876
 20
131.9059538701411043
 30
0.0
 40
0.0044961090176938
 50
247.9322860043970138
 51
285.5532987484074283
  0
LINE
  5
163A2
  8
0
 10
3735.9716643850529181
 20
131.9016224021574999
 30
0.0
 11
3736.0010660596781236
 21
131.904951841139308
 31
0.0
  0
LINE
  5
163A3
  8
0
 10
3736.0567221539381535
 20
131.9166810168848087
 30
0.0
 11
3736.0645489147282206
 21
131.9133700976892953
 31
0.0
  0
ARC
  5
163A4
  8
0
 10
3736.0667716600491985
 20
131.9186244983249878
 30
0.0
 40
0.0057052013816202
 50
247.0703998711734073
 51
278.0516465533506789
  0
ARC
  5
163A5
  8
0
 10
3736.0693323944919939
 20
131.9184150399505029
 30
0.0
 40
0.0057176508903528
 50
252.0549894034967053
 51
281.4305966217127093
  0
LINE
  5
163A6
  8
0
 10
3736.0704655230538265
 20
131.9128107959010094
 30
0.0
 11
3736.0821635833299297
 21
131.9141363924038046
 31
0.0
  0
ARC
  5
163A7
  8
0
 10
3736.0601600086702092
 20
131.9172277636664035
 30
0.0
 40
0.008544045018366
 50
330.1531725293851878
 51
349.0962873178376071
  0
LINE
  5
163A8
  8
0
 10
3736.1156657770879974
 20
131.9093762046651932
 30
0.0
 11
3736.1179239132120529
 21
131.9084606004149123
 31
0.0
  0
ARC
  5
163A9
  8
0
 10
3736.0668331734150343
 20
131.7824565488641895
 30
0.0
 40
0.1359679546814624
 50
66.2509385573538623
 51
67.9289699502808304
  0
ARC
  5
163AA
  8
0
 10
3736.1237769071908588
 20
131.9118767791497078
 30
0.0
 40
0.0054257680348619
 50
246.2509385573538054
 51
278.871108354053888
  0
ARC
  5
163AB
  8
0
 10
3736.1263752702179772
 20
131.9119556271978126
 30
0.0
 40
0.0057178537283789
 50
252.055522036083488
 51
281.4300634675552146
  0
LINE
  5
163AC
  8
0
 10
3736.1275083868281399
 20
131.9063511737892895
 30
0.0
 11
3736.1302130765748188
 21
131.9066891716111058
 31
0.0
  0
LINE
  5
163AD
  8
0
 10
3736.1246136267282054
 20
131.9065159154893081
 30
0.0
 11
3736.1251610734120732
 21
131.9076685074896034
 31
0.0
  0
LINE
  5
163AE
  8
0
 10
3736.1788983127307802
 20
131.8909754479876142
 30
0.0
 11
3736.1984118400268926
 21
131.8827285784892922
 31
0.0
  0
LINE
  5
163AF
  8
0
 10
3736.1984118400268926
 20
131.8827285784892922
 30
0.0
 11
3736.2106584841671975
 21
131.8841880390885137
 31
0.0
  0
LINE
  5
163B0
  8
0
 10
3736.2241621709849824
 20
131.878581046293391
 30
0.0
 11
3736.213696429328138
 21
131.8773302758287116
 31
0.0
  0
LINE
  5
163B1
  8
0
 10
3736.213696429328138
 20
131.8773302758287116
 30
0.0
 11
3736.1998358399278004
 21
131.8757839134893004
 31
0.0
  0
ARC
  5
163B2
  8
0
 10
3736.1988742738030851
 20
131.8844027687854066
 30
0.0
 40
0.0086723281780047
 50
257.1196832883601928
 51
276.3659024399051987
  0
ARC
  5
163B3
  8
0
 10
3736.1961915923939159
 20
131.8819806230316942
 30
0.0
 40
0.0060783523520392
 50
248.0572278378739952
 51
277.0828451176788008
  0
LINE
  5
163B4
  8
0
 10
3736.1939202317271338
 20
131.8763426013892968
 30
0.0
 11
3736.1721041437658641
 21
131.8855627776324866
 31
0.0
  0
ARC
  5
163B5
  8
0
 10
3736.184208469062014
 20
131.8822602112786058
 30
0.0
 40
0.0142110912537354
 50
333.6323815657326008
 51
1.888688527933212
  0
LINE
  5
163B6
  8
0
 10
3736.1984118400268926
 20
131.8827285784892922
 30
0.0
 11
3736.1984207537511793
 21
131.8885462587599022
 31
0.0
  0
LINE
  5
163B7
  8
0
 10
3736.1609150477647745
 20
131.8196994854324089
 30
0.0
 11
3736.1827301355278905
 21
131.8104799230893036
 31
0.0
  0
ARC
  5
163B8
  8
0
 10
3736.1849538258520624
 20
131.8157415610907037
 30
0.0
 40
0.0057122353869405
 50
247.0899524877737861
 51
278.0320944236004834
  0
LINE
  5
163B9
  8
0
 10
3736.1857519838267763
 20
131.8100853629892981
 30
0.0
 11
3736.21868569647404
 21
131.8138148275832862
 31
0.0
  0
ARC
  5
163BA
  8
0
 10
3736.2180695137208204
 20
131.820332310884794
 30
0.0
 40
0.006546546399326
 50
275.4008647524325966
 51
325.8145870981969097
  0
LINE
  5
163BB
  8
0
 10
3736.2234849717269753
 20
131.8166539845892942
 30
0.0
 11
3736.2304050184638982
 21
131.8275686372460882
 31
0.0
  0
LINE
  5
163BC
  8
0
 10
3736.2275102583271291
 20
131.8277333788892918
 30
0.0
 11
3736.2186856965281549
 21
131.8138148275893116
 31
0.0
  0
LINE
  5
163BD
  8
0
 10
3736.2186856965281549
 20
131.8138148275893116
 30
0.0
 11
3736.2180484187770162
 21
131.813250060289306
 31
0.0
  0
LINE
  5
163BE
  8
0
 10
3736.2180484187770162
 20
131.813250060289306
 30
0.0
 11
3736.1886467439030639
 21
131.8099206212505976
 31
0.0
  0
LINE
  5
163BF
  8
0
 10
3736.1886467439030639
 20
131.8099206212505976
 30
0.0
 11
3736.1874972786281432
 21
131.8097904342893116
 31
0.0
  0
LINE
  5
163C0
  8
0
 10
3736.1874972786281432
 20
131.8097904342893116
 30
0.0
 11
3736.186327679128226
 21
131.809888200189306
 31
0.0
  0
LINE
  5
163C1
  8
0
 10
3736.186327679128226
 20
131.809888200189306
 30
0.0
 11
3736.1616428259649183
 21
131.8202744436518969
 31
0.0
  0
LINE
  5
163C2
  8
0
 10
3736.244431693703973
 20
131.8549954764060033
 30
0.0
 11
3736.2662466845281415
 21
131.8457759549893069
 31
0.0
  0
ARC
  5
163C3
  8
0
 10
3736.2684703748468564
 20
131.8510375929558904
 30
0.0
 40
0.0057122353531528
 50
247.0899523939197024
 51
278.0320945173809264
  0
ARC
  5
163C4
  8
0
 10
3736.2710301638558121
 20
131.8508208887203921
 30
0.0
 40
0.0057176426102748
 50
252.0549681708974958
 51
281.4306200213873126
  0
LINE
  5
163C5
  8
0
 10
3736.2721632930661144
 20
131.8452166532495937
 30
0.0
 11
3736.2786692496279102
 21
131.8459533977892875
 31
0.0
  0
ARC
  5
163C6
  8
0
 10
3736.25598458721106
 20
131.8517423961997963
 30
0.0
 40
0.0147283926082367
 50
334.4126263124746856
 51
0.5023729283108154
  0
LINE
  5
163C7
  8
0
 10
3736.251225765766776
 20
131.86040818767259
 30
0.0
 11
3736.2696713377581546
 21
131.8526126608709887
 31
0.0
  0
LINE
  5
163C8
  8
0
 10
3736.2597162830188608
 20
131.8308878382576097
 30
0.0
 11
3736.2815326978738995
 21
131.8216675238350888
 31
0.0
  0
ARC
  5
163C9
  8
0
 10
3736.2837536764900506
 20
131.8269226364764108
 30
0.0
 40
0.0057051691374585
 50
247.0895264002905094
 51
278.0551678858178093
  0
ARC
  5
163CA
  8
0
 10
3736.2863147536090764
 20
131.8267132577545908
 30
0.0
 40
0.0057176495677052
 50
252.0549849282537025
 51
281.4305991240955223
  0
LINE
  5
163CB
  8
0
 10
3736.2874478821531739
 20
131.8211090150510074
 30
0.0
 11
3736.3004601638108397
 21
131.8225825459201133
 31
0.0
  0
LINE
  5
163CC
  8
0
 10
3736.2955575614701047
 20
131.8291332886296914
 30
0.0
 11
3736.2860238823268446
 21
131.8280536800893117
 31
0.0
  0
LINE
  5
163CD
  8
0
 10
3736.2860238823268446
 20
131.8280536800893117
 30
0.0
 11
3736.2665103551280481
 21
131.8363005495893105
 31
0.0
  0
LINE
  5
163CE
  8
0
 10
3736.286014131353113
 20
131.8395168438395899
 30
0.0
 11
3736.2860238823268446
 21
131.8280536800893117
 31
0.0
  0
ARC
  5
163CF
  8
0
 10
3736.2697253391670529
 20
131.8280398159683102
 30
0.0
 40
0.01629854905772
 50
335.4723322750157877
 51
0.0487378179805177
  0
LINE
  5
163D0
  8
0
 10
3736.2750008722300663
 20
131.8067802001532129
 30
0.0
 11
3736.2968158630278595
 21
131.7975606787892957
 31
0.0
  0
ARC
  5
163D1
  8
0
 10
3736.2990395536230608
 20
131.8028223174314917
 30
0.0
 40
0.0057122360827173
 50
247.0899524877737861
 51
278.0320906950937001
  0
ARC
  5
163D2
  8
0
 10
3736.3015993423991858
 20
131.802605614779111
 30
0.0
 40
0.0057176448672231
 50
252.0549750492785961
 51
281.4306146247175207
  0
LINE
  5
163D3
  8
0
 10
3736.3027324715280884
 20
131.7970013769893001
 30
0.0
 11
3736.3115812122400712
 21
131.7980005231434859
 31
0.0
  0
LINE
  5
163D4
  8
0
 10
3736.3013105977920532
 20
131.8213359007498866
 30
0.0
 11
3736.30130847162809
 21
131.8039460419892919
 31
0.0
  0
ARC
  5
163D5
  8
0
 10
3736.2849367897169941
 20
131.8039480436657129
 30
0.0
 40
0.016371682032764
 50
335.5280756870020014
 51
359.9929947568535908
  0
LINE
  5
163D6
  8
0
 10
3736.2817949442919598
 20
131.8121929115042974
 30
0.0
 11
3736.30130847162809
 21
131.8039460419892919
 31
0.0
  0
LINE
  5
163D7
  8
0
 10
3736.30130847162809
 20
131.8039460419892919
 30
0.0
 11
3736.3097169716079406
 21
131.8048837106086921
 31
0.0
  0
LINE
  5
163D8
  8
0
 10
3736.2970795336282208
 20
131.7880852733892993
 30
0.0
 11
3736.3119351007849218
 21
131.7818268321177868
 31
0.0
  0
LINE
  5
163D9
  8
0
 10
3736.2902854616131663
 20
131.782672562018206
 30
0.0
 11
3736.3100195641491155
 21
131.7743262409211127
 31
0.0
  0
ARC
  5
163DA
  8
0
 10
3736.1952721310681227
 20
131.851484674338792
 30
0.0
 40
0.1387176256496337
 50
308.0960092670052859
 51
317.4281289435604094
  0
LINE
  5
163DB
  8
0
 10
3736.2808582443281011
 20
131.7557665652485923
 30
0.0
 11
3736.2808582401280546
 21
131.7423133739301875
 31
0.0
  0
ARC
  5
163DC
  8
0
 10
3736.2725943729251412
 20
131.7423133765101113
 30
0.0
 40
0.0082638672032024
 50
304.7246365201357889
 51
359.9999821126353936
  0
ARC
  5
163DD
  8
0
 10
3736.2769350769708581
 20
131.7363125197720137
 30
0.0
 40
0.0008720415702536
 50
241.2589208834679937
 51
294.8642613488290749
  0
LINE
  5
163DE
  8
0
 10
3736.2765157538128733
 20
131.7355479122977897
 30
0.0
 11
3736.2638117763990522
 21
131.7409169079666071
 31
0.0
  0
LINE
  5
163DF
  8
0
 10
3736.270605848330888
 20
131.746329619287593
 30
0.0
 11
3736.2808559385280205
 21
131.741997693389294
 31
0.0
  0
LINE
  5
163E0
  8
0
 10
3736.2476084516511037
 20
131.7390820471134134
 30
0.0
 11
3736.2476084460281527
 21
131.721068381030193
 31
0.0
  0
ARC
  5
163E1
  8
0
 10
3736.2393445788238751
 20
131.7210683836100884
 30
0.0
 40
0.0082638672032024
 50
304.7246365201357889
 51
359.9999821126353936
  0
ARC
  5
163E2
  8
0
 10
3736.2436852828709561
 20
131.7150675268719908
 30
0.0
 40
0.0008720415702536
 50
241.2589208834679937
 51
294.8642613488290749
  0
LINE
  5
163E3
  8
0
 10
3736.2432659597129714
 20
131.7143029193977952
 30
0.0
 11
3736.2220514572031789
 21
131.7232686604700973
 31
0.0
  0
LINE
  5
163E4
  8
0
 10
3736.2288470259600217
 20
131.7286807391276113
 30
0.0
 11
3736.2476061444281186
 21
131.7207527004892995
 31
0.0
  0
LINE
  5
163E5
  8
0
 10
3736.206491464642113
 20
131.7215066504091112
 30
0.0
 11
3736.2064914589109321
 21
131.7031504123083039
 31
0.0
  0
ARC
  5
163E6
  8
0
 10
3736.1982275917080187
 20
131.7031504148881993
 30
0.0
 40
0.0082638672032024
 50
304.7246365201357889
 51
359.9999821126353936
  0
ARC
  5
163E7
  8
0
 10
3736.2025682957541903
 20
131.6971495581501017
 30
0.0
 40
0.0008720415702536
 50
241.2589208834679937
 51
294.8642613488290749
  0
LINE
  5
163E8
  8
0
 10
3736.2021489725971151
 20
131.6963849506759914
 30
0.0
 11
3736.1802951797890273
 21
131.7056208706638927
 31
0.0
  0
LINE
  5
163E9
  8
0
 10
3736.1870892866090799
 20
131.7110335671640087
 30
0.0
 11
3736.206489157310898
 21
131.7028347317674104
 31
0.0
  0
LINE
  5
163EA
  8
0
 10
3736.1575761075268929
 20
131.7019803134485869
 30
0.0
 11
3736.1575761033268464
 21
131.6885271221302105
 31
0.0
  0
ARC
  5
163EB
  8
0
 10
3736.1493122361248425
 20
131.6885271247101059
 30
0.0
 40
0.0082638672032024
 50
304.7246365201357889
 51
359.9999821126353936
  0
ARC
  5
163EC
  8
0
 10
3736.1536529401710141
 20
131.6825262679720083
 30
0.0
 40
0.0008720415702536
 50
241.2589208834679937
 51
294.8642613488290749
  0
LINE
  5
163ED
  8
0
 10
3736.1532336170130293
 20
131.6817616604978127
 30
0.0
 11
3736.1385367659099757
 21
131.6879728908346863
 31
0.0
  0
LINE
  5
163EE
  8
0
 10
3736.1453310007768778
 20
131.693385533279411
 30
0.0
 11
3736.1575738017281765
 21
131.6882114415892886
 31
0.0
  0
LINE
  5
163EF
  8
0
 10
3736.1352464491278624
 20
131.7070115192892956
 30
0.0
 11
3736.1352464491278624
 21
131.6947062112892866
 31
0.0
  0
LINE
  5
163F0
  8
0
 10
3736.1352464491278624
 20
131.6947062112892866
 30
0.0
 11
3736.1413994893277959
 21
131.7044111017893044
 31
0.0
  0
LINE
  5
163F1
  8
0
 10
3736.1509839628629379
 20
131.7023016750461011
 30
0.0
 11
3736.1440639161269246
 21
131.691387022389307
 31
0.0
  0
ARC
  5
163F2
  8
0
 10
3736.1388802399169435
 20
131.6946735476475112
 30
0.0
 40
0.0061377314480846
 50
273.590737098485306
 51
327.624714967080422
  0
ARC
  5
163F3
  8
0
 10
3736.1446344938281072
 20
131.6964416480018087
 30
0.0
 40
0.0095471002943136
 50
190.4732425370667102
 51
235.7739719396562066
  0
LINE
  5
163F4
  8
0
 10
3736.1392646409408371
 20
131.6885478653850043
 30
0.0
 11
3736.1386273630778305
 21
131.6879830981393127
 31
0.0
  0
ARC
  5
163F5
  8
0
 10
3736.0134025619631757
 20
132.2894329091531915
 30
0.0
 40
0.6179821494922529
 50
278.5431705373310933
 51
282.2382561830409031
  0
ARC
  5
163F6
  8
0
 10
3736.0407115216921738
 20
132.1702748181562868
 30
0.0
 40
0.4957163729384567
 50
283.6357779969259809
 51
288.1706853168424232
  0
ARC
  5
163F7
  8
0
 10
3736.0912368291637904
 20
132.0244571856574112
 30
0.0
 40
0.3413493518076244
 50
289.7334179607523197
 51
295.5180266176454893
  0
ARC
  5
163F8
  8
0
 10
3736.1386816159752016
 20
131.9294802401383038
 30
0.0
 40
0.2351566031694206
 50
297.5944352872473928
 51
304.9856879181763816
  0
ARC
  5
163F9
  8
0
 10
3735.998015796953041
 20
131.0355738952682998
 30
0.0
 40
0.934606054715709
 50
89.8233618713477711
 51
101.2131587684063021
  0
ARC
  5
163FA
  8
0
 10
3735.9243572247069096
 20
131.3880583802790909
 30
0.0
 40
0.5745386643755352
 50
100.8433302198177017
 51
116.4180644745057975
  0
ARC
  5
163FB
  8
0
 10
3735.7706738297119955
 20
131.6974066395258944
 30
0.0
 40
0.2291187295192068
 50
116.4180644745057975
 51
137.6480542053527074
  0
ARC
  5
163FC
  8
0
 10
3735.6753425268548199
 20
131.7843095725212095
 30
0.0
 40
0.1001219192192963
 50
137.6480542053527074
 51
169.9344359291569901
  0
ARC
  5
163FD
  8
0
 10
3735.6537187413241554
 20
131.7905280526844081
 30
0.0
 40
0.0777794355779741
 50
171.66100179520609
 51
199.7548353417234068
  0
ARC
  5
163FE
  8
0
 10
3735.7050588639272064
 20
131.8132506242652084
 30
0.0
 40
0.1338389681369904
 50
201.4814012077775089
 51
217.3324186611204141
  0
ARC
  5
163FF
  8
0
 10
3735.7521859734201826
 20
131.8584774912336002
 30
0.0
 40
0.1988755141365146
 50
219.4595285917089882
 51
237.9264787997634869
  0
ARC
  5
16400
  8
0
 10
3735.9079902600628884
 20
132.1296831467003869
 30
0.0
 40
0.5115600192906875
 50
239.2693536306221063
 51
259.725288831719979
  0
ARC
  5
16401
  8
0
 10
3735.9927592272779293
 20
132.4964930836381996
 30
0.0
 40
0.8877899457678941
 50
258.5646651716340898
 51
266.5641214036490965
  0
ARC
  5
16402
  8
0
 10
3736.0270312064822065
 20
133.4430665924508901
 30
0.0
 40
1.834854147251918
 50
267.2673298995110258
 51
269.1839000725457254
  0
ARC
  5
16403
  8
0
 10
3735.9997818559500047
 20
132.5186282570429057
 30
0.0
 40
0.9006912625945492
 50
261.5059931653951253
 51
270.0709445013004029
  0
ARC
  5
16404
  8
0
 10
3735.9641603320969807
 20
132.2800983010457969
 30
0.0
 40
0.6595161542881272
 50
247.5722545665859116
 51
261.5058634485475864
  0
ARC
  5
16405
  8
0
 10
3735.8067254166130624
 20
131.8986569495901051
 30
0.0
 40
0.2468622348666702
 50
223.8449663250196124
 51
247.5722545665859116
  0
ARC
  5
16406
  8
0
 10
3735.6909105276390619
 20
131.7874198536451047
 30
0.0
 40
0.0862796080906639
 50
173.9014102976792913
 51
223.8449663250196124
  0
ARC
  5
16407
  8
0
 10
3735.701412400035224
 20
131.7778987541321953
 30
0.0
 40
0.0980897395521362
 50
134.3881843921847974
 51
169.0172525813609923
  0
ARC
  5
16408
  8
0
 10
3735.8344174773551458
 20
131.6321443600716066
 30
0.0
 40
0.295368313424991
 50
107.6026021237189951
 51
133.0476846937480957
  0
ARC
  5
16409
  8
0
 10
3735.9834879080831342
 20
131.2029142822833023
 30
0.0
 40
0.7496820606419793
 50
92.3526052926891339
 51
108.5415977398135965
  0
ARC
  5
1640A
  8
0
 10
3736.0006784524930481
 20
131.024145304813203
 30
0.0
 40
0.929058103309765
 50
89.9865155060457198
 51
92.9593179599233963
  0
ARC
  5
1640B
  8
0
 10
3735.9998525840560433
 20
131.1373074213749987
 30
0.0
 40
0.7918208282676616
 50
89.9244189223285844
 51
100.5540606955569984
  0
ARC
  5
1640C
  8
0
 10
3735.9523592351320076
 20
131.392122179337008
 30
0.0
 40
0.5326178602533309
 50
100.5522104778881953
 51
112.1256371956278031
  0
ARC
  5
1640D
  8
0
 10
3735.8513812353457979
 20
131.6404821428550918
 30
0.0
 40
0.2645148428893538
 50
112.1256371956278031
 51
129.3432925586633075
  0
ARC
  5
1640E
  8
0
 10
3735.7519372208757886
 20
131.7617918587806969
 30
0.0
 40
0.1076545254352343
 50
129.3432925586633075
 51
149.6791030483483951
  0
ARC
  5
1640F
  8
0
 10
3735.7236578069700954
 20
131.7783308529807016
 30
0.0
 40
0.0748938236719753
 50
149.6791030483483951
 51
183.8823000910606993
  0
ARC
  5
16410
  8
0
 10
3735.7040558417011198
 20
131.7770006085399928
 30
0.0
 40
0.0552467731893763
 50
183.8823000910606993
 51
209.6809410911810119
  0
ARC
  5
16411
  8
0
 10
3735.7747558880619181
 20
131.8172960398472924
 30
0.0
 40
0.1366237867729077
 50
209.6809410911810119
 51
231.7263313221733938
  0
ARC
  5
16412
  8
0
 10
3735.8577677229318397
 20
131.9319283314652864
 30
0.0
 40
0.2780974339291988
 50
232.928792445110588
 51
248.9903996078008959
  0
ARC
  5
16413
  8
0
 10
3735.954290333220797
 20
132.1757188024429865
 30
0.0
 40
0.5402932633492991
 50
248.7039693371287967
 51
260.1116037428121217
  0
ARC
  5
16414
  8
0
 10
3736.0003036581501874
 20
132.4456893211182091
 30
0.0
 40
0.8143792398352191
 50
264.4782088429358282
 51
270.0417520654946202
  0
LINE
  5
16415
  8
0
 10
3735.6327970591378289
 20
131.8479953446270088
 30
0.0
 11
3735.6328021660278864
 21
131.7944397876892992
 31
0.0
  0
ARC
  5
16416
  8
0
 10
3735.7142322587751551
 20
131.7944475526074939
 30
0.0
 40
0.081430093117764
 50
180.0054635457723009
 51
207.1517949527755889
  0
ARC
  5
16417
  8
0
 10
3735.7532403875379714
 20
131.8144535383534048
 30
0.0
 40
0.1252692716593303
 50
207.1517949527755889
 51
227.1985515504069042
  0
ARC
  5
16418
  8
0
 10
3735.8180059856381376
 20
131.8843904755543122
 30
0.0
 40
0.2205885135905627
 50
227.1985515504069042
 51
242.7283484259635884
  0
ARC
  5
16419
  8
0
 10
3735.9160546872799387
 20
132.0745871904638022
 30
0.0
 40
0.4345706115706751
 50
242.7283484259635884
 51
253.4918374342107938
  0
ARC
  5
1641A
  8
0
 10
3735.9725378488537899
 20
132.2651714401233107
 30
0.0
 40
0.6333486379208173
 50
253.4918374342107938
 51
262.8242123144635798
  0
ARC
  5
1641B
  8
0
 10
3736.0043246582549727
 20
132.5169057975276132
 30
0.0
 40
0.8870819266589709
 50
262.8182246712623851
 51
269.778617052308789
  0
ARC
  5
1641C
  8
0
 10
3735.7061036132909067
 20
131.7934631952026052
 30
0.0
 40
0.0733079525269226
 50
151.7801358155788023
 51
179.2366955966161015
  0
ARC
  5
1641D
  8
0
 10
3735.7376399584709361
 20
131.7767356294083925
 30
0.0
 40
0.1090057456597069
 50
133.6474875182821052
 51
151.8709836584941115
  0
ARC
  5
1641E
  8
0
 10
3735.8069676369318586
 20
131.7040551116456015
 30
0.0
 40
0.2094486879851387
 50
119.6304890959717966
 51
133.6474875182821052
  0
ARC
  5
1641F
  8
0
 10
3735.8920692184810832
 20
131.554434675477097
 30
0.0
 40
0.3815781569944898
 50
104.6514686924998045
 51
119.6304890959717966
  0
ARC
  5
16420
  8
0
 10
3736.0108685728068849
 20
131.1000307140704138
 30
0.0
 40
0.8512549040562253
 50
97.0655230982327311
 51
104.6514686924998045
  0
ARC
  5
16421
  8
0
 10
3735.9999372440061052
 20
131.1062369419096001
 30
0.0
 40
0.8438114724842222
 50
91.1591522208695437
 51
96.3807286794976363
  0
ARC
  5
16422
  8
0
 10
3736.0285788918558865
 20
127.7371159070602999
 30
0.0
 40
4.2130078254391421
 50
90.3764676027085159
 51
90.6216784448353962
  0
ARC
  5
16423
  8
0
 10
3735.992583910077883
 20
132.3681320282636023
 30
0.0
 40
0.7364390437774893
 50
259.747363841382878
 51
264.4954050678600765
  0
ARC
  5
16424
  8
0
 10
3736.0035661115948642
 20
128.0439480102016887
 30
0.0
 40
0.5775507152489358
 50
90.2647790769151186
 51
178.1335971676440124
  0
ARC
  5
16425
  8
0
 10
3739.1881713846169077
 20
127.9194776294392
 30
0.0
 40
3.7645772260211481
 50
177.8187823100631988
 51
180.8090487909769877
  0
ARC
  5
16426
  8
0
 10
3692.008729687477171
 20
127.9658211965577976
 30
0.0
 40
43.415353792530972
 50
357.9812802510215874
 51
359.8686888223733717
  0
ARC
  5
16427
  8
0
 10
3736.8506264232410103
 20
126.3463983609847929
 30
0.0
 40
1.4562759981157689
 50
176.4539071424511008
 51
188.4200077736080061
  0
ARC
  5
16428
  8
0
 10
3736.0009727814899634
 20
126.2455595637891008
 30
0.0
 40
0.6015206408941732
 50
190.7697227162450133
 51
269.9927917169641205
  0
ARC
  5
16429
  8
0
 10
3736.0008692377818988
 20
135.2065164427519051
 30
0.0
 40
0.354287561301834
 50
89.9954932472320053
 51
180.0028806029438897
  0
LINE
  5
1642A
  8
0
 10
3735.6465816769268713
 20
135.2064986305884133
 30
0.0
 11
3735.6465816769268713
 21
132.782047286610009
 31
0.0
  0
ARC
  5
1642B
  8
0
 10
3736.0081728069471865
 20
131.8945068533697054
 30
0.0
 40
0.9707756897652036
 50
90.429420420392205
 51
103.2826733774729036
  0
ARC
  5
1642C
  8
0
 10
3735.9006112930419476
 20
132.3636780525046959
 30
0.0
 40
0.4894526145697702
 50
103.6468008920165005
 51
121.265705319584697
  0
ARC
  5
1642D
  8
0
 10
3735.7442163932901167
 20
132.6073297085297895
 30
0.0
 40
0.2001468708959767
 50
119.1970918918905937
 51
173.9387029708805983
  0
LINE
  5
1642E
  8
0
 10
3735.5451884438671186
 20
132.6284636924883955
 30
0.0
 11
3735.5451884438671186
 21
132.4369507727639927
 31
0.0
  0
ARC
  5
1642F
  8
0
 10
3735.585356909598886
 20
132.4379810467110019
 30
0.0
 40
0.0401816762171351
 50
181.4692472894535058
 51
207.6402669997821135
  0
ARC
  5
16430
  8
0
 10
3735.6583919501699711
 20
132.4206518701373909
 30
0.0
 40
0.1143708357321559
 50
151.70852485256259
 51
171.8069278372433075
  0
ARC
  5
16431
  8
0
 10
3735.7063698102101625
 20
132.3925510379166042
 30
0.0
 40
0.1699480543402882
 50
122.7032668652266949
 51
151.0326586778303977
  0
ARC
  5
16432
  8
0
 10
3735.881412384208943
 20
132.1152777174631012
 30
0.0
 40
0.4978477976317813
 50
102.3366166824933998
 51
122.4140855483547057
  0
ARC
  5
16433
  8
0
 10
3735.9891914263521357
 20
131.699165766334005
 30
0.0
 40
0.9275236615267397
 50
93.2696375433522888
 51
103.3488819941387931
  0
ARC
  5
16434
  8
0
 10
3736.0118999437740968
 20
131.3235765547422034
 30
0.0
 40
1.30379726060271
 50
90.4835289305021888
 51
93.3245617937544267
  0
ARC
  5
16435
  8
0
 10
3736.0038478452429445
 20
131.675614033910108
 30
0.0
 40
0.9379713195187042
 50
90.1802456271654194
 51
107.2160011470358967
  0
ARC
  5
16436
  8
0
 10
3735.8227671466411266
 20
132.2629414455535937
 30
0.0
 40
0.3233645107243746
 50
107.3695534587292002
 51
132.796825341148093
  0
ARC
  5
16437
  8
0
 10
3736.0379025182128316
 20
131.2543583409573955
 30
0.0
 40
1.3309003237006001
 50
91.5933028478613238
 51
101.808303474584406
  0
ARC
  5
16438
  8
0
 10
3735.8833923306528959
 20
132.0641014043949895
 30
0.0
 40
0.5068810112128121
 50
103.4434464053568945
 51
123.0708115206840034
  0
ARC
  5
16439
  8
0
 10
3735.6900418983618692
 20
132.3610309101754012
 30
0.0
 40
0.1525485104881132
 50
123.0708115206840034
 51
146.5839572639372079
  0
ARC
  5
1643A
  8
0
 10
3735.6660469604012178
 20
132.3768622980331884
 30
0.0
 40
0.1238015125702118
 50
146.5839572639372079
 51
159.9271756821617032
  0
ARC
  5
1643B
  8
0
 10
3735.6173789536737786
 20
132.3946460891386891
 30
0.0
 40
0.0719860891439455
 50
159.927175682162499
 51
175.4091989139836016
  0
ARC
  5
1643C
  8
0
 10
3735.6331684740221135
 20
132.3916504293175933
 30
0.0
 40
0.0879815806123877
 50
174.2875403348946861
 51
179.6598430353770937
  0
ARC
  5
1643D
  8
0
 10
3735.6976459681732194
 20
132.4091173383376088
 30
0.0
 40
0.1313124612912999
 50
136.072030009067106
 51
154.3894485336639946
  0
LINE
  5
1643E
  8
0
 10
3735.5451884439171408
 20
132.3921727604883927
 30
0.0
 11
3735.5451884439171408
 21
131.9759609061426886
 31
0.0
  0
ARC
  5
1643F
  8
0
 10
3736.1960443638708966
 20
131.9757556022778999
 30
0.0
 40
0.6508559523333475
 50
179.9819268071165936
 51
198.9645058670382127
  0
ARC
  5
16440
  8
0
 10
3736.0008971052670859
 20
126.2460045460372982
 30
0.0
 40
1.1967382024999991
 50
119.1014534632994071
 51
269.999999997602913
  0
LINE
  5
16441
  8
0
 10
3735.6465663965668682
 20
131.6899664378615
 30
0.0
 11
3735.6465663965668682
 21
128.4979480456140948
 31
0.0
  0
LINE
  5
16442
  8
0
 10
3736.3552278138681686
 20
131.6924796678669907
 30
0.0
 11
3736.3552278138681686
 21
128.4979480456142937
 31
0.0
  0
ARC
  5
16443
  8
0
 10
3735.9982280987819649
 20
128.0439480100401113
 30
0.0
 40
0.5775507154111941
 50
1.8664028478650621
 51
89.7352209075819189
  0
ARC
  5
16444
  8
0
 10
3732.8656294996831093
 20
127.9208535232205008
 30
0.0
 40
3.7125559162311959
 50
359.1583774682895864
 51
2.1905467589319509
  0
ARC
  5
16445
  8
0
 10
3780.1346193218300868
 20
127.9696914439711009
 30
0.0
 40
43.5569570860923179
 50
180.1359753077622941
 51
182.017248362221892
  0
ARC
  5
16446
  8
0
 10
3735.1511677872931614
 20
126.3463983609847929
 30
0.0
 40
1.4562759981157689
 50
351.5799922263919939
 51
3.546092857548893
  0
ARC
  5
16447
  8
0
 10
3736.0008214290442083
 20
126.2455595637891008
 30
0.0
 40
0.6015206408941448
 50
270.0072082734997139
 51
349.2302772837558109
  0
ARC
  5
16448
  8
0
 10
3736.0008971052670859
 20
126.2460045460372982
 30
0.0
 40
1.1967382024999991
 50
270.000000002397087
 51
60.8985465366718017
  0
ENDSEC
  0
EOF
