  0
SECTION
  2
HEADER
  9
$ACADVER
  1
AC1009
  9
$INSBASE
 10
392.3637567690415153
 20
67.1344727784876341
 30
0.0
  9
$EXTMIN
 10
391.4837887280601194
 20
67.1251516959863039
 30
-0.0000000000112498
  9
$EXTMAX
 10
394.8579732555563169
 20
80.576494402566567
 30
0.0000000000002956
  9
$LIMMIN
 10
0.0
 20
0.0
  9
$LIMMAX
 10
11.6929133858000007
 20
8.2677165353999982
  9
$ORTHOMODE
 70
     0
  9
$REGENMODE
 70
     1
  9
$FILLMODE
 70
     1
  9
$QTEXTMODE
 70
     0
  9
$MIRRTEXT
 70
     0
  9
$DRAGMODE
 70
     2
  9
$LTSCALE
 40
0.6431102362
  9
$OSMODE
 70
   575
  9
$ATTMODE
 70
     1
  9
$TEXTSIZE
 40
0.2
  9
$TRACEWID
 40
0.05
  9
$TEXTSTYLE
  7
STANDARD
  9
$CLAYER
  8
0
  9
$CELTYPE
  6
BYLAYER
  9
$CECOLOR
 62
   256
  9
$DIMSCALE
 40
1.0
  9
$DIMASZ
 40
0.1875
  9
$DIMEXO
 40
0.0625
  9
$DIMDLI
 40
0.4443307087
  9
$DIMRND
 40
0.0
  9
$DIMDLE
 40
0.0
  9
$DIMEXE
 40
0.125
  9
$DIMTP
 40
0.01
  9
$DIMTM
 40
0.01
  9
$DIMTXT
 40
1.0
  9
$DIMCEN
 40
0.1052362205
  9
$DIMTSZ
 40
0.0
  9
$DIMTOL
 70
     1
  9
$DIMLIM
 70
     0
  9
$DIMTIH
 70
     0
  9
$DIMTOH
 70
     1
  9
$DIMSE1
 70
     0
  9
$DIMSE2
 70
     0
  9
$DIMTAD
 70
     0
  9
$DIMZIN
 70
     0
  9
$DIMBLK
  1

  9
$DIMASO
 70
     1
  9
$DIMSHO
 70
     1
  9
$DIMPOST
  1
\X
  9
$DIMAPOST
  1

  9
$DIMALT
 70
     1
  9
$DIMALTD
 70
     2
  9
$DIMALTF
 40
25.3999999999999986
  9
$DIMLFAC
 40
1.0
  9
$DIMTOFL
 70
     0
  9
$DIMTVP
 40
0.0
  9
$DIMTIX
 70
     0
  9
$DIMSOXD
 70
     0
  9
$DIMSAH
 70
     0
  9
$DIMBLK1
  1

  9
$DIMBLK2
  1

  9
$DIMSTYLE
  2
STANDARD
  9
$DIMCLRD
 70
     0
  9
$DIMCLRE
 70
     0
  9
$DIMCLRT
 70
     0
  9
$DIMTFAC
 40
1.0
  9
$DIMGAP
 40
0.09
  9
$LUNITS
 70
     2
  9
$LUPREC
 70
     4
  9
$SKETCHINC
 40
0.1
  9
$FILLETRAD
 40
0.0
  9
$AUNITS
 70
     0
  9
$AUPREC
 70
     0
  9
$MENU
  1
.
  9
$ELEVATION
 40
0.0
  9
$PELEVATION
 40
0.0
  9
$THICKNESS
 40
0.0
  9
$LIMCHECK
 70
     0
  9
$BLIPMODE
 70
     0
  9
$CHAMFERA
 40
0.0
  9
$CHAMFERB
 40
0.0
  9
$SKPOLY
 70
     0
  9
$TDCREATE
 40
2458172.5207638889551163
  9
$TDUPDATE
 40
2459465.541666666045785
  9
$TDINDWG
 40
0.2723583102
  9
$TDUSRTIMER
 40
0.2723583102
  9
$USRTIMER
 70
     1
  9
$ANGBASE
 50
0.0
  9
$ANGDIR
 70
     0
  9
$PDMODE
 70
     0
  9
$PDSIZE
 40
0.3125
  9
$PLINEWID
 40
0.0
  9
$COORDS
 70
     2
  9
$SPLFRAME
 70
     0
  9
$SPLINETYPE
 70
     6
  9
$SPLINESEGS
 70
     8
  9
$ATTDIA
 70
     1
  9
$ATTREQ
 70
     1
  9
$HANDLING
 70
     1
  9
$HANDSEED
  5
10231
  9
$SURFTAB1
 70
     6
  9
$SURFTAB2
 70
     6
  9
$SURFTYPE
 70
     6
  9
$SURFU
 70
     6
  9
$SURFV
 70
     6
  9
$UCSNAME
  2

  9
$UCSORG
 10
0.0
 20
0.0
 30
0.0
  9
$UCSXDIR
 10
1.0
 20
0.0
 30
0.0
  9
$UCSYDIR
 10
0.0
 20
1.0
 30
0.0
  9
$PUCSNAME
  2

  9
$PUCSORG
 10
0.0
 20
0.0
 30
0.0
  9
$PUCSXDIR
 10
1.0
 20
0.0
 30
0.0
  9
$PUCSYDIR
 10
0.0
 20
1.0
 30
0.0
  9
$USERI1
 70
     0
  9
$USERI2
 70
     0
  9
$USERI3
 70
     0
  9
$USERI4
 70
     0
  9
$USERI5
 70
     0
  9
$USERR1
 40
0.0
  9
$USERR2
 40
0.0
  9
$USERR3
 40
0.0
  9
$USERR4
 40
0.0
  9
$USERR5
 40
0.0
  9
$WORLDVIEW
 70
     1
  9
$SHADEDGE
 70
     3
  9
$SHADEDIF
 70
    70
  9
$TILEMODE
 70
     1
  9
$MAXACTVP
 70
    64
  9
$PLIMCHECK
 70
     0
  9
$PEXTMIN
 10
1.0000000000000000E+20
 20
1.0000000000000000E+20
 30
1.0000000000000000E+20
  9
$PEXTMAX
 10
-1.0000000000000000E+20
 20
-1.0000000000000000E+20
 30
-1.0000000000000000E+20
  9
$PLIMMIN
 10
0.0
 20
0.0
  9
$PLIMMAX
 10
12.0
 20
9.0
  9
$UNITMODE
 70
     0
  9
$VISRETAIN
 70
     1
  9
$PLINEGEN
 70
     0
  9
$PSLTSCALE
 70
     1
  0
ENDSEC
  0
SECTION
  2
TABLES
  0
TABLE
  2
VPORT
 70
     1
  0
VPORT
  2
*ACTIVE
 70
     0
 10
0.0
 20
0.0
 11
1.0
 21
1.0
 12
-36.4584081519676317
 22
4.148281571051494
 13
0.0
 23
0.0
 14
1.0
 24
1.0
 15
0.0
 25
0.0
 16
0.0
 26
0.0
 36
14.6338572656650907
 17
429.6292891080536833
 27
69.7025415122186871
 37
0.0
 40
17.1108802897508987
 41
2.4808306709265171
 42
50.0
 43
0.0
 44
0.0
 50
0.0
 51
0.0
 71
     0
 72
   100
 73
     1
 74
     1
 75
     0
 76
     0
 77
     0
 78
     0
  0
ENDTAB
  0
TABLE
  2
LTYPE
 70
     2
  0
LTYPE
  2
CONTINUOUS
 70
     0
  3
Solid line
 72
    65
 73
     0
 40
0.0
  0
LTYPE
  2
PHANTOM2
 70
     0
  3
___ _ _ ___ _ _ ___ _ _ ___ _ _
 72
    65
 73
     6
 40
1.25
 49
0.625
 49
-0.125
 49
0.125
 49
-0.125
 49
0.125
 49
-0.125
  0
ENDTAB
  0
TABLE
  2
LAYER
 70
     2
  0
LAYER
  2
0
 70
     0
 62
   255
  6
CONTINUOUS
  0
LAYER
  2
DEFPOINTS
 70
     0
 62
     7
  6
CONTINUOUS
  0
ENDTAB
  0
TABLE
  2
STYLE
 70
     1
  0
STYLE
  2
STANDARD
 70
     0
 40
0.0
 41
0.8
 50
0.0
 71
     0
 42
0.2
  3
txt
  4

  0
ENDTAB
  0
TABLE
  2
VIEW
 70
     0
  0
ENDTAB
  0
TABLE
  2
UCS
 70
     0
  0
ENDTAB
  0
TABLE
  2
APPID
 70
    10
  0
APPID
  2
ACAD
 70
     0
  0
APPID
  2
ACAD_MLEADERVER
 70
     0
  0
APPID
  2
ACAD_EXEMPT_FROM_CAD_STANDARDS
 70
     0
  0
APPID
  2
ACAD_DSTYLE_DIMJAG
 70
     0
  0
APPID
  2
ACAD_DSTYLE_DIMTALN
 70
     0
  0
APPID
  2
ACAD_NAV_VCDISPLAY
 70
     0
  0
APPID
  2
ACAECLAYERSTANDARD
 70
     0
  0
APPID
  2
ACCMTRANSPARENCY
 70
     0
  0
APPID
  2
DCO15
 70
     0
  0
APPID
  2
ACDBATTR
 70
     0
  0
ENDTAB
  0
TABLE
  2
DIMSTYLE
 70
     1
  0
DIMSTYLE
  2
STANDARD
 70
     0
  3

  4

  5

  6

  7

 40
1.0
 41
0.1875
 42
0.0625
 43
0.38
 44
0.125
 45
0.0
 46
0.0
 47
0.01
 48
0.01
140
0.15625
141
0.09
142
0.0
143
25.3999999999999986
144
1.0
145
0.0
146
1.0
147
0.09
 71
     1
 72
     0
 73
     1
 74
     1
 75
     0
 76
     0
 77
     0
 78
     4
170
     0
171
     2
172
     0
173
     0
174
     0
175
     0
176
     0
177
     0
178
     0
  0
ENDTAB
  0
ENDSEC
  0
SECTION
  2
BLOCKS
  0
BLOCK
  8
0
  2
$MODEL_SPACE
 70
     0
 10
0.0
 20
0.0
 30
0.0
  3
$MODEL_SPACE
  1

  0
ENDBLK
  5
21
  8
0
  0
BLOCK
 67
     1
  8
0
  2
$PAPER_SPACE
 70
     0
 10
0.0
 20
0.0
 30
0.0
  3
$PAPER_SPACE
  1

  0
ENDBLK
  5
1D
 67
     1
  8
0
  0
ENDSEC
  0
SECTION
  2
ENTITIES
  0
ATTDEF
  5
E04D
  8
DEFPOINTS
 10
392.3638305142408171
 20
67.1333194268179341
 30
0.0
 40
0.001
  1
K-99480BR-4CD
  3

  2
MODELNUMBER
 70
     0
1001
ACDBATTR
1070
     0
1070
     1
  0
ATTDEF
  5
E04E
  8
DEFPOINTS
 10
392.3638305142408171
 20
67.1316527601512689
 30
0.0
 40
0.001
  1
KUMIN
  3

  2
TRADENAME
 70
     0
1001
ACDBATTR
1070
     0
1070
     1
  0
ATTDEF
  5
E04F
  8
DEFPOINTS
 10
392.3638305142408171
 20
67.1299860934846038
 30
0.0
 40
0.001
  1
KITCHEN SINK FAUCET
  3

  2
PRODUCT
 70
     0
1001
ACDBATTR
1070
     0
1070
     1
  0
LINE
  5
FB51
  8
0
 10
393.2298984980415071
 20
67.1344727784876341
 30
0.0
 11
391.4976150400415236
 21
67.1344727784876341
 31
0.0
  0
ARC
  5
FB52
  8
0
 10
400.9937189586635782
 20
67.6663297271344391
 30
0.0
 40
9.4948770967218525
 50
165.3488859809208975
 51
180.6059617194700024
  0
ARC
  5
FB53
  8
0
 10
389.6723745671038728
 20
70.7406527265159042
 30
0.0
 40
2.2386825290698402
 50
342.511414960386503
 51
0.4061034548214579
  0
LINE
  5
FB54
  8
0
 10
391.9110008634914948
 20
70.7565200225876367
 30
0.0
 11
391.910999730591584
 21
70.8844727784876341
 31
0.0
  0
ARC
  5
FB55
  8
0
 10
391.9208422502916278
 20
70.8844727784876341
 30
0.0
 40
0.0098425196999958
 50
89.9999999999902229
 51
180.0000017021457097
  0
LINE
  5
FB56
  8
0
 10
391.9208422502916278
 20
70.8943152981876352
 30
0.0
 11
392.8066712941915739
 21
70.8943152981874647
 31
0.0
  0
ARC
  5
FB57
  8
0
 10
392.8066712941915739
 20
70.8844727787874689
 30
0.0
 40
0.0098425194000011
 50
359.9999982545629109
 51
89.9999999999902229
  0
LINE
  5
FB58
  8
0
 10
392.8165138135914844
 20
70.8844727784876341
 30
0.0
 11
392.8165126744914915
 21
70.7565200225876367
 31
0.0
  0
ARC
  5
FB59
  8
0
 10
397.7033972259953885
 20
71.0942039227350051
 30
0.0
 40
4.8985376426181322
 50
183.9528570507289942
 51
196.5992009855258118
  0
ARC
  5
FB5A
  8
0
 10
393.43203866224178
 20
69.7725324363127726
 30
0.0
 40
0.4301198711900901
 50
190.409940809932209
 51
224.5559308467028927
  0
ARC
  5
FB5B
  8
0
 10
393.2582479223253245
 20
69.6129806599345216
 30
0.0
 40
0.1945148277751595
 50
226.9842024131729943
 51
268.7877679612927864
  0
ARC
  5
FB5C
  8
0
 10
393.2752857311235175
 20
69.8958577897236069
 30
0.0
 40
0.4778168727122678
 50
267.4626884336682906
 51
270.4660589728196101
  0
LINE
  5
FB5D
  8
0
 10
393.8403082429915116
 20
69.4180567245980882
 30
0.0
 11
393.2791723766499103
 21
69.4180567245980882
 31
0.0
  0
ARC
  5
FB5E
  8
0
 10
393.8403082429915116
 20
69.3983716851980859
 30
0.0
 40
0.0196850394000014
 50
0.0000000000040711
 51
90.0
  0
LINE
  5
FB5F
  8
0
 10
393.8599932823914855
 20
69.3983716851980859
 30
0.0
 11
393.8599932823915992
 21
68.0597894738980784
 31
0.0
  0
ARC
  5
FB60
  8
0
 10
393.8402998339689134
 20
68.0597927639899041
 30
0.0
 40
0.0196934486975805
 50
270.0244650660180241
 51
359.9904278636258823
  0
ARC
  5
FB61
  8
0
 10
393.4472542991962882
 20
67.8410520486143156
 30
0.0
 40
0.1990472693507238
 50
90.0053797444374766
 51
144.9818195379849897
  0
ARC
  5
FB62
  8
0
 10
393.5543889604525134
 20
67.7659950738940751
 30
0.0
 40
0.3298577622576102
 50
144.9832699666793872
 51
183.044174375062795
  0
LINE
  5
FB63
  8
0
 10
393.2249966645915151
 20
67.7484776896980776
 30
0.0
 11
393.2298985012914727
 21
67.3313231721876377
 31
0.0
  0
LINE
  5
FB64
  8
0
 10
393.2298985012914727
 20
67.3313231721876377
 30
0.0
 11
393.2298984980415071
 21
67.1344727784876341
 31
0.0
  0
ARC
  5
FB65
  8
0
 10
393.7882381824915115
 20
68.4958372500982335
 30
0.0
 40
0.8661417322998465
 50
79.7677969454619102
 51
85.2479120207008236
  0
ARC
  5
FB66
  8
0
 10
393.7882381824915115
 20
68.9623234430980858
 30
0.0
 40
0.8661417323000024
 50
274.7520879803449816
 51
296.0538331098958906
  0
LINE
  5
FB67
  8
0
 10
393.9421032256914827
 20
69.4041422895980844
 30
0.0
 11
393.9421032256914827
 21
68.7573335657980635
 31
0.0
  0
ARC
  5
FB68
  8
0
 10
394.3358040126628907
 20
68.7573335657980635
 30
0.0
 40
0.3937007869713849
 50
180.0
 51
205.0000231814917129
  0
LINE
  5
FB69
  8
0
 10
393.9789899909865767
 20
68.5909482791977041
 30
0.0
 11
394.2309203839985798
 21
68.0506823785896557
 31
0.0
  0
ARC
  5
FB6A
  8
0
 10
394.2475369638660823
 20
68.0584357749384736
 30
0.0
 40
0.018336463165936
 50
205.0140404463132029
 51
269.9563750157070103
  0
ARC
  5
FB6B
  8
0
 10
394.5050953524500983
 20
67.3487480424259957
 30
0.0
 40
0.6990011248952868
 50
81.5155824817425838
 51
98.4844175184385477
  0
ARC
  5
FB6C
  8
0
 10
394.6309340720524119
 20
68.1277576831062248
 30
0.0
 40
0.0876584868240435
 50
270.0951226582207028
 51
285.1165757700484846
  0
ARC
  5
FB6D
  8
0
 10
394.644191355185626
 20
68.07047551063485
 30
0.0
 40
0.0289802512196331
 50
289.3507875736427764
 51
334.9685260963003088
  0
ARC
  5
FB6E
  8
0
 10
393.6149661875298875
 20
68.6751340658956337
 30
0.0
 40
1.22255319895611
 50
329.6940992798848811
 51
357.3000356391506784
  0
ARC
  5
FB6F
  8
0
 10
391.1465543747212905
 20
68.9108097465425686
 30
0.0
 40
3.7012444613564841
 50
355.4554523594425177
 51
0.5705943356285892
  0
LINE
  5
FB70
  8
0
 10
394.8476152989915136
 20
68.947668904998082
 30
0.0
 11
394.8476152989915136
 21
71.1004265746980764
 31
0.0
  0
ARC
  5
FB71
  8
0
 10
391.3315245398476918
 20
71.1377422660967511
 30
0.0
 40
3.5162887662080351
 50
359.391952168421426
 51
5.0080947380535576
  0
ARC
  5
FB72
  8
0
 10
393.5933144783243733
 20
71.3686601469678408
 30
0.0
 40
1.2434023461260479
 50
3.5061801726962201
 51
26.9236081438750894
  0
ARC
  5
FB73
  8
0
 10
394.6507673101253886
 20
71.8995769812464829
 30
0.0
 40
0.0604114004736165
 50
32.0953654470907921
 51
147.9141560669731064
  0
ARC
  5
FB74
  8
0
 10
395.7211861112311908
 20
71.3636392299907953
 30
0.0
 40
1.257238117717415
 50
153.1403902074023904
 51
176.3117563232895009
  0
ARC
  5
FB75
  8
0
 10
398.1370359847645091
 20
71.1374256131741873
 30
0.0
 40
3.6833078330341431
 50
175.2175237644308936
 51
180.5755522324265883
  0
LINE
  5
FB76
  8
0
 10
394.4539139871915268
 20
71.100426371498088
 30
0.0
 11
394.4539138407915857
 21
69.8609698832755868
 31
0.0
  0
ARC
  5
FB77
  8
0
 10
393.993073555628996
 20
69.825791845773594
 30
0.0
 40
0.4621809848438473
 50
323.6043482519688723
 51
4.3651823065129154
  0
ARC
  5
FB78
  8
0
 10
394.0765556123420765
 20
69.8077893286179432
 30
0.0
 40
0.3858955882806005
 50
273.8867489447646903
 51
318.3940474118451789
  0
ARC
  5
FB79
  8
0
 10
393.9652508675544027
 20
71.404977412202399
 30
0.0
 40
1.98695680359837
 50
270.3448714820685836
 51
273.9670301658666745
  0
LINE
  5
FB7A
  8
0
 10
393.9772105721914954
 20
69.4180566022980798
 30
0.0
 11
393.9558977560379844
 21
69.4180727433038243
 31
0.0
  0
ARC
  5
FB7B
  8
0
 10
393.9560113427522197
 20
69.4041650714194844
 30
0.0
 40
0.0139081357192102
 50
90.4679355887055721
 51
180.0938517445019897
  0
LINE
  5
FB7C
  8
0
 10
392.8165126777914793
 20
70.9021893138876322
 30
0.0
 11
391.911000866691495
 21
70.9021893138876322
 31
0.0
  0
LINE
  5
FB7D
  8
0
 10
391.911000866691495
 20
70.9021893138876322
 30
0.0
 11
391.9110008635119016
 21
80.1346120380615048
 31
0.0
  0
ARC
  5
FB7E
  8
0
 10
392.3637567722415156
 20
80.1224997649024431
 30
0.0
 40
0.4529178954851741
 50
358.4675551616987832
 51
181.5324448383011884
  0
LINE
  5
FB7F
  8
0
 10
392.816512674603473
 20
80.1346122760830042
 30
0.0
 11
392.8165126777914793
 21
70.9021893138423849
 31
0.0
  0
LINE
  5
FB80
  8
0
 10
392.7023825518915032
 20
70.9021893138876322
 30
0.0
 11
392.7023825518915032
 21
70.8943152981876352
 31
0.0
  0
LINE
  5
FB81
  8
0
 10
391.970055984791486
 20
70.894315298187621
 30
0.0
 11
391.970055984791486
 21
70.9021893138876322
 31
0.0
  0
LINE
  5
FB82
  8
0
 10
391.911000866691495
 20
75.7329247418876292
 30
0.0
 11
391.9751021964437996
 21
75.7329247418876292
 31
0.0
  0
ARC
  5
FB83
  8
0
 10
392.363717549412172
 20
77.2320024248718937
 30
0.0
 40
1.5710415777125131
 50
268.2206940505085981
 51
270.0014305762583149
  0
ARC
  5
FB84
  8
0
 10
392.3591612272260818
 20
77.0853305695755608
 30
0.0
 40
1.4242989690130159
 50
262.1225780139629933
 51
268.2206940505085981
  0
ARC
  5
FB85
  8
0
 10
392.2740193996597782
 20
76.4699653940893143
 30
0.0
 40
0.8030716112746887
 50
254.6133740675047932
 51
262.1225780139629933
  0
ARC
  5
FB86
  8
0
 10
392.1314541399572136
 20
75.9757150403085859
 30
0.0
 40
0.2887785643840961
 50
237.2193002549697951
 51
255.8664895747988055
  0
ARC
  5
FB87
  8
0
 10
392.0081875484023044
 20
75.7868568300617369
 30
0.0
 40
0.0632717207686977
 50
201.8112921436998022
 51
238.4724157622663085
  0
ARC
  5
FB88
  8
0
 10
391.9758692349589069
 20
75.7739230379093556
 30
0.0
 40
0.0284614297146729
 50
149.683040021138595
 51
201.8112921436998022
  0
ARC
  5
FB89
  8
0
 10
392.052184798198482
 20
75.7108614591428193
 30
0.0
 40
0.1271727220274693
 50
107.5344020519870014
 51
142.4939906149793956
  0
ARC
  5
FB8A
  8
0
 10
392.2521349581294885
 20
75.1744680553088216
 30
0.0
 40
0.6994876633941296
 50
96.7201794220312649
 51
109.9150935184918012
  0
ARC
  5
FB8B
  8
0
 10
392.3511927747509844
 20
74.5130921443289935
 30
0.0
 40
1.3680723059576261
 50
92.4989430366543104
 51
97.5989827158537651
  0
ARC
  5
FB8C
  8
0
 10
392.3635028630923784
 20
74.2962310216073831
 30
0.0
 40
1.585266480402286
 50
89.9908229215271405
 51
92.601697786671977
  0
ARC
  5
FB8D
  8
0
 10
392.3635959006700205
 20
74.3447061311425728
 30
0.0
 40
1.524943316540865
 50
89.9939519808835655
 51
92.7081063085451689
  0
ARC
  5
FB8E
  8
0
 10
392.3566817775295021
 20
74.4908802410755158
 30
0.0
 40
1.378605776881703
 50
92.7081063085451689
 51
96.7672649979102033
  0
ARC
  5
FB8F
  8
0
 10
392.3045382680098214
 20
74.9303040723148541
 30
0.0
 40
0.9360989983504813
 50
96.7672649979102033
 51
103.7493408050271029
  0
ARC
  5
FB90
  8
0
 10
392.1712564482318726
 20
75.4750090575327306
 30
0.0
 40
0.3753249222694829
 50
103.7493408050271029
 51
117.2193383343570048
  0
ARC
  5
FB91
  8
0
 10
392.0393046233123755
 20
75.7315465265365333
 30
0.0
 40
0.0868413749007325
 50
117.2193383343570048
 51
142.8160131582990005
  0
ARC
  5
FB92
  8
0
 10
391.9935048870930245
 20
75.766290247750419
 30
0.0
 40
0.0293544894262484
 50
142.8160131582990005
 51
180.1297983650894992
  0
ARC
  5
FB93
  8
0
 10
391.9932129092206878
 20
75.7662895863000472
 30
0.0
 40
0.029062510804696
 50
180.1297983650887886
 51
212.118403426735199
  0
ARC
  5
FB94
  8
0
 10
392.0320159534169875
 20
75.793024462780906
 30
0.0
 40
0.0761675414249901
 50
213.6325970137077093
 51
239.7224710065158035
  0
ARC
  5
FB95
  8
0
 10
392.1003611565894857
 20
75.8994418787718246
 30
0.0
 40
0.2025989385972063
 50
238.204208435368713
 51
247.6707943986220073
  0
ARC
  5
FB96
  8
0
 10
392.1847017567391731
 20
76.1067974383851578
 30
0.0
 40
0.4264502013720569
 50
247.7734022476078906
 51
255.7995164123155973
  0
ARC
  5
FB97
  8
0
 10
392.289155355296316
 20
76.5204505183381087
 30
0.0
 40
0.8530875203878537
 50
255.8138691920875942
 51
262.7372059861887124
  0
ARC
  5
FB98
  8
0
 10
392.3527690057840118
 20
76.9893034523296507
 30
0.0
 40
1.3262263280682081
 50
262.5717135934194175
 51
267.6221768800414793
  0
ARC
  5
FB99
  8
0
 10
392.3635241165587217
 20
77.1859908577430218
 30
0.0
 40
1.5231927908590741
 50
267.5249217476206809
 51
270.0087516045476832
  0
ARC
  5
FB9A
  8
0
 10
392.3623150178673882
 20
74.5320393871436977
 30
0.0
 40
1.328440117514891
 50
89.937816806293597
 51
96.01149299742859
  0
ARC
  5
FB9B
  8
0
 10
392.312707082880479
 20
75.0031183588394583
 30
0.0
 40
0.8547563149761266
 50
96.01149299742859
 51
105.1877165737301993
  0
ARC
  5
FB9C
  8
0
 10
392.1557594588193183
 20
75.5812714339714802
 30
0.0
 40
0.2556790787343679
 50
105.1877165737301993
 51
119.864919920642393
  0
ARC
  5
FB9D
  8
0
 10
392.0689152550976928
 20
75.7325123395004454
 30
0.0
 40
0.0812780259128567
 50
119.864919920642393
 51
139.3733926172305928
  0
ARC
  5
FB9E
  8
0
 10
392.0322644190533197
 20
75.7639554406218565
 30
0.0
 40
0.0329877329867819
 50
139.3733926172305928
 51
166.1839180698852942
  0
ARC
  5
FB9F
  8
0
 10
392.0220131388484219
 20
75.7664764477049175
 30
0.0
 40
0.0224310184148776
 50
166.1839180698860901
 51
180.6454873759861925
  0
ARC
  5
FBA0
  8
0
 10
392.0342185391804151
 20
75.7666139580979632
 30
0.0
 40
0.0346371933428439
 50
180.6454873759861925
 51
200.6207307417207062
  0
ARC
  5
FBA1
  8
0
 10
392.0504638557243879
 20
75.7749011664693057
 30
0.0
 40
0.0527995298070903
 50
202.8295552965030879
 51
230.5245050938457894
  0
ARC
  5
FBA2
  8
0
 10
392.0819138346158752
 20
75.8090274518234537
 30
0.0
 40
0.0991693348159864
 50
229.0334879743352872
 51
236.9821234527443039
  0
ARC
  5
FBA3
  8
0
 10
392.1539449464631844
 20
75.9327123718972672
 30
0.0
 40
0.2422301187647778
 50
238.6375906082174936
 51
253.6544248960373977
  0
ARC
  5
FBA4
  8
0
 10
392.2905899353719974
 20
76.3916523894846762
 30
0.0
 40
0.7210792588200605
 50
253.4984870035046924
 51
263.666293428138772
  0
ARC
  5
FBA5
  8
0
 10
392.3586698592500852
 20
76.9137930870744384
 30
0.0
 40
1.2475840189335059
 50
263.2041722777684072
 51
268.8490027852059825
  0
ARC
  5
FBA6
  8
0
 10
392.3637024637947093
 20
77.0464312688177131
 30
0.0
 40
1.380298559715931
 50
268.750739278308572
 51
270.0022547386506062
  0
LINE
  5
FBA7
  8
0
 10
391.9995835438915037
 20
75.8087712650876284
 30
0.0
 11
391.9995839353313727
 21
75.7667617838549603
 31
0.0
  0
ARC
  5
FBA8
  8
0
 10
392.3635351150954875
 20
74.7180308498701322
 30
0.0
 40
1.1221048738108941
 50
89.9886817965534647
 51
91.4105996455249965
  0
ARC
  5
FBA9
  8
0
 10
392.366803178349187
 20
74.5853153773135631
 30
0.0
 40
1.254860577618089
 50
91.4105996455249965
 51
94.4730771588941138
  0
ARC
  5
FBAA
  8
0
 10
392.3376978132995987
 20
74.9573691455278066
 30
0.0
 40
0.8816701051819705
 50
94.4730771588941138
 51
97.6290757059984315
  0
ARC
  5
FBAB
  8
0
 10
392.3279396882826973
 20
75.0302208629140353
 30
0.0
 40
0.808167766920061
 50
97.6290757059984315
 51
102.2784898748838032
  0
ARC
  5
FBAC
  8
0
 10
392.2392060158489926
 20
75.4379255484103055
 30
0.0
 40
0.3909187103612955
 50
102.2784898748871996
 51
108.513657639446194
  0
ARC
  5
FBAD
  8
0
 10
392.1960331227007259
 20
75.5668535835167745
 30
0.0
 40
0.2549542409613065
 50
108.5136576394496046
 51
117.5976937612499
  0
ARC
  5
FBAE
  8
0
 10
392.1152252353131757
 20
75.7214399705911063
 30
0.0
 40
0.0805212574613113
 50
117.5976937612499
 51
136.9077577483375023
  0
ARC
  5
FBAF
  8
0
 10
392.0779527154531934
 20
75.7563095130604438
 30
0.0
 40
0.0294808251674781
 50
136.9077577483334096
 51
165.7739437352265952
  0
ARC
  5
FBB0
  8
0
 10
392.0691064167340869
 20
75.7585522518569974
 30
0.0
 40
0.0203546606754389
 50
165.7739437352281868
 51
198.9592724227404119
  0
ARC
  5
FBB1
  8
0
 10
392.0810539840704223
 20
75.7626566319258785
 30
0.0
 40
0.0329875661609156
 50
198.9592724227389056
 51
225.4119522044190944
  0
ARC
  5
FBB2
  8
0
 10
392.1188956990309862
 20
75.8010464551698817
 30
0.0
 40
0.0868927970746196
 50
225.4119522044150017
 51
240.2526582686809036
  0
ARC
  5
FBB3
  8
0
 10
392.1802397812789991
 20
75.9083878981483338
 30
0.0
 40
0.2105264567614319
 50
240.2526582686809036
 51
256.4630911895403074
  0
ARC
  5
FBB4
  8
0
 10
392.4653783670437974
 20
77.0927141140280128
 30
0.0
 40
1.4286941786748839
 50
256.4630911895403074
 51
259.160823521069176
  0
ARC
  5
FBB5
  8
0
 10
392.2869417453878214
 20
76.1607790106582314
 30
0.0
 40
0.4798302975829442
 50
259.160823521069176
 51
266.5818269672133738
  0
ARC
  5
FBB6
  8
0
 10
392.3617481502326996
 20
76.8220609855237484
 30
0.0
 40
1.1449386409834279
 50
264.8177589466218933
 51
269.1336215023885075
  0
ARC
  5
FBB7
  8
0
 10
392.3637294556874053
 20
76.8948080023830869
 30
0.0
 40
1.217707618481499
 50
269.0921637527529811
 51
270.0012851539913186
  0
LINE
  5
FBB8
  8
0
 10
392.3523916094915194
 20
75.8295999241876189
 30
0.0
 11
392.3751219349915118
 21
75.8295999241876189
 31
0.0
  0
LINE
  5
FBB9
  8
0
 10
392.3751219349915118
 20
75.8295999241876189
 30
0.0
 11
392.3864870977914734
 21
75.8245050610876206
 31
0.0
  0
LINE
  5
FBBA
  8
0
 10
392.3864870977914734
 20
75.8245050610876206
 30
0.0
 11
392.3751219349915118
 21
75.8194101979876223
 31
0.0
  0
LINE
  5
FBBB
  8
0
 10
392.3751219349915118
 20
75.8194101979876223
 30
0.0
 11
392.3523916094915194
 21
75.8194101979876223
 31
0.0
  0
LINE
  5
FBBC
  8
0
 10
392.3523916094915194
 20
75.8194101979876223
 30
0.0
 11
392.341026446691501
 21
75.8245050610876206
 31
0.0
  0
LINE
  5
FBBD
  8
0
 10
392.341026446691501
 20
75.8245050610876206
 30
0.0
 11
392.3523916094915194
 21
75.8295999241876189
 31
0.0
  0
LINE
  5
FBBE
  8
0
 10
392.3523916094915194
 20
75.8295999241876189
 30
0.0
 11
392.3523916094915194
 21
75.8194101979876223
 31
0.0
  0
LINE
  5
FBBF
  8
0
 10
392.3751219349915118
 20
75.8194101979876223
 30
0.0
 11
392.3751219349915118
 21
75.8295999241876189
 31
0.0
  0
LINE
  5
FBC0
  8
0
 10
392.3523916094915194
 20
75.8178817390876247
 30
0.0
 11
392.3751219349915118
 21
75.8178817390876247
 31
0.0
  0
LINE
  5
FBC1
  8
0
 10
392.3751219349915118
 20
75.8178817390876247
 30
0.0
 11
392.3864870977914734
 21
75.8127868759876264
 31
0.0
  0
LINE
  5
FBC2
  8
0
 10
392.3864870977914734
 20
75.8127868759876264
 30
0.0
 11
392.3751219349915118
 21
75.8076920128876282
 31
0.0
  0
LINE
  5
FBC3
  8
0
 10
392.3751219349915118
 20
75.8076920128876282
 30
0.0
 11
392.3523916094915194
 21
75.8076920128876282
 31
0.0
  0
LINE
  5
FBC4
  8
0
 10
392.3523916094915194
 20
75.8076920128876282
 30
0.0
 11
392.341026446691501
 21
75.8127868759876264
 31
0.0
  0
LINE
  5
FBC5
  8
0
 10
392.341026446691501
 20
75.8127868759876264
 30
0.0
 11
392.3523916094915194
 21
75.8178817390876247
 31
0.0
  0
LINE
  5
FBC6
  8
0
 10
392.3523916094915194
 20
75.8178817390876247
 30
0.0
 11
392.3523916094915194
 21
75.8076920128876282
 31
0.0
  0
LINE
  5
FBC7
  8
0
 10
392.3751219349915118
 20
75.8076920128876282
 30
0.0
 11
392.3751219349915118
 21
75.8178817390876247
 31
0.0
  0
LINE
  5
FBC8
  8
0
 10
392.3523916094915194
 20
75.8061635538876146
 30
0.0
 11
392.3751219349915118
 21
75.8061635538876146
 31
0.0
  0
LINE
  5
FBC9
  8
0
 10
392.3751219349915118
 20
75.8061635538876146
 30
0.0
 11
392.3864870977914734
 21
75.8010686907876305
 31
0.0
  0
LINE
  5
FBCA
  8
0
 10
392.3864870977914734
 20
75.8010686907876305
 30
0.0
 11
392.3751219349915118
 21
75.795973827687618
 31
0.0
  0
LINE
  5
FBCB
  8
0
 10
392.3751219349915118
 20
75.795973827687618
 30
0.0
 11
392.3523916094915194
 21
75.795973827687618
 31
0.0
  0
LINE
  5
FBCC
  8
0
 10
392.3523916094915194
 20
75.795973827687618
 30
0.0
 11
392.341026446691501
 21
75.8010686907876305
 31
0.0
  0
LINE
  5
FBCD
  8
0
 10
392.341026446691501
 20
75.8010686907876305
 30
0.0
 11
392.3523916094915194
 21
75.8061635538876146
 31
0.0
  0
LINE
  5
FBCE
  8
0
 10
392.3523916094915194
 20
75.8061635538876146
 30
0.0
 11
392.3523916094915194
 21
75.795973827687618
 31
0.0
  0
LINE
  5
FBCF
  8
0
 10
392.3751219349915118
 20
75.795973827687618
 30
0.0
 11
392.3751219349915118
 21
75.8061635538876146
 31
0.0
  0
LINE
  5
FBD0
  8
0
 10
392.3523916094915194
 20
75.7944453687876205
 30
0.0
 11
392.3751219349915118
 21
75.7944453687876205
 31
0.0
  0
LINE
  5
FBD1
  8
0
 10
392.3751219349915118
 20
75.7944453687876205
 30
0.0
 11
392.3864870977914734
 21
75.7893505056876222
 31
0.0
  0
LINE
  5
FBD2
  8
0
 10
392.3864870977914734
 20
75.7893505056876222
 30
0.0
 11
392.3751219349915118
 21
75.7842556425876239
 31
0.0
  0
LINE
  5
FBD3
  8
0
 10
392.3751219349915118
 20
75.7842556425876239
 30
0.0
 11
392.3523916094915194
 21
75.7842556425876239
 31
0.0
  0
LINE
  5
FBD4
  8
0
 10
392.3523916094915194
 20
75.7842556425876239
 30
0.0
 11
392.341026446691501
 21
75.7893505056876222
 31
0.0
  0
LINE
  5
FBD5
  8
0
 10
392.341026446691501
 20
75.7893505056876222
 30
0.0
 11
392.3523916094915194
 21
75.7944453687876205
 31
0.0
  0
LINE
  5
FBD6
  8
0
 10
392.3523916094915194
 20
75.7944453687876205
 30
0.0
 11
392.3523916094915194
 21
75.7842556425876239
 31
0.0
  0
LINE
  5
FBD7
  8
0
 10
392.3751219349915118
 20
75.7842556425876239
 30
0.0
 11
392.3751219349915118
 21
75.7944453687876205
 31
0.0
  0
LINE
  5
FBD8
  8
0
 10
392.3523916094915194
 20
75.7710089985876323
 30
0.0
 11
392.3751219349915118
 21
75.7710089985876323
 31
0.0
  0
LINE
  5
FBD9
  8
0
 10
392.3751219349915118
 20
75.7710089985876323
 30
0.0
 11
392.3864870977914734
 21
75.765914135487634
 31
0.0
  0
LINE
  5
FBDA
  8
0
 10
392.3864870977914734
 20
75.765914135487634
 30
0.0
 11
392.3751219349915118
 21
75.7608192723876215
 31
0.0
  0
LINE
  5
FBDB
  8
0
 10
392.3751219349915118
 20
75.7608192723876215
 30
0.0
 11
392.3523916094915194
 21
75.7608192723876215
 31
0.0
  0
LINE
  5
FBDC
  8
0
 10
392.3523916094915194
 20
75.7608192723876215
 30
0.0
 11
392.341026446691501
 21
75.765914135487634
 31
0.0
  0
LINE
  5
FBDD
  8
0
 10
392.341026446691501
 20
75.765914135487634
 30
0.0
 11
392.3523916094915194
 21
75.7710089985876323
 31
0.0
  0
LINE
  5
FBDE
  8
0
 10
392.3523916094915194
 20
75.7710089985876323
 30
0.0
 11
392.3523916094915194
 21
75.7608192723876215
 31
0.0
  0
LINE
  5
FBDF
  8
0
 10
392.3751219349915118
 20
75.7608192723876215
 30
0.0
 11
392.3751219349915118
 21
75.7710089985876323
 31
0.0
  0
LINE
  5
FBE0
  8
0
 10
392.3523916094915194
 20
75.759290813487624
 30
0.0
 11
392.3751219349915118
 21
75.759290813487624
 31
0.0
  0
LINE
  5
FBE1
  8
0
 10
392.3751219349915118
 20
75.759290813487624
 30
0.0
 11
392.3864870977914734
 21
75.7541959503876257
 31
0.0
  0
LINE
  5
FBE2
  8
0
 10
392.3864870977914734
 20
75.7541959503876257
 30
0.0
 11
392.3751219349915118
 21
75.7491010872876132
 31
0.0
  0
LINE
  5
FBE3
  8
0
 10
392.3751219349915118
 20
75.7491010872876132
 30
0.0
 11
392.3523916094915194
 21
75.7491010872876132
 31
0.0
  0
LINE
  5
FBE4
  8
0
 10
392.3523916094915194
 20
75.7491010872876132
 30
0.0
 11
392.341026446691501
 21
75.7541959503876257
 31
0.0
  0
LINE
  5
FBE5
  8
0
 10
392.341026446691501
 20
75.7541959503876257
 30
0.0
 11
392.3523916094915194
 21
75.759290813487624
 31
0.0
  0
LINE
  5
FBE6
  8
0
 10
392.3523916094915194
 20
75.759290813487624
 30
0.0
 11
392.3523916094915194
 21
75.7491010872876132
 31
0.0
  0
LINE
  5
FBE7
  8
0
 10
392.3751219349915118
 20
75.7491010872876132
 30
0.0
 11
392.3751219349915118
 21
75.759290813487624
 31
0.0
  0
LINE
  5
FBE8
  8
0
 10
392.3523916094915194
 20
75.7475726283876298
 30
0.0
 11
392.3751219349915118
 21
75.7475726283876298
 31
0.0
  0
LINE
  5
FBE9
  8
0
 10
392.3751219349915118
 20
75.7475726283876298
 30
0.0
 11
392.3864870977914734
 21
75.7424777652876315
 31
0.0
  0
LINE
  5
FBEA
  8
0
 10
392.3864870977914734
 20
75.7424777652876315
 30
0.0
 11
392.3751219349915118
 21
75.737382902187619
 31
0.0
  0
LINE
  5
FBEB
  8
0
 10
392.3751219349915118
 20
75.737382902187619
 30
0.0
 11
392.3523916094915194
 21
75.737382902187619
 31
0.0
  0
LINE
  5
FBEC
  8
0
 10
392.3523916094915194
 20
75.737382902187619
 30
0.0
 11
392.341026446691501
 21
75.7424777652876315
 31
0.0
  0
LINE
  5
FBED
  8
0
 10
392.341026446691501
 20
75.7424777652876315
 30
0.0
 11
392.3523916094915194
 21
75.7475726283876298
 31
0.0
  0
LINE
  5
FBEE
  8
0
 10
392.3523916094915194
 20
75.7475726283876298
 30
0.0
 11
392.3523916094915194
 21
75.737382902187619
 31
0.0
  0
LINE
  5
FBEF
  8
0
 10
392.3751219349915118
 20
75.737382902187619
 30
0.0
 11
392.3751219349915118
 21
75.7475726283876298
 31
0.0
  0
LINE
  5
FBF0
  8
0
 10
392.3523916094915194
 20
75.7358544432876215
 30
0.0
 11
392.3751219349915118
 21
75.7358544432876215
 31
0.0
  0
LINE
  5
FBF1
  8
0
 10
392.3751219349915118
 20
75.7358544432876215
 30
0.0
 11
392.3864870977914734
 21
75.7307595801876232
 31
0.0
  0
LINE
  5
FBF2
  8
0
 10
392.3864870977914734
 20
75.7307595801876232
 30
0.0
 11
392.3751219349915118
 21
75.7256647170876249
 31
0.0
  0
LINE
  5
FBF3
  8
0
 10
392.3751219349915118
 20
75.7256647170876249
 30
0.0
 11
392.3523916094915194
 21
75.7256647170876249
 31
0.0
  0
LINE
  5
FBF4
  8
0
 10
392.3523916094915194
 20
75.7256647170876249
 30
0.0
 11
392.341026446691501
 21
75.7307595801876232
 31
0.0
  0
LINE
  5
FBF5
  8
0
 10
392.341026446691501
 20
75.7307595801876232
 30
0.0
 11
392.3523916094915194
 21
75.7358544432876215
 31
0.0
  0
LINE
  5
FBF6
  8
0
 10
392.3523916094915194
 20
75.7358544432876215
 30
0.0
 11
392.3523916094915194
 21
75.7256647170876249
 31
0.0
  0
LINE
  5
FBF7
  8
0
 10
392.3751219349915118
 20
75.7256647170876249
 30
0.0
 11
392.3751219349915118
 21
75.7358544432876215
 31
0.0
  0
LINE
  5
FBF8
  8
0
 10
392.3523916094915194
 20
75.7241362581876274
 30
0.0
 11
392.3751219349915118
 21
75.7241362581876274
 31
0.0
  0
LINE
  5
FBF9
  8
0
 10
392.3751219349915118
 20
75.7241362581876274
 30
0.0
 11
392.3864870977914734
 21
75.7190413950876291
 31
0.0
  0
LINE
  5
FBFA
  8
0
 10
392.3864870977914734
 20
75.7190413950876291
 30
0.0
 11
392.3751219349915118
 21
75.7139465319876308
 31
0.0
  0
LINE
  5
FBFB
  8
0
 10
392.3751219349915118
 20
75.7139465319876308
 30
0.0
 11
392.3523916094915194
 21
75.7139465319876308
 31
0.0
  0
LINE
  5
FBFC
  8
0
 10
392.3523916094915194
 20
75.7139465319876308
 30
0.0
 11
392.341026446691501
 21
75.7190413950876291
 31
0.0
  0
LINE
  5
FBFD
  8
0
 10
392.341026446691501
 20
75.7190413950876291
 30
0.0
 11
392.3523916094915194
 21
75.7241362581876274
 31
0.0
  0
LINE
  5
FBFE
  8
0
 10
392.3523916094915194
 20
75.7241362581876274
 30
0.0
 11
392.3523916094915194
 21
75.7139465319876308
 31
0.0
  0
LINE
  5
FBFF
  8
0
 10
392.3751219349915118
 20
75.7139465319876308
 30
0.0
 11
392.3751219349915118
 21
75.7241362581876274
 31
0.0
  0
LINE
  5
FC00
  8
0
 10
392.3523916094915194
 20
75.7124180729876315
 30
0.0
 11
392.3751219349915118
 21
75.7124180729876315
 31
0.0
  0
LINE
  5
FC01
  8
0
 10
392.3751219349915118
 20
75.7124180729876315
 30
0.0
 11
392.3864870977914734
 21
75.707323209887619
 31
0.0
  0
LINE
  5
FC02
  8
0
 10
392.3864870977914734
 20
75.707323209887619
 30
0.0
 11
392.3751219349915118
 21
75.7022283467876207
 31
0.0
  0
LINE
  5
FC03
  8
0
 10
392.3751219349915118
 20
75.7022283467876207
 30
0.0
 11
392.3523916094915194
 21
75.7022283467876207
 31
0.0
  0
LINE
  5
FC04
  8
0
 10
392.3523916094915194
 20
75.7022283467876207
 30
0.0
 11
392.341026446691501
 21
75.707323209887619
 31
0.0
  0
LINE
  5
FC05
  8
0
 10
392.341026446691501
 20
75.707323209887619
 30
0.0
 11
392.3523916094915194
 21
75.7124180729876315
 31
0.0
  0
LINE
  5
FC06
  8
0
 10
392.3523916094915194
 20
75.7124180729876315
 30
0.0
 11
392.3523916094915194
 21
75.7022283467876207
 31
0.0
  0
LINE
  5
FC07
  8
0
 10
392.3751219349915118
 20
75.7022283467876207
 30
0.0
 11
392.3751219349915118
 21
75.7124180729876315
 31
0.0
  0
LINE
  5
FC08
  8
0
 10
392.3131817978915024
 20
75.7182771655876223
 30
0.0
 11
392.3359121233914948
 21
75.7182771655876223
 31
0.0
  0
LINE
  5
FC09
  8
0
 10
392.3359121233914948
 20
75.7182771655876223
 30
0.0
 11
392.3472772861915132
 21
75.713182302487624
 31
0.0
  0
LINE
  5
FC0A
  8
0
 10
392.3472772861915132
 20
75.713182302487624
 30
0.0
 11
392.3359121233914948
 21
75.7080874393876257
 31
0.0
  0
LINE
  5
FC0B
  8
0
 10
392.3359121233914948
 20
75.7080874393876257
 30
0.0
 11
392.3131817978915024
 21
75.7080874393876257
 31
0.0
  0
LINE
  5
FC0C
  8
0
 10
392.3131817978915024
 20
75.7080874393876257
 30
0.0
 11
392.3018166350914839
 21
75.713182302487624
 31
0.0
  0
LINE
  5
FC0D
  8
0
 10
392.3018166350914839
 20
75.713182302487624
 30
0.0
 11
392.3131817978915024
 21
75.7182771655876223
 31
0.0
  0
LINE
  5
FC0E
  8
0
 10
392.3131817978915024
 20
75.7182771655876223
 30
0.0
 11
392.3131817978915024
 21
75.7080874393876257
 31
0.0
  0
LINE
  5
FC0F
  8
0
 10
392.3359121233914948
 20
75.7080874393876257
 30
0.0
 11
392.3359121233914948
 21
75.7182771655876223
 31
0.0
  0
LINE
  5
FC10
  8
0
 10
392.3131817978915024
 20
75.7299953506876307
 30
0.0
 11
392.3359121233914948
 21
75.7299953506876307
 31
0.0
  0
LINE
  5
FC11
  8
0
 10
392.3359121233914948
 20
75.7299953506876307
 30
0.0
 11
392.3472772861915132
 21
75.7249004875876324
 31
0.0
  0
LINE
  5
FC12
  8
0
 10
392.3472772861915132
 20
75.7249004875876324
 30
0.0
 11
392.3359121233914948
 21
75.7198056244876341
 31
0.0
  0
LINE
  5
FC13
  8
0
 10
392.3359121233914948
 20
75.7198056244876341
 30
0.0
 11
392.3131817978915024
 21
75.7198056244876199
 31
0.0
  0
LINE
  5
FC14
  8
0
 10
392.3131817978915024
 20
75.7198056244876199
 30
0.0
 11
392.3018166350914839
 21
75.7249004875876324
 31
0.0
  0
LINE
  5
FC15
  8
0
 10
392.3018166350914839
 20
75.7249004875876324
 30
0.0
 11
392.3131817978915024
 21
75.7299953506876307
 31
0.0
  0
LINE
  5
FC16
  8
0
 10
392.3131817978915024
 20
75.7299953506876307
 30
0.0
 11
392.3131817978915024
 21
75.7198056244876199
 31
0.0
  0
LINE
  5
FC17
  8
0
 10
392.3359121233914948
 20
75.7198056244876341
 30
0.0
 11
392.3359121233914948
 21
75.7299953506876307
 31
0.0
  0
LINE
  5
FC18
  8
0
 10
392.3131817978915024
 20
75.7417135357876248
 30
0.0
 11
392.3359121233914948
 21
75.7417135357876248
 31
0.0
  0
LINE
  5
FC19
  8
0
 10
392.3359121233914948
 20
75.7417135357876248
 30
0.0
 11
392.3472772861915132
 21
75.7366186726876265
 31
0.0
  0
LINE
  5
FC1A
  8
0
 10
392.3472772861915132
 20
75.7366186726876265
 30
0.0
 11
392.3359121233914948
 21
75.7315238095876282
 31
0.0
  0
LINE
  5
FC1B
  8
0
 10
392.3359121233914948
 20
75.7315238095876282
 30
0.0
 11
392.3131817978915024
 21
75.7315238095876282
 31
0.0
  0
LINE
  5
FC1C
  8
0
 10
392.3131817978915024
 20
75.7315238095876282
 30
0.0
 11
392.3018166350914839
 21
75.7366186726876265
 31
0.0
  0
LINE
  5
FC1D
  8
0
 10
392.3018166350914839
 20
75.7366186726876265
 30
0.0
 11
392.3131817978915024
 21
75.7417135357876248
 31
0.0
  0
LINE
  5
FC1E
  8
0
 10
392.3131817978915024
 20
75.7417135357876248
 30
0.0
 11
392.3131817978915024
 21
75.7315238095876282
 31
0.0
  0
LINE
  5
FC1F
  8
0
 10
392.3359121233914948
 20
75.7315238095876282
 30
0.0
 11
392.3359121233914948
 21
75.7417135357876248
 31
0.0
  0
LINE
  5
FC20
  8
0
 10
392.3131817978915024
 20
75.765149906087629
 30
0.0
 11
392.3359121233914948
 21
75.765149906087629
 31
0.0
  0
LINE
  5
FC21
  8
0
 10
392.3359121233914948
 20
75.765149906087629
 30
0.0
 11
392.3472772861915132
 21
75.7600550429876307
 31
0.0
  0
LINE
  5
FC22
  8
0
 10
392.3472772861915132
 20
75.7600550429876307
 30
0.0
 11
392.3359121233914948
 21
75.7549601798876324
 31
0.0
  0
LINE
  5
FC23
  8
0
 10
392.3359121233914948
 20
75.7549601798876324
 30
0.0
 11
392.3131817978915024
 21
75.7549601798876324
 31
0.0
  0
LINE
  5
FC24
  8
0
 10
392.3131817978915024
 20
75.7549601798876324
 30
0.0
 11
392.3018166350914839
 21
75.7600550429876307
 31
0.0
  0
LINE
  5
FC25
  8
0
 10
392.3018166350914839
 20
75.7600550429876307
 30
0.0
 11
392.3131817978915024
 21
75.765149906087629
 31
0.0
  0
LINE
  5
FC26
  8
0
 10
392.3131817978915024
 20
75.765149906087629
 30
0.0
 11
392.3131817978915024
 21
75.7549601798876324
 31
0.0
  0
LINE
  5
FC27
  8
0
 10
392.3359121233914948
 20
75.7549601798876324
 30
0.0
 11
392.3359121233914948
 21
75.765149906087629
 31
0.0
  0
LINE
  5
FC28
  8
0
 10
392.3131817978915024
 20
75.7768680911876231
 30
0.0
 11
392.3359121233914948
 21
75.7768680911876231
 31
0.0
  0
LINE
  5
FC29
  8
0
 10
392.3359121233914948
 20
75.7768680911876231
 30
0.0
 11
392.3472772861915132
 21
75.7717732280876248
 31
0.0
  0
LINE
  5
FC2A
  8
0
 10
392.3472772861915132
 20
75.7717732280876248
 30
0.0
 11
392.3359121233914948
 21
75.7666783649876265
 31
0.0
  0
LINE
  5
FC2B
  8
0
 10
392.3359121233914948
 20
75.7666783649876265
 30
0.0
 11
392.3131817978915024
 21
75.7666783649876265
 31
0.0
  0
LINE
  5
FC2C
  8
0
 10
392.3131817978915024
 20
75.7666783649876265
 30
0.0
 11
392.3018166350914839
 21
75.7717732280876248
 31
0.0
  0
LINE
  5
FC2D
  8
0
 10
392.3018166350914839
 20
75.7717732280876248
 30
0.0
 11
392.3131817978915024
 21
75.7768680911876231
 31
0.0
  0
LINE
  5
FC2E
  8
0
 10
392.3131817978915024
 20
75.7768680911876231
 30
0.0
 11
392.3131817978915024
 21
75.7666783649876265
 31
0.0
  0
LINE
  5
FC2F
  8
0
 10
392.3359121233914948
 20
75.7666783649876265
 30
0.0
 11
392.3359121233914948
 21
75.7768680911876231
 31
0.0
  0
LINE
  5
FC30
  8
0
 10
392.3131817978915024
 20
75.788586276287603
 30
0.0
 11
392.3359121233914948
 21
75.788586276287603
 31
0.0
  0
LINE
  5
FC31
  8
0
 10
392.3359121233914948
 20
75.788586276287603
 30
0.0
 11
392.3472772861915132
 21
75.7834914131876189
 31
0.0
  0
LINE
  5
FC32
  8
0
 10
392.3472772861915132
 20
75.7834914131876189
 30
0.0
 11
392.3359121233914948
 21
75.7783965500876207
 31
0.0
  0
LINE
  5
FC33
  8
0
 10
392.3359121233914948
 20
75.7783965500876207
 30
0.0
 11
392.3131817978915024
 21
75.7783965500876207
 31
0.0
  0
LINE
  5
FC34
  8
0
 10
392.3131817978915024
 20
75.7783965500876207
 30
0.0
 11
392.3018166350914839
 21
75.7834914131876189
 31
0.0
  0
LINE
  5
FC35
  8
0
 10
392.3018166350914839
 20
75.7834914131876189
 30
0.0
 11
392.3131817978915024
 21
75.788586276287603
 31
0.0
  0
LINE
  5
FC36
  8
0
 10
392.3131817978915024
 20
75.788586276287603
 30
0.0
 11
392.3131817978915024
 21
75.7783965500876207
 31
0.0
  0
LINE
  5
FC37
  8
0
 10
392.3359121233914948
 20
75.7783965500876207
 30
0.0
 11
392.3359121233914948
 21
75.788586276287603
 31
0.0
  0
LINE
  5
FC38
  8
0
 10
392.3131817978915024
 20
75.8003044613876256
 30
0.0
 11
392.3359121233914948
 21
75.8003044613876256
 31
0.0
  0
LINE
  5
FC39
  8
0
 10
392.3359121233914948
 20
75.8003044613876256
 30
0.0
 11
392.3472772861915132
 21
75.7952095982876131
 31
0.0
  0
LINE
  5
FC3A
  8
0
 10
392.3472772861915132
 20
75.7952095982876131
 30
0.0
 11
392.3359121233914948
 21
75.790114735187629
 31
0.0
  0
LINE
  5
FC3B
  8
0
 10
392.3359121233914948
 20
75.790114735187629
 30
0.0
 11
392.3131817978915024
 21
75.790114735187629
 31
0.0
  0
LINE
  5
FC3C
  8
0
 10
392.3131817978915024
 20
75.790114735187629
 30
0.0
 11
392.3018166350914839
 21
75.7952095982876131
 31
0.0
  0
LINE
  5
FC3D
  8
0
 10
392.3018166350914839
 20
75.7952095982876131
 30
0.0
 11
392.3131817978915024
 21
75.8003044613876256
 31
0.0
  0
LINE
  5
FC3E
  8
0
 10
392.3131817978915024
 20
75.8003044613876256
 30
0.0
 11
392.3131817978915024
 21
75.790114735187629
 31
0.0
  0
LINE
  5
FC3F
  8
0
 10
392.3359121233914948
 20
75.790114735187629
 30
0.0
 11
392.3359121233914948
 21
75.8003044613876256
 31
0.0
  0
LINE
  5
FC40
  8
0
 10
392.3131817978915024
 20
75.8120226464876339
 30
0.0
 11
392.3359121233914948
 21
75.8120226464876339
 31
0.0
  0
LINE
  5
FC41
  8
0
 10
392.3359121233914948
 20
75.8120226464876339
 30
0.0
 11
392.3472772861915132
 21
75.8069277833876214
 31
0.0
  0
LINE
  5
FC42
  8
0
 10
392.3472772861915132
 20
75.8069277833876214
 30
0.0
 11
392.3359121233914948
 21
75.8018329202876231
 31
0.0
  0
LINE
  5
FC43
  8
0
 10
392.3359121233914948
 20
75.8018329202876231
 30
0.0
 11
392.3131817978915024
 21
75.8018329202876231
 31
0.0
  0
LINE
  5
FC44
  8
0
 10
392.3131817978915024
 20
75.8018329202876231
 30
0.0
 11
392.3018166350914839
 21
75.8069277833876214
 31
0.0
  0
LINE
  5
FC45
  8
0
 10
392.3018166350914839
 20
75.8069277833876214
 30
0.0
 11
392.3131817978915024
 21
75.8120226464876339
 31
0.0
  0
LINE
  5
FC46
  8
0
 10
392.3131817978915024
 20
75.8120226464876339
 30
0.0
 11
392.3131817978915024
 21
75.8018329202876231
 31
0.0
  0
LINE
  5
FC47
  8
0
 10
392.3359121233914948
 20
75.8018329202876231
 30
0.0
 11
392.3359121233914948
 21
75.8120226464876339
 31
0.0
  0
LINE
  5
FC48
  8
0
 10
392.3131817978915024
 20
75.823740831587628
 30
0.0
 11
392.3359121233914948
 21
75.823740831587628
 31
0.0
  0
LINE
  5
FC49
  8
0
 10
392.3359121233914948
 20
75.823740831587628
 30
0.0
 11
392.3472772861915132
 21
75.8186459684876297
 31
0.0
  0
LINE
  5
FC4A
  8
0
 10
392.3472772861915132
 20
75.8186459684876297
 30
0.0
 11
392.3359121233914948
 21
75.8135511053876314
 31
0.0
  0
LINE
  5
FC4B
  8
0
 10
392.3359121233914948
 20
75.8135511053876314
 30
0.0
 11
392.3131817978915024
 21
75.8135511053876314
 31
0.0
  0
LINE
  5
FC4C
  8
0
 10
392.3131817978915024
 20
75.8135511053876314
 30
0.0
 11
392.3018166350914839
 21
75.8186459684876297
 31
0.0
  0
LINE
  5
FC4D
  8
0
 10
392.3018166350914839
 20
75.8186459684876297
 30
0.0
 11
392.3131817978915024
 21
75.823740831587628
 31
0.0
  0
LINE
  5
FC4E
  8
0
 10
392.3131817978915024
 20
75.823740831587628
 30
0.0
 11
392.3131817978915024
 21
75.8135511053876314
 31
0.0
  0
LINE
  5
FC4F
  8
0
 10
392.3359121233914948
 20
75.8135511053876314
 30
0.0
 11
392.3359121233914948
 21
75.823740831587628
 31
0.0
  0
LINE
  5
FC50
  8
0
 10
392.3131817978915024
 20
75.8354590166876221
 30
0.0
 11
392.3359121233914948
 21
75.8354590166876221
 31
0.0
  0
LINE
  5
FC51
  8
0
 10
392.3359121233914948
 20
75.8354590166876221
 30
0.0
 11
392.3472772861915132
 21
75.8303641535876238
 31
0.0
  0
LINE
  5
FC52
  8
0
 10
392.3472772861915132
 20
75.8303641535876238
 30
0.0
 11
392.3359121233914948
 21
75.8252692904876255
 31
0.0
  0
LINE
  5
FC53
  8
0
 10
392.3359121233914948
 20
75.8252692904876255
 30
0.0
 11
392.3131817978915024
 21
75.8252692904876255
 31
0.0
  0
LINE
  5
FC54
  8
0
 10
392.3131817978915024
 20
75.8252692904876255
 30
0.0
 11
392.3018166350914839
 21
75.8303641535876238
 31
0.0
  0
LINE
  5
FC55
  8
0
 10
392.3018166350914839
 20
75.8303641535876238
 30
0.0
 11
392.3131817978915024
 21
75.8354590166876221
 31
0.0
  0
LINE
  5
FC56
  8
0
 10
392.3131817978915024
 20
75.8354590166876221
 30
0.0
 11
392.3131817978915024
 21
75.8252692904876255
 31
0.0
  0
LINE
  5
FC57
  8
0
 10
392.3359121233914948
 20
75.8252692904876255
 30
0.0
 11
392.3359121233914948
 21
75.8354590166876221
 31
0.0
  0
LINE
  5
FC58
  8
0
 10
392.2739719862914853
 20
75.8295999241876189
 30
0.0
 11
392.2967023117914778
 21
75.8295999241876189
 31
0.0
  0
LINE
  5
FC59
  8
0
 10
392.2967023117914778
 20
75.8295999241876189
 30
0.0
 11
392.3080674745914962
 21
75.8245050610876206
 31
0.0
  0
LINE
  5
FC5A
  8
0
 10
392.3080674745914962
 20
75.8245050610876206
 30
0.0
 11
392.2967023117914778
 21
75.8194101979876223
 31
0.0
  0
LINE
  5
FC5B
  8
0
 10
392.2967023117914778
 20
75.8194101979876223
 30
0.0
 11
392.2739719862914853
 21
75.8194101979876223
 31
0.0
  0
LINE
  5
FC5C
  8
0
 10
392.2739719862914853
 20
75.8194101979876223
 30
0.0
 11
392.2626068234915238
 21
75.8245050610876206
 31
0.0
  0
LINE
  5
FC5D
  8
0
 10
392.2626068234915238
 20
75.8245050610876206
 30
0.0
 11
392.2739719862914853
 21
75.8295999241876189
 31
0.0
  0
LINE
  5
FC5E
  8
0
 10
392.2739719862914853
 20
75.8295999241876189
 30
0.0
 11
392.2739719862914853
 21
75.8194101979876223
 31
0.0
  0
LINE
  5
FC5F
  8
0
 10
392.2967023117914778
 20
75.8194101979876223
 30
0.0
 11
392.2967023117914778
 21
75.8295999241876189
 31
0.0
  0
LINE
  5
FC60
  8
0
 10
392.2739719862914853
 20
75.8178817390876247
 30
0.0
 11
392.2967023117914778
 21
75.8178817390876247
 31
0.0
  0
LINE
  5
FC61
  8
0
 10
392.2967023117914778
 20
75.8178817390876247
 30
0.0
 11
392.3080674745914962
 21
75.8127868759876264
 31
0.0
  0
LINE
  5
FC62
  8
0
 10
392.3080674745914962
 20
75.8127868759876264
 30
0.0
 11
392.2967023117914778
 21
75.8076920128876282
 31
0.0
  0
LINE
  5
FC63
  8
0
 10
392.2967023117914778
 20
75.8076920128876282
 30
0.0
 11
392.2739719862914853
 21
75.8076920128876282
 31
0.0
  0
LINE
  5
FC64
  8
0
 10
392.2739719862914853
 20
75.8076920128876282
 30
0.0
 11
392.2626068234915238
 21
75.8127868759876264
 31
0.0
  0
LINE
  5
FC65
  8
0
 10
392.2626068234915238
 20
75.8127868759876264
 30
0.0
 11
392.2739719862914853
 21
75.8178817390876247
 31
0.0
  0
LINE
  5
FC66
  8
0
 10
392.2739719862914853
 20
75.8178817390876247
 30
0.0
 11
392.2739719862914853
 21
75.8076920128876282
 31
0.0
  0
LINE
  5
FC67
  8
0
 10
392.2967023117914778
 20
75.8076920128876282
 30
0.0
 11
392.2967023117914778
 21
75.8178817390876247
 31
0.0
  0
LINE
  5
FC68
  8
0
 10
392.2739719862914853
 20
75.7944453687876205
 30
0.0
 11
392.2967023117914778
 21
75.7944453687876205
 31
0.0
  0
LINE
  5
FC69
  8
0
 10
392.2967023117914778
 20
75.7944453687876205
 30
0.0
 11
392.3080674745914962
 21
75.7893505056876222
 31
0.0
  0
LINE
  5
FC6A
  8
0
 10
392.3080674745914962
 20
75.7893505056876222
 30
0.0
 11
392.2967023117914778
 21
75.7842556425876239
 31
0.0
  0
LINE
  5
FC6B
  8
0
 10
392.2967023117914778
 20
75.7842556425876239
 30
0.0
 11
392.2739719862914853
 21
75.7842556425876239
 31
0.0
  0
LINE
  5
FC6C
  8
0
 10
392.2739719862914853
 20
75.7842556425876239
 30
0.0
 11
392.2626068234915238
 21
75.7893505056876222
 31
0.0
  0
LINE
  5
FC6D
  8
0
 10
392.2626068234915238
 20
75.7893505056876222
 30
0.0
 11
392.2739719862914853
 21
75.7944453687876205
 31
0.0
  0
LINE
  5
FC6E
  8
0
 10
392.2739719862914853
 20
75.7944453687876205
 30
0.0
 11
392.2739719862914853
 21
75.7842556425876239
 31
0.0
  0
LINE
  5
FC6F
  8
0
 10
392.2967023117914778
 20
75.7842556425876239
 30
0.0
 11
392.2967023117914778
 21
75.7944453687876205
 31
0.0
  0
LINE
  5
FC70
  8
0
 10
392.2739719862914853
 20
75.7827271836876264
 30
0.0
 11
392.2967023117914778
 21
75.7827271836876264
 31
0.0
  0
LINE
  5
FC71
  8
0
 10
392.2967023117914778
 20
75.7827271836876264
 30
0.0
 11
392.3080674745914962
 21
75.7776323205876281
 31
0.0
  0
LINE
  5
FC72
  8
0
 10
392.3080674745914962
 20
75.7776323205876281
 30
0.0
 11
392.2967023117914778
 21
75.7725374574876156
 31
0.0
  0
LINE
  5
FC73
  8
0
 10
392.2967023117914778
 20
75.7725374574876156
 30
0.0
 11
392.2739719862914853
 21
75.7725374574876156
 31
0.0
  0
LINE
  5
FC74
  8
0
 10
392.2739719862914853
 20
75.7725374574876156
 30
0.0
 11
392.2626068234915238
 21
75.7776323205876281
 31
0.0
  0
LINE
  5
FC75
  8
0
 10
392.2626068234915238
 20
75.7776323205876281
 30
0.0
 11
392.2739719862914853
 21
75.7827271836876264
 31
0.0
  0
LINE
  5
FC76
  8
0
 10
392.2739719862914853
 20
75.7827271836876264
 30
0.0
 11
392.2739719862914853
 21
75.7725374574876156
 31
0.0
  0
LINE
  5
FC77
  8
0
 10
392.2967023117914778
 20
75.7725374574876156
 30
0.0
 11
392.2967023117914778
 21
75.7827271836876264
 31
0.0
  0
LINE
  5
FC78
  8
0
 10
392.2739719862914853
 20
75.7710089985876323
 30
0.0
 11
392.2967023117914778
 21
75.7710089985876323
 31
0.0
  0
LINE
  5
FC79
  8
0
 10
392.2967023117914778
 20
75.7710089985876323
 30
0.0
 11
392.3080674745914962
 21
75.765914135487634
 31
0.0
  0
LINE
  5
FC7A
  8
0
 10
392.3080674745914962
 20
75.765914135487634
 30
0.0
 11
392.2967023117914778
 21
75.7608192723876215
 31
0.0
  0
LINE
  5
FC7B
  8
0
 10
392.2967023117914778
 20
75.7608192723876215
 30
0.0
 11
392.2739719862914853
 21
75.7608192723876215
 31
0.0
  0
LINE
  5
FC7C
  8
0
 10
392.2739719862914853
 20
75.7608192723876215
 30
0.0
 11
392.2626068234915238
 21
75.765914135487634
 31
0.0
  0
LINE
  5
FC7D
  8
0
 10
392.2626068234915238
 20
75.765914135487634
 30
0.0
 11
392.2739719862914853
 21
75.7710089985876323
 31
0.0
  0
LINE
  5
FC7E
  8
0
 10
392.2739719862914853
 20
75.7710089985876323
 30
0.0
 11
392.2739719862914853
 21
75.7608192723876215
 31
0.0
  0
LINE
  5
FC7F
  8
0
 10
392.2967023117914778
 20
75.7608192723876215
 30
0.0
 11
392.2967023117914778
 21
75.7710089985876323
 31
0.0
  0
LINE
  5
FC80
  8
0
 10
392.2739719862914853
 20
75.759290813487624
 30
0.0
 11
392.2967023117914778
 21
75.759290813487624
 31
0.0
  0
LINE
  5
FC81
  8
0
 10
392.2967023117914778
 20
75.759290813487624
 30
0.0
 11
392.3080674745914962
 21
75.7541959503876257
 31
0.0
  0
LINE
  5
FC82
  8
0
 10
392.3080674745914962
 20
75.7541959503876257
 30
0.0
 11
392.2967023117914778
 21
75.7491010872876132
 31
0.0
  0
LINE
  5
FC83
  8
0
 10
392.2967023117914778
 20
75.7491010872876132
 30
0.0
 11
392.2739719862914853
 21
75.7491010872876132
 31
0.0
  0
LINE
  5
FC84
  8
0
 10
392.2739719862914853
 20
75.7491010872876132
 30
0.0
 11
392.2626068234915238
 21
75.7541959503876257
 31
0.0
  0
LINE
  5
FC85
  8
0
 10
392.2626068234915238
 20
75.7541959503876257
 30
0.0
 11
392.2739719862914853
 21
75.759290813487624
 31
0.0
  0
LINE
  5
FC86
  8
0
 10
392.2739719862914853
 20
75.759290813487624
 30
0.0
 11
392.2739719862914853
 21
75.7491010872876132
 31
0.0
  0
LINE
  5
FC87
  8
0
 10
392.2967023117914778
 20
75.7491010872876132
 30
0.0
 11
392.2967023117914778
 21
75.759290813487624
 31
0.0
  0
LINE
  5
FC88
  8
0
 10
392.2739719862914853
 20
75.7475726283876298
 30
0.0
 11
392.2967023117914778
 21
75.7475726283876298
 31
0.0
  0
LINE
  5
FC89
  8
0
 10
392.2967023117914778
 20
75.7475726283876298
 30
0.0
 11
392.3080674745914962
 21
75.7424777652876315
 31
0.0
  0
LINE
  5
FC8A
  8
0
 10
392.3080674745914962
 20
75.7424777652876315
 30
0.0
 11
392.2967023117914778
 21
75.737382902187619
 31
0.0
  0
LINE
  5
FC8B
  8
0
 10
392.2967023117914778
 20
75.737382902187619
 30
0.0
 11
392.2739719862914853
 21
75.737382902187619
 31
0.0
  0
LINE
  5
FC8C
  8
0
 10
392.2739719862914853
 20
75.737382902187619
 30
0.0
 11
392.2626068234915238
 21
75.7424777652876315
 31
0.0
  0
LINE
  5
FC8D
  8
0
 10
392.2626068234915238
 20
75.7424777652876315
 30
0.0
 11
392.2739719862914853
 21
75.7475726283876298
 31
0.0
  0
LINE
  5
FC8E
  8
0
 10
392.2739719862914853
 20
75.7475726283876298
 30
0.0
 11
392.2739719862914853
 21
75.737382902187619
 31
0.0
  0
LINE
  5
FC8F
  8
0
 10
392.2967023117914778
 20
75.737382902187619
 30
0.0
 11
392.2967023117914778
 21
75.7475726283876298
 31
0.0
  0
LINE
  5
FC90
  8
0
 10
392.2739719862914853
 20
75.7358544432876215
 30
0.0
 11
392.2967023117914778
 21
75.7358544432876215
 31
0.0
  0
LINE
  5
FC91
  8
0
 10
392.2967023117914778
 20
75.7358544432876215
 30
0.0
 11
392.3080674745914962
 21
75.7307595801876232
 31
0.0
  0
LINE
  5
FC92
  8
0
 10
392.3080674745914962
 20
75.7307595801876232
 30
0.0
 11
392.2967023117914778
 21
75.7256647170876249
 31
0.0
  0
LINE
  5
FC93
  8
0
 10
392.2967023117914778
 20
75.7256647170876249
 30
0.0
 11
392.2739719862914853
 21
75.7256647170876249
 31
0.0
  0
LINE
  5
FC94
  8
0
 10
392.2739719862914853
 20
75.7256647170876249
 30
0.0
 11
392.2626068234915238
 21
75.7307595801876232
 31
0.0
  0
LINE
  5
FC95
  8
0
 10
392.2626068234915238
 20
75.7307595801876232
 30
0.0
 11
392.2739719862914853
 21
75.7358544432876215
 31
0.0
  0
LINE
  5
FC96
  8
0
 10
392.2739719862914853
 20
75.7358544432876215
 30
0.0
 11
392.2739719862914853
 21
75.7256647170876249
 31
0.0
  0
LINE
  5
FC97
  8
0
 10
392.2967023117914778
 20
75.7256647170876249
 30
0.0
 11
392.2967023117914778
 21
75.7358544432876215
 31
0.0
  0
LINE
  5
FC98
  8
0
 10
392.2739719862914853
 20
75.7241362581876274
 30
0.0
 11
392.2967023117914778
 21
75.7241362581876274
 31
0.0
  0
LINE
  5
FC99
  8
0
 10
392.2967023117914778
 20
75.7241362581876274
 30
0.0
 11
392.3080674745914962
 21
75.7190413950876291
 31
0.0
  0
LINE
  5
FC9A
  8
0
 10
392.3080674745914962
 20
75.7190413950876291
 30
0.0
 11
392.2967023117914778
 21
75.7139465319876308
 31
0.0
  0
LINE
  5
FC9B
  8
0
 10
392.2967023117914778
 20
75.7139465319876308
 30
0.0
 11
392.2739719862914853
 21
75.7139465319876308
 31
0.0
  0
LINE
  5
FC9C
  8
0
 10
392.2739719862914853
 20
75.7139465319876308
 30
0.0
 11
392.2626068234915238
 21
75.7190413950876291
 31
0.0
  0
LINE
  5
FC9D
  8
0
 10
392.2626068234915238
 20
75.7190413950876291
 30
0.0
 11
392.2739719862914853
 21
75.7241362581876274
 31
0.0
  0
LINE
  5
FC9E
  8
0
 10
392.2739719862914853
 20
75.7241362581876274
 30
0.0
 11
392.2739719862914853
 21
75.7139465319876308
 31
0.0
  0
LINE
  5
FC9F
  8
0
 10
392.2967023117914778
 20
75.7139465319876308
 30
0.0
 11
392.2967023117914778
 21
75.7241362581876274
 31
0.0
  0
LINE
  5
FCA0
  8
0
 10
392.2739719862914853
 20
75.7124180729876315
 30
0.0
 11
392.2967023117914778
 21
75.7124180729876315
 31
0.0
  0
LINE
  5
FCA1
  8
0
 10
392.2967023117914778
 20
75.7124180729876315
 30
0.0
 11
392.3080674745914962
 21
75.707323209887619
 31
0.0
  0
LINE
  5
FCA2
  8
0
 10
392.3080674745914962
 20
75.707323209887619
 30
0.0
 11
392.2967023117914778
 21
75.7022283467876207
 31
0.0
  0
LINE
  5
FCA3
  8
0
 10
392.2967023117914778
 20
75.7022283467876207
 30
0.0
 11
392.2739719862914853
 21
75.7022283467876207
 31
0.0
  0
LINE
  5
FCA4
  8
0
 10
392.2739719862914853
 20
75.7022283467876207
 30
0.0
 11
392.2626068234915238
 21
75.707323209887619
 31
0.0
  0
LINE
  5
FCA5
  8
0
 10
392.2626068234915238
 20
75.707323209887619
 30
0.0
 11
392.2739719862914853
 21
75.7124180729876315
 31
0.0
  0
LINE
  5
FCA6
  8
0
 10
392.2739719862914853
 20
75.7124180729876315
 30
0.0
 11
392.2739719862914853
 21
75.7022283467876207
 31
0.0
  0
LINE
  5
FCA7
  8
0
 10
392.2967023117914778
 20
75.7022283467876207
 30
0.0
 11
392.2967023117914778
 21
75.7124180729876315
 31
0.0
  0
LINE
  5
FCA8
  8
0
 10
392.3131817978915024
 20
75.706558980487614
 30
0.0
 11
392.3359121233914948
 21
75.706558980487614
 31
0.0
  0
LINE
  5
FCA9
  8
0
 10
392.3359121233914948
 20
75.706558980487614
 30
0.0
 11
392.3472772861915132
 21
75.7014641173876299
 31
0.0
  0
LINE
  5
FCAA
  8
0
 10
392.3472772861915132
 20
75.7014641173876299
 30
0.0
 11
392.3359121233914948
 21
75.6963692542876316
 31
0.0
  0
LINE
  5
FCAB
  8
0
 10
392.3359121233914948
 20
75.6963692542876316
 30
0.0
 11
392.3131817978915024
 21
75.6963692542876174
 31
0.0
  0
LINE
  5
FCAC
  8
0
 10
392.3131817978915024
 20
75.6963692542876174
 30
0.0
 11
392.3018166350914839
 21
75.7014641173876299
 31
0.0
  0
LINE
  5
FCAD
  8
0
 10
392.3018166350914839
 20
75.7014641173876299
 30
0.0
 11
392.3131817978915024
 21
75.706558980487614
 31
0.0
  0
LINE
  5
FCAE
  8
0
 10
392.3131817978915024
 20
75.706558980487614
 30
0.0
 11
392.3131817978915024
 21
75.6963692542876174
 31
0.0
  0
LINE
  5
FCAF
  8
0
 10
392.3359121233914948
 20
75.6963692542876316
 30
0.0
 11
392.3359121233914948
 21
75.706558980487614
 31
0.0
  0
LINE
  5
FCB0
  8
0
 10
392.2347621746915252
 20
75.7182771655876223
 30
0.0
 11
392.2574925001915176
 21
75.7182771655876223
 31
0.0
  0
LINE
  5
FCB1
  8
0
 10
392.2574925001915176
 20
75.7182771655876223
 30
0.0
 11
392.2688576629914792
 21
75.713182302487624
 31
0.0
  0
LINE
  5
FCB2
  8
0
 10
392.2688576629914792
 20
75.713182302487624
 30
0.0
 11
392.2574925001915176
 21
75.7080874393876257
 31
0.0
  0
LINE
  5
FCB3
  8
0
 10
392.2574925001915176
 20
75.7080874393876257
 30
0.0
 11
392.2347621746915252
 21
75.7080874393876257
 31
0.0
  0
LINE
  5
FCB4
  8
0
 10
392.2347621746915252
 20
75.7080874393876257
 30
0.0
 11
392.2233970118915067
 21
75.713182302487624
 31
0.0
  0
LINE
  5
FCB5
  8
0
 10
392.2233970118915067
 20
75.713182302487624
 30
0.0
 11
392.2347621746915252
 21
75.7182771655876223
 31
0.0
  0
LINE
  5
FCB6
  8
0
 10
392.2347621746915252
 20
75.7182771655876223
 30
0.0
 11
392.2347621746915252
 21
75.7080874393876257
 31
0.0
  0
LINE
  5
FCB7
  8
0
 10
392.2574925001915176
 20
75.7080874393876257
 30
0.0
 11
392.2574925001915176
 21
75.7182771655876223
 31
0.0
  0
LINE
  5
FCB8
  8
0
 10
392.2347621746915252
 20
75.7299953506876307
 30
0.0
 11
392.2574925001915176
 21
75.7299953506876307
 31
0.0
  0
LINE
  5
FCB9
  8
0
 10
392.2574925001915176
 20
75.7299953506876307
 30
0.0
 11
392.2688576629914792
 21
75.7249004875876324
 31
0.0
  0
LINE
  5
FCBA
  8
0
 10
392.2688576629914792
 20
75.7249004875876324
 30
0.0
 11
392.2574925001915176
 21
75.7198056244876341
 31
0.0
  0
LINE
  5
FCBB
  8
0
 10
392.2574925001915176
 20
75.7198056244876341
 30
0.0
 11
392.2347621746915252
 21
75.7198056244876199
 31
0.0
  0
LINE
  5
FCBC
  8
0
 10
392.2347621746915252
 20
75.7198056244876199
 30
0.0
 11
392.2233970118915067
 21
75.7249004875876324
 31
0.0
  0
LINE
  5
FCBD
  8
0
 10
392.2233970118915067
 20
75.7249004875876324
 30
0.0
 11
392.2347621746915252
 21
75.7299953506876307
 31
0.0
  0
LINE
  5
FCBE
  8
0
 10
392.2347621746915252
 20
75.7299953506876307
 30
0.0
 11
392.2347621746915252
 21
75.7198056244876199
 31
0.0
  0
LINE
  5
FCBF
  8
0
 10
392.2574925001915176
 20
75.7198056244876341
 30
0.0
 11
392.2574925001915176
 21
75.7299953506876307
 31
0.0
  0
LINE
  5
FCC0
  8
0
 10
392.2347621746915252
 20
75.7417135357876248
 30
0.0
 11
392.2574925001915176
 21
75.7417135357876248
 31
0.0
  0
LINE
  5
FCC1
  8
0
 10
392.2574925001915176
 20
75.7417135357876248
 30
0.0
 11
392.2688576629914792
 21
75.7366186726876265
 31
0.0
  0
LINE
  5
FCC2
  8
0
 10
392.2688576629914792
 20
75.7366186726876265
 30
0.0
 11
392.2574925001915176
 21
75.7315238095876282
 31
0.0
  0
LINE
  5
FCC3
  8
0
 10
392.2574925001915176
 20
75.7315238095876282
 30
0.0
 11
392.2347621746915252
 21
75.7315238095876282
 31
0.0
  0
LINE
  5
FCC4
  8
0
 10
392.2347621746915252
 20
75.7315238095876282
 30
0.0
 11
392.2233970118915067
 21
75.7366186726876265
 31
0.0
  0
LINE
  5
FCC5
  8
0
 10
392.2233970118915067
 20
75.7366186726876265
 30
0.0
 11
392.2347621746915252
 21
75.7417135357876248
 31
0.0
  0
LINE
  5
FCC6
  8
0
 10
392.2347621746915252
 20
75.7417135357876248
 30
0.0
 11
392.2347621746915252
 21
75.7315238095876282
 31
0.0
  0
LINE
  5
FCC7
  8
0
 10
392.2574925001915176
 20
75.7315238095876282
 30
0.0
 11
392.2574925001915176
 21
75.7417135357876248
 31
0.0
  0
LINE
  5
FCC8
  8
0
 10
392.2347621746915252
 20
75.7534317208876189
 30
0.0
 11
392.2574925001915176
 21
75.7534317208876189
 31
0.0
  0
LINE
  5
FCC9
  8
0
 10
392.2574925001915176
 20
75.7534317208876189
 30
0.0
 11
392.2688576629914792
 21
75.7483368577876206
 31
0.0
  0
LINE
  5
FCCA
  8
0
 10
392.2688576629914792
 20
75.7483368577876206
 30
0.0
 11
392.2574925001915176
 21
75.7432419946876223
 31
0.0
  0
LINE
  5
FCCB
  8
0
 10
392.2574925001915176
 20
75.7432419946876223
 30
0.0
 11
392.2347621746915252
 21
75.7432419946876223
 31
0.0
  0
LINE
  5
FCCC
  8
0
 10
392.2347621746915252
 20
75.7432419946876223
 30
0.0
 11
392.2233970118915067
 21
75.7483368577876206
 31
0.0
  0
LINE
  5
FCCD
  8
0
 10
392.2233970118915067
 20
75.7483368577876206
 30
0.0
 11
392.2347621746915252
 21
75.7534317208876189
 31
0.0
  0
LINE
  5
FCCE
  8
0
 10
392.2347621746915252
 20
75.7534317208876189
 30
0.0
 11
392.2347621746915252
 21
75.7432419946876223
 31
0.0
  0
LINE
  5
FCCF
  8
0
 10
392.2574925001915176
 20
75.7432419946876223
 30
0.0
 11
392.2574925001915176
 21
75.7534317208876189
 31
0.0
  0
LINE
  5
FCD0
  8
0
 10
392.2347621746915252
 20
75.765149906087629
 30
0.0
 11
392.2574925001915176
 21
75.765149906087629
 31
0.0
  0
LINE
  5
FCD1
  8
0
 10
392.2574925001915176
 20
75.765149906087629
 30
0.0
 11
392.2688576629914792
 21
75.7600550429876307
 31
0.0
  0
LINE
  5
FCD2
  8
0
 10
392.2688576629914792
 20
75.7600550429876307
 30
0.0
 11
392.2574925001915176
 21
75.7549601798876324
 31
0.0
  0
LINE
  5
FCD3
  8
0
 10
392.2574925001915176
 20
75.7549601798876324
 30
0.0
 11
392.2347621746915252
 21
75.7549601798876324
 31
0.0
  0
LINE
  5
FCD4
  8
0
 10
392.2347621746915252
 20
75.7549601798876324
 30
0.0
 11
392.2233970118915067
 21
75.7600550429876307
 31
0.0
  0
LINE
  5
FCD5
  8
0
 10
392.2233970118915067
 20
75.7600550429876307
 30
0.0
 11
392.2347621746915252
 21
75.765149906087629
 31
0.0
  0
LINE
  5
FCD6
  8
0
 10
392.2347621746915252
 20
75.765149906087629
 30
0.0
 11
392.2347621746915252
 21
75.7549601798876324
 31
0.0
  0
LINE
  5
FCD7
  8
0
 10
392.2574925001915176
 20
75.7549601798876324
 30
0.0
 11
392.2574925001915176
 21
75.765149906087629
 31
0.0
  0
LINE
  5
FCD8
  8
0
 10
392.2341939165914937
 20
75.7766133480483148
 30
0.0
 11
392.2569242420914861
 21
75.7766133480483148
 31
0.0
  0
LINE
  5
FCD9
  8
0
 10
392.2569242420914861
 20
75.7766133480483148
 30
0.0
 11
392.2682894048915045
 21
75.7715184849483165
 31
0.0
  0
LINE
  5
FCDA
  8
0
 10
392.2682894048915045
 20
75.7715184849483165
 30
0.0
 11
392.2569242420914861
 21
75.7664236218483182
 31
0.0
  0
LINE
  5
FCDB
  8
0
 10
392.2569242420914861
 20
75.7664236218483182
 30
0.0
 11
392.2341939165914937
 21
75.7664236218483182
 31
0.0
  0
LINE
  5
FCDC
  8
0
 10
392.2341939165914937
 20
75.7664236218483182
 30
0.0
 11
392.2228287537914753
 21
75.7715184849483165
 31
0.0
  0
LINE
  5
FCDD
  8
0
 10
392.2228287537914753
 20
75.7715184849483165
 30
0.0
 11
392.2341939165914937
 21
75.7766133480483148
 31
0.0
  0
LINE
  5
FCDE
  8
0
 10
392.2341939165914937
 20
75.7766133480483148
 30
0.0
 11
392.2341939165914937
 21
75.7664236218483182
 31
0.0
  0
LINE
  5
FCDF
  8
0
 10
392.2569242420914861
 20
75.7664236218483182
 30
0.0
 11
392.2569242420914861
 21
75.7766133480483148
 31
0.0
  0
LINE
  5
FCE0
  8
0
 10
392.2347621746915252
 20
75.788586276287603
 30
0.0
 11
392.2574925001915176
 21
75.788586276287603
 31
0.0
  0
LINE
  5
FCE1
  8
0
 10
392.2574925001915176
 20
75.788586276287603
 30
0.0
 11
392.2688576629914792
 21
75.7834914131876189
 31
0.0
  0
LINE
  5
FCE2
  8
0
 10
392.2688576629914792
 20
75.7834914131876189
 30
0.0
 11
392.2574925001915176
 21
75.7783965500876207
 31
0.0
  0
LINE
  5
FCE3
  8
0
 10
392.2574925001915176
 20
75.7783965500876207
 30
0.0
 11
392.2347621746915252
 21
75.7783965500876207
 31
0.0
  0
LINE
  5
FCE4
  8
0
 10
392.2347621746915252
 20
75.7783965500876207
 30
0.0
 11
392.2233970118915067
 21
75.7834914131876189
 31
0.0
  0
LINE
  5
FCE5
  8
0
 10
392.2233970118915067
 20
75.7834914131876189
 30
0.0
 11
392.2347621746915252
 21
75.788586276287603
 31
0.0
  0
LINE
  5
FCE6
  8
0
 10
392.2347621746915252
 20
75.788586276287603
 30
0.0
 11
392.2347621746915252
 21
75.7783965500876207
 31
0.0
  0
LINE
  5
FCE7
  8
0
 10
392.2574925001915176
 20
75.7783965500876207
 30
0.0
 11
392.2574925001915176
 21
75.788586276287603
 31
0.0
  0
LINE
  5
FCE8
  8
0
 10
392.2347621746915252
 20
75.8003044613876256
 30
0.0
 11
392.2574925001915176
 21
75.8003044613876256
 31
0.0
  0
LINE
  5
FCE9
  8
0
 10
392.2574925001915176
 20
75.8003044613876256
 30
0.0
 11
392.2688576629914792
 21
75.7952095982876131
 31
0.0
  0
LINE
  5
FCEA
  8
0
 10
392.2688576629914792
 20
75.7952095982876131
 30
0.0
 11
392.2574925001915176
 21
75.790114735187629
 31
0.0
  0
LINE
  5
FCEB
  8
0
 10
392.2574925001915176
 20
75.790114735187629
 30
0.0
 11
392.2347621746915252
 21
75.790114735187629
 31
0.0
  0
LINE
  5
FCEC
  8
0
 10
392.2347621746915252
 20
75.790114735187629
 30
0.0
 11
392.2233970118915067
 21
75.7952095982876131
 31
0.0
  0
LINE
  5
FCED
  8
0
 10
392.2233970118915067
 20
75.7952095982876131
 30
0.0
 11
392.2347621746915252
 21
75.8003044613876256
 31
0.0
  0
LINE
  5
FCEE
  8
0
 10
392.2347621746915252
 20
75.8003044613876256
 30
0.0
 11
392.2347621746915252
 21
75.790114735187629
 31
0.0
  0
LINE
  5
FCEF
  8
0
 10
392.2574925001915176
 20
75.790114735187629
 30
0.0
 11
392.2574925001915176
 21
75.8003044613876256
 31
0.0
  0
LINE
  5
FCF0
  8
0
 10
392.2347621746915252
 20
75.8120226464876339
 30
0.0
 11
392.2574925001915176
 21
75.8120226464876339
 31
0.0
  0
LINE
  5
FCF1
  8
0
 10
392.2574925001915176
 20
75.8120226464876339
 30
0.0
 11
392.2688576629914792
 21
75.8069277833876214
 31
0.0
  0
LINE
  5
FCF2
  8
0
 10
392.2688576629914792
 20
75.8069277833876214
 30
0.0
 11
392.2574925001915176
 21
75.8018329202876231
 31
0.0
  0
LINE
  5
FCF3
  8
0
 10
392.2574925001915176
 20
75.8018329202876231
 30
0.0
 11
392.2347621746915252
 21
75.8018329202876231
 31
0.0
  0
LINE
  5
FCF4
  8
0
 10
392.2347621746915252
 20
75.8018329202876231
 30
0.0
 11
392.2233970118915067
 21
75.8069277833876214
 31
0.0
  0
LINE
  5
FCF5
  8
0
 10
392.2233970118915067
 20
75.8069277833876214
 30
0.0
 11
392.2347621746915252
 21
75.8120226464876339
 31
0.0
  0
LINE
  5
FCF6
  8
0
 10
392.2347621746915252
 20
75.8120226464876339
 30
0.0
 11
392.2347621746915252
 21
75.8018329202876231
 31
0.0
  0
LINE
  5
FCF7
  8
0
 10
392.2574925001915176
 20
75.8018329202876231
 30
0.0
 11
392.2574925001915176
 21
75.8120226464876339
 31
0.0
  0
LINE
  5
FCF8
  8
0
 10
392.2347621746915252
 20
75.823740831587628
 30
0.0
 11
392.2574925001915176
 21
75.823740831587628
 31
0.0
  0
LINE
  5
FCF9
  8
0
 10
392.2574925001915176
 20
75.823740831587628
 30
0.0
 11
392.2688576629914792
 21
75.8186459684876297
 31
0.0
  0
LINE
  5
FCFA
  8
0
 10
392.2688576629914792
 20
75.8186459684876297
 30
0.0
 11
392.2574925001915176
 21
75.8135511053876314
 31
0.0
  0
LINE
  5
FCFB
  8
0
 10
392.2574925001915176
 20
75.8135511053876314
 30
0.0
 11
392.2347621746915252
 21
75.8135511053876314
 31
0.0
  0
LINE
  5
FCFC
  8
0
 10
392.2347621746915252
 20
75.8135511053876314
 30
0.0
 11
392.2233970118915067
 21
75.8186459684876297
 31
0.0
  0
LINE
  5
FCFD
  8
0
 10
392.2233970118915067
 20
75.8186459684876297
 30
0.0
 11
392.2347621746915252
 21
75.823740831587628
 31
0.0
  0
LINE
  5
FCFE
  8
0
 10
392.2347621746915252
 20
75.823740831587628
 30
0.0
 11
392.2347621746915252
 21
75.8135511053876314
 31
0.0
  0
LINE
  5
FCFF
  8
0
 10
392.2574925001915176
 20
75.8135511053876314
 30
0.0
 11
392.2574925001915176
 21
75.823740831587628
 31
0.0
  0
LINE
  5
FD00
  8
0
 10
392.2576323813610202
 20
75.8353963096748345
 30
0.0
 11
392.2688576629914792
 21
75.8303641535876238
 31
0.0
  0
LINE
  5
FD01
  8
0
 10
392.2688576629914792
 20
75.8303641535876238
 30
0.0
 11
392.2574925001915176
 21
75.8252692904876255
 31
0.0
  0
LINE
  5
FD02
  8
0
 10
392.2574925001915176
 20
75.8252692904876255
 30
0.0
 11
392.2347621746915252
 21
75.8252692904876255
 31
0.0
  0
LINE
  5
FD03
  8
0
 10
392.2347621746915252
 20
75.8252692904876255
 30
0.0
 11
392.2233970118915067
 21
75.8303641535876238
 31
0.0
  0
LINE
  5
FD04
  8
0
 10
392.2233970118915067
 20
75.8303641535876238
 30
0.0
 11
392.2272578649427146
 21
75.8320949266606732
 31
0.0
  0
LINE
  5
FD05
  8
0
 10
392.2347621746915252
 20
75.8330097274310901
 30
0.0
 11
392.2347621746915252
 21
75.8252692904876255
 31
0.0
  0
LINE
  5
FD06
  8
0
 10
392.2574925001915176
 20
75.8252692904876255
 30
0.0
 11
392.2574925001915176
 21
75.8353835429728633
 31
0.0
  0
LINE
  5
FD07
  8
0
 10
392.2090773482170221
 20
75.8295999241876189
 30
0.0
 11
392.2182826886914881
 21
75.8295999241876189
 31
0.0
  0
LINE
  5
FD08
  8
0
 10
392.2182826886914881
 20
75.8295999241876189
 30
0.0
 11
392.2296478514915066
 21
75.8245050610876206
 31
0.0
  0
LINE
  5
FD09
  8
0
 10
392.2296478514915066
 20
75.8245050610876206
 30
0.0
 11
392.2182826886914881
 21
75.8194101979876223
 31
0.0
  0
LINE
  5
FD0A
  8
0
 10
392.2182826886914881
 20
75.8194101979876223
 30
0.0
 11
392.1955523631914957
 21
75.8194101979876223
 31
0.0
  0
LINE
  5
FD0B
  8
0
 10
392.1955523631914957
 20
75.8194101979876223
 30
0.0
 11
392.1841872003914773
 21
75.8245050610876206
 31
0.0
  0
LINE
  5
FD0C
  8
0
 10
392.1841872003914773
 20
75.8245050610876206
 30
0.0
 11
392.1878765875698036
 21
75.8261589681126793
 31
0.0
  0
LINE
  5
FD0D
  8
0
 10
392.1955523631914957
 20
75.8274715986576666
 30
0.0
 11
392.1955523631914957
 21
75.8194101979876223
 31
0.0
  0
LINE
  5
FD0E
  8
0
 10
392.2182826886914881
 20
75.8194101979876223
 30
0.0
 11
392.2182826886914881
 21
75.8295999241876189
 31
0.0
  0
LINE
  5
FD0F
  8
0
 10
392.1955523631914957
 20
75.8178817390876247
 30
0.0
 11
392.2182826886914881
 21
75.8178817390876247
 31
0.0
  0
LINE
  5
FD10
  8
0
 10
392.2182826886914881
 20
75.8178817390876247
 30
0.0
 11
392.2296478514915066
 21
75.8127868759876264
 31
0.0
  0
LINE
  5
FD11
  8
0
 10
392.2296478514915066
 20
75.8127868759876264
 30
0.0
 11
392.2182826886914881
 21
75.8076920128876282
 31
0.0
  0
LINE
  5
FD12
  8
0
 10
392.2182826886914881
 20
75.8076920128876282
 30
0.0
 11
392.1955523631914957
 21
75.8076920128876282
 31
0.0
  0
LINE
  5
FD13
  8
0
 10
392.1955523631914957
 20
75.8076920128876282
 30
0.0
 11
392.1841872003914773
 21
75.8127868759876264
 31
0.0
  0
LINE
  5
FD14
  8
0
 10
392.1841872003914773
 20
75.8127868759876264
 30
0.0
 11
392.1955523631914957
 21
75.8178817390876247
 31
0.0
  0
LINE
  5
FD15
  8
0
 10
392.1955523631914957
 20
75.8178817390876247
 30
0.0
 11
392.1955523631914957
 21
75.8076920128876282
 31
0.0
  0
LINE
  5
FD16
  8
0
 10
392.2182826886914881
 20
75.8076920128876282
 30
0.0
 11
392.2182826886914881
 21
75.8178817390876247
 31
0.0
  0
LINE
  5
FD17
  8
0
 10
392.1955523631914957
 20
75.8061635538876146
 30
0.0
 11
392.2182826886914881
 21
75.8061635538876146
 31
0.0
  0
LINE
  5
FD18
  8
0
 10
392.2182826886914881
 20
75.8061635538876146
 30
0.0
 11
392.2296478514915066
 21
75.8010686907876305
 31
0.0
  0
LINE
  5
FD19
  8
0
 10
392.2296478514915066
 20
75.8010686907876305
 30
0.0
 11
392.2182826886914881
 21
75.795973827687618
 31
0.0
  0
LINE
  5
FD1A
  8
0
 10
392.2182826886914881
 20
75.795973827687618
 30
0.0
 11
392.1955523631914957
 21
75.795973827687618
 31
0.0
  0
LINE
  5
FD1B
  8
0
 10
392.1955523631914957
 20
75.795973827687618
 30
0.0
 11
392.1841872003914773
 21
75.8010686907876305
 31
0.0
  0
LINE
  5
FD1C
  8
0
 10
392.1841872003914773
 20
75.8010686907876305
 30
0.0
 11
392.1955523631914957
 21
75.8061635538876146
 31
0.0
  0
LINE
  5
FD1D
  8
0
 10
392.1955523631914957
 20
75.8061635538876146
 30
0.0
 11
392.1955523631914957
 21
75.795973827687618
 31
0.0
  0
LINE
  5
FD1E
  8
0
 10
392.2182826886914881
 20
75.795973827687618
 30
0.0
 11
392.2182826886914881
 21
75.8061635538876146
 31
0.0
  0
LINE
  5
FD1F
  8
0
 10
392.1955523631914957
 20
75.7944453687876205
 30
0.0
 11
392.2182826886914881
 21
75.7944453687876205
 31
0.0
  0
LINE
  5
FD20
  8
0
 10
392.2182826886914881
 20
75.7944453687876205
 30
0.0
 11
392.2296478514915066
 21
75.7893505056876222
 31
0.0
  0
LINE
  5
FD21
  8
0
 10
392.2296478514915066
 20
75.7893505056876222
 30
0.0
 11
392.2182826886914881
 21
75.7842556425876239
 31
0.0
  0
LINE
  5
FD22
  8
0
 10
392.2182826886914881
 20
75.7842556425876239
 30
0.0
 11
392.1955523631914957
 21
75.7842556425876239
 31
0.0
  0
LINE
  5
FD23
  8
0
 10
392.1955523631914957
 20
75.7842556425876239
 30
0.0
 11
392.1841872003914773
 21
75.7893505056876222
 31
0.0
  0
LINE
  5
FD24
  8
0
 10
392.1841872003914773
 20
75.7893505056876222
 30
0.0
 11
392.1955523631914957
 21
75.7944453687876205
 31
0.0
  0
LINE
  5
FD25
  8
0
 10
392.1955523631914957
 20
75.7944453687876205
 30
0.0
 11
392.1955523631914957
 21
75.7842556425876239
 31
0.0
  0
LINE
  5
FD26
  8
0
 10
392.2182826886914881
 20
75.7842556425876239
 30
0.0
 11
392.2182826886914881
 21
75.7944453687876205
 31
0.0
  0
LINE
  5
FD27
  8
0
 10
392.1955523631914957
 20
75.7827271836876264
 30
0.0
 11
392.2182826886914881
 21
75.7827271836876264
 31
0.0
  0
LINE
  5
FD28
  8
0
 10
392.2182826886914881
 20
75.7827271836876264
 30
0.0
 11
392.2296478514915066
 21
75.7776323205876281
 31
0.0
  0
LINE
  5
FD29
  8
0
 10
392.2296478514915066
 20
75.7776323205876281
 30
0.0
 11
392.2182826886914881
 21
75.7725374574876156
 31
0.0
  0
LINE
  5
FD2A
  8
0
 10
392.2182826886914881
 20
75.7725374574876156
 30
0.0
 11
392.1955523631914957
 21
75.7725374574876156
 31
0.0
  0
LINE
  5
FD2B
  8
0
 10
392.1955523631914957
 20
75.7725374574876156
 30
0.0
 11
392.1841872003914773
 21
75.7776323205876281
 31
0.0
  0
LINE
  5
FD2C
  8
0
 10
392.1841872003914773
 20
75.7776323205876281
 30
0.0
 11
392.1955523631914957
 21
75.7827271836876264
 31
0.0
  0
LINE
  5
FD2D
  8
0
 10
392.1955523631914957
 20
75.7827271836876264
 30
0.0
 11
392.1955523631914957
 21
75.7725374574876156
 31
0.0
  0
LINE
  5
FD2E
  8
0
 10
392.2182826886914881
 20
75.7725374574876156
 30
0.0
 11
392.2182826886914881
 21
75.7827271836876264
 31
0.0
  0
LINE
  5
FD2F
  8
0
 10
392.1955523631914957
 20
75.7710089985876323
 30
0.0
 11
392.2182826886914881
 21
75.7710089985876323
 31
0.0
  0
LINE
  5
FD30
  8
0
 10
392.2182826886914881
 20
75.7710089985876323
 30
0.0
 11
392.2296478514915066
 21
75.765914135487634
 31
0.0
  0
LINE
  5
FD31
  8
0
 10
392.2296478514915066
 20
75.765914135487634
 30
0.0
 11
392.2182826886914881
 21
75.7608192723876215
 31
0.0
  0
LINE
  5
FD32
  8
0
 10
392.2182826886914881
 20
75.7608192723876215
 30
0.0
 11
392.1955523631914957
 21
75.7608192723876215
 31
0.0
  0
LINE
  5
FD33
  8
0
 10
392.1955523631914957
 20
75.7608192723876215
 30
0.0
 11
392.1841872003914773
 21
75.765914135487634
 31
0.0
  0
LINE
  5
FD34
  8
0
 10
392.1841872003914773
 20
75.765914135487634
 30
0.0
 11
392.1955523631914957
 21
75.7710089985876323
 31
0.0
  0
LINE
  5
FD35
  8
0
 10
392.1955523631914957
 20
75.7710089985876323
 30
0.0
 11
392.1955523631914957
 21
75.7608192723876215
 31
0.0
  0
LINE
  5
FD36
  8
0
 10
392.2182826886914881
 20
75.7608192723876215
 30
0.0
 11
392.2182826886914881
 21
75.7710089985876323
 31
0.0
  0
LINE
  5
FD37
  8
0
 10
392.1955523631914957
 20
75.759290813487624
 30
0.0
 11
392.2182826886914881
 21
75.759290813487624
 31
0.0
  0
LINE
  5
FD38
  8
0
 10
392.2182826886914881
 20
75.759290813487624
 30
0.0
 11
392.2296478514915066
 21
75.7541959503876257
 31
0.0
  0
LINE
  5
FD39
  8
0
 10
392.2296478514915066
 20
75.7541959503876257
 30
0.0
 11
392.2182826886914881
 21
75.7491010872876132
 31
0.0
  0
LINE
  5
FD3A
  8
0
 10
392.2182826886914881
 20
75.7491010872876132
 30
0.0
 11
392.1955523631914957
 21
75.7491010872876132
 31
0.0
  0
LINE
  5
FD3B
  8
0
 10
392.1955523631914957
 20
75.7491010872876132
 30
0.0
 11
392.1841872003914773
 21
75.7541959503876257
 31
0.0
  0
LINE
  5
FD3C
  8
0
 10
392.1841872003914773
 20
75.7541959503876257
 30
0.0
 11
392.1955523631914957
 21
75.759290813487624
 31
0.0
  0
LINE
  5
FD3D
  8
0
 10
392.1955523631914957
 20
75.759290813487624
 30
0.0
 11
392.1955523631914957
 21
75.7491010872876132
 31
0.0
  0
LINE
  5
FD3E
  8
0
 10
392.2182826886914881
 20
75.7491010872876132
 30
0.0
 11
392.2182826886914881
 21
75.759290813487624
 31
0.0
  0
LINE
  5
FD3F
  8
0
 10
392.1955523631914957
 20
75.7475726283876298
 30
0.0
 11
392.2182826886914881
 21
75.7475726283876298
 31
0.0
  0
LINE
  5
FD40
  8
0
 10
392.2182826886914881
 20
75.7475726283876298
 30
0.0
 11
392.2296478514915066
 21
75.7424777652876315
 31
0.0
  0
LINE
  5
FD41
  8
0
 10
392.2296478514915066
 20
75.7424777652876315
 30
0.0
 11
392.2182826886914881
 21
75.737382902187619
 31
0.0
  0
LINE
  5
FD42
  8
0
 10
392.2182826886914881
 20
75.737382902187619
 30
0.0
 11
392.1955523631914957
 21
75.737382902187619
 31
0.0
  0
LINE
  5
FD43
  8
0
 10
392.1955523631914957
 20
75.737382902187619
 30
0.0
 11
392.1841872003914773
 21
75.7424777652876315
 31
0.0
  0
LINE
  5
FD44
  8
0
 10
392.1841872003914773
 20
75.7424777652876315
 30
0.0
 11
392.1955523631914957
 21
75.7475726283876298
 31
0.0
  0
LINE
  5
FD45
  8
0
 10
392.1955523631914957
 20
75.7475726283876298
 30
0.0
 11
392.1955523631914957
 21
75.737382902187619
 31
0.0
  0
LINE
  5
FD46
  8
0
 10
392.2182826886914881
 20
75.737382902187619
 30
0.0
 11
392.2182826886914881
 21
75.7475726283876298
 31
0.0
  0
LINE
  5
FD47
  8
0
 10
392.1949841049914767
 20
75.7361091864695197
 30
0.0
 11
392.2177144304915259
 21
75.7361091864695197
 31
0.0
  0
LINE
  5
FD48
  8
0
 10
392.2177144304915259
 20
75.7361091864695197
 30
0.0
 11
392.2290795932914875
 21
75.7310143233695214
 31
0.0
  0
LINE
  5
FD49
  8
0
 10
392.2290795932914875
 20
75.7310143233695214
 30
0.0
 11
392.2177144304915259
 21
75.7259194602695231
 31
0.0
  0
LINE
  5
FD4A
  8
0
 10
392.2177144304915259
 20
75.7259194602695231
 30
0.0
 11
392.1949841049914767
 21
75.7259194602695231
 31
0.0
  0
LINE
  5
FD4B
  8
0
 10
392.1949841049914767
 20
75.7259194602695231
 30
0.0
 11
392.1836189421915151
 21
75.7310143233695214
 31
0.0
  0
LINE
  5
FD4C
  8
0
 10
392.1836189421915151
 20
75.7310143233695214
 30
0.0
 11
392.1949841049914767
 21
75.7361091864695197
 31
0.0
  0
LINE
  5
FD4D
  8
0
 10
392.1949841049914767
 20
75.7361091864695197
 30
0.0
 11
392.1949841049914767
 21
75.7259194602695231
 31
0.0
  0
LINE
  5
FD4E
  8
0
 10
392.2177144304915259
 20
75.7259194602695231
 30
0.0
 11
392.2177144304915259
 21
75.7361091864695197
 31
0.0
  0
LINE
  5
FD4F
  8
0
 10
392.1955523631914957
 20
75.7241362581876274
 30
0.0
 11
392.2182826886914881
 21
75.7241362581876274
 31
0.0
  0
LINE
  5
FD50
  8
0
 10
392.2182826886914881
 20
75.7241362581876274
 30
0.0
 11
392.2296478514915066
 21
75.7190413950876291
 31
0.0
  0
LINE
  5
FD51
  8
0
 10
392.2296478514915066
 20
75.7190413950876291
 30
0.0
 11
392.2182826886914881
 21
75.7139465319876308
 31
0.0
  0
LINE
  5
FD52
  8
0
 10
392.2182826886914881
 20
75.7139465319876308
 30
0.0
 11
392.1955523631914957
 21
75.7139465319876308
 31
0.0
  0
LINE
  5
FD53
  8
0
 10
392.1955523631914957
 20
75.7139465319876308
 30
0.0
 11
392.1841872003914773
 21
75.7190413950876291
 31
0.0
  0
LINE
  5
FD54
  8
0
 10
392.1841872003914773
 20
75.7190413950876291
 30
0.0
 11
392.1955523631914957
 21
75.7241362581876274
 31
0.0
  0
LINE
  5
FD55
  8
0
 10
392.1955523631914957
 20
75.7241362581876274
 30
0.0
 11
392.1955523631914957
 21
75.7139465319876308
 31
0.0
  0
LINE
  5
FD56
  8
0
 10
392.2182826886914881
 20
75.7139465319876308
 30
0.0
 11
392.2182826886914881
 21
75.7241362581876274
 31
0.0
  0
LINE
  5
FD57
  8
0
 10
392.1563425515914787
 20
75.7299953506876307
 30
0.0
 11
392.179072877091528
 21
75.7299953506876307
 31
0.0
  0
LINE
  5
FD58
  8
0
 10
392.179072877091528
 20
75.7299953506876307
 30
0.0
 11
392.1904380398914896
 21
75.7249004875876324
 31
0.0
  0
LINE
  5
FD59
  8
0
 10
392.1904380398914896
 20
75.7249004875876324
 30
0.0
 11
392.179072877091528
 21
75.7198056244876341
 31
0.0
  0
LINE
  5
FD5A
  8
0
 10
392.179072877091528
 20
75.7198056244876341
 30
0.0
 11
392.1563425515914787
 21
75.7198056244876199
 31
0.0
  0
LINE
  5
FD5B
  8
0
 10
392.1563425515914787
 20
75.7198056244876199
 30
0.0
 11
392.1449773887915171
 21
75.7249004875876324
 31
0.0
  0
LINE
  5
FD5C
  8
0
 10
392.1449773887915171
 20
75.7249004875876324
 30
0.0
 11
392.1563425515914787
 21
75.7299953506876307
 31
0.0
  0
LINE
  5
FD5D
  8
0
 10
392.1563425515914787
 20
75.7299953506876307
 30
0.0
 11
392.1563425515914787
 21
75.7198056244876199
 31
0.0
  0
LINE
  5
FD5E
  8
0
 10
392.179072877091528
 20
75.7198056244876341
 30
0.0
 11
392.179072877091528
 21
75.7299953506876307
 31
0.0
  0
LINE
  5
FD5F
  8
0
 10
392.1563425515914787
 20
75.7417135357876248
 30
0.0
 11
392.179072877091528
 21
75.7417135357876248
 31
0.0
  0
LINE
  5
FD60
  8
0
 10
392.179072877091528
 20
75.7417135357876248
 30
0.0
 11
392.1904380398914896
 21
75.7366186726876265
 31
0.0
  0
LINE
  5
FD61
  8
0
 10
392.1904380398914896
 20
75.7366186726876265
 30
0.0
 11
392.179072877091528
 21
75.7315238095876282
 31
0.0
  0
LINE
  5
FD62
  8
0
 10
392.179072877091528
 20
75.7315238095876282
 30
0.0
 11
392.1563425515914787
 21
75.7315238095876282
 31
0.0
  0
LINE
  5
FD63
  8
0
 10
392.1563425515914787
 20
75.7315238095876282
 30
0.0
 11
392.1449773887915171
 21
75.7366186726876265
 31
0.0
  0
LINE
  5
FD64
  8
0
 10
392.1449773887915171
 20
75.7366186726876265
 30
0.0
 11
392.1563425515914787
 21
75.7417135357876248
 31
0.0
  0
LINE
  5
FD65
  8
0
 10
392.1563425515914787
 20
75.7417135357876248
 30
0.0
 11
392.1563425515914787
 21
75.7315238095876282
 31
0.0
  0
LINE
  5
FD66
  8
0
 10
392.179072877091528
 20
75.7315238095876282
 30
0.0
 11
392.179072877091528
 21
75.7417135357876248
 31
0.0
  0
LINE
  5
FD67
  8
0
 10
392.1563425515914787
 20
75.7534317208876189
 30
0.0
 11
392.179072877091528
 21
75.7534317208876189
 31
0.0
  0
LINE
  5
FD68
  8
0
 10
392.179072877091528
 20
75.7534317208876189
 30
0.0
 11
392.1904380398914896
 21
75.7483368577876206
 31
0.0
  0
LINE
  5
FD69
  8
0
 10
392.1904380398914896
 20
75.7483368577876206
 30
0.0
 11
392.179072877091528
 21
75.7432419946876223
 31
0.0
  0
LINE
  5
FD6A
  8
0
 10
392.179072877091528
 20
75.7432419946876223
 30
0.0
 11
392.1563425515914787
 21
75.7432419946876223
 31
0.0
  0
LINE
  5
FD6B
  8
0
 10
392.1563425515914787
 20
75.7432419946876223
 30
0.0
 11
392.1449773887915171
 21
75.7483368577876206
 31
0.0
  0
LINE
  5
FD6C
  8
0
 10
392.1449773887915171
 20
75.7483368577876206
 30
0.0
 11
392.1563425515914787
 21
75.7534317208876189
 31
0.0
  0
LINE
  5
FD6D
  8
0
 10
392.1563425515914787
 20
75.7534317208876189
 30
0.0
 11
392.1563425515914787
 21
75.7432419946876223
 31
0.0
  0
LINE
  5
FD6E
  8
0
 10
392.179072877091528
 20
75.7432419946876223
 30
0.0
 11
392.179072877091528
 21
75.7534317208876189
 31
0.0
  0
LINE
  5
FD6F
  8
0
 10
392.1563425515914787
 20
75.765149906087629
 30
0.0
 11
392.179072877091528
 21
75.765149906087629
 31
0.0
  0
LINE
  5
FD70
  8
0
 10
392.179072877091528
 20
75.765149906087629
 30
0.0
 11
392.1904380398914896
 21
75.7600550429876307
 31
0.0
  0
LINE
  5
FD71
  8
0
 10
392.1904380398914896
 20
75.7600550429876307
 30
0.0
 11
392.179072877091528
 21
75.7549601798876324
 31
0.0
  0
LINE
  5
FD72
  8
0
 10
392.179072877091528
 20
75.7549601798876324
 30
0.0
 11
392.1563425515914787
 21
75.7549601798876324
 31
0.0
  0
LINE
  5
FD73
  8
0
 10
392.1563425515914787
 20
75.7549601798876324
 30
0.0
 11
392.1449773887915171
 21
75.7600550429876307
 31
0.0
  0
LINE
  5
FD74
  8
0
 10
392.1449773887915171
 20
75.7600550429876307
 30
0.0
 11
392.1563425515914787
 21
75.765149906087629
 31
0.0
  0
LINE
  5
FD75
  8
0
 10
392.1563425515914787
 20
75.765149906087629
 30
0.0
 11
392.1563425515914787
 21
75.7549601798876324
 31
0.0
  0
LINE
  5
FD76
  8
0
 10
392.179072877091528
 20
75.7549601798876324
 30
0.0
 11
392.179072877091528
 21
75.765149906087629
 31
0.0
  0
LINE
  5
FD77
  8
0
 10
392.1563425515914787
 20
75.7768680911876231
 30
0.0
 11
392.179072877091528
 21
75.7768680911876231
 31
0.0
  0
LINE
  5
FD78
  8
0
 10
392.179072877091528
 20
75.7768680911876231
 30
0.0
 11
392.1904380398914896
 21
75.7717732280876248
 31
0.0
  0
LINE
  5
FD79
  8
0
 10
392.1904380398914896
 20
75.7717732280876248
 30
0.0
 11
392.179072877091528
 21
75.7666783649876265
 31
0.0
  0
LINE
  5
FD7A
  8
0
 10
392.179072877091528
 20
75.7666783649876265
 30
0.0
 11
392.1563425515914787
 21
75.7666783649876265
 31
0.0
  0
LINE
  5
FD7B
  8
0
 10
392.1563425515914787
 20
75.7666783649876265
 30
0.0
 11
392.1449773887915171
 21
75.7717732280876248
 31
0.0
  0
LINE
  5
FD7C
  8
0
 10
392.1449773887915171
 20
75.7717732280876248
 30
0.0
 11
392.1563425515914787
 21
75.7768680911876231
 31
0.0
  0
LINE
  5
FD7D
  8
0
 10
392.1563425515914787
 20
75.7768680911876231
 30
0.0
 11
392.1563425515914787
 21
75.7666783649876265
 31
0.0
  0
LINE
  5
FD7E
  8
0
 10
392.179072877091528
 20
75.7666783649876265
 30
0.0
 11
392.179072877091528
 21
75.7768680911876231
 31
0.0
  0
LINE
  5
FD7F
  8
0
 10
392.1563425515914787
 20
75.788586276287603
 30
0.0
 11
392.179072877091528
 21
75.788586276287603
 31
0.0
  0
LINE
  5
FD80
  8
0
 10
392.179072877091528
 20
75.788586276287603
 30
0.0
 11
392.1904380398914896
 21
75.7834914131876189
 31
0.0
  0
LINE
  5
FD81
  8
0
 10
392.1904380398914896
 20
75.7834914131876189
 30
0.0
 11
392.179072877091528
 21
75.7783965500876207
 31
0.0
  0
LINE
  5
FD82
  8
0
 10
392.179072877091528
 20
75.7783965500876207
 30
0.0
 11
392.1563425515914787
 21
75.7783965500876207
 31
0.0
  0
LINE
  5
FD83
  8
0
 10
392.1563425515914787
 20
75.7783965500876207
 30
0.0
 11
392.1449773887915171
 21
75.7834914131876189
 31
0.0
  0
LINE
  5
FD84
  8
0
 10
392.1449773887915171
 20
75.7834914131876189
 30
0.0
 11
392.1563425515914787
 21
75.788586276287603
 31
0.0
  0
LINE
  5
FD85
  8
0
 10
392.1563425515914787
 20
75.788586276287603
 30
0.0
 11
392.1563425515914787
 21
75.7783965500876207
 31
0.0
  0
LINE
  5
FD86
  8
0
 10
392.179072877091528
 20
75.7783965500876207
 30
0.0
 11
392.179072877091528
 21
75.788586276287603
 31
0.0
  0
LINE
  5
FD87
  8
0
 10
392.1563425514914911
 20
75.8003044613876256
 30
0.0
 11
392.1790728769914836
 21
75.8003044613876256
 31
0.0
  0
LINE
  5
FD88
  8
0
 10
392.1790728769914836
 20
75.8003044613876256
 30
0.0
 11
392.190438039791502
 21
75.7952095982876131
 31
0.0
  0
LINE
  5
FD89
  8
0
 10
392.190438039791502
 20
75.7952095982876131
 30
0.0
 11
392.1790728769914836
 21
75.790114735187629
 31
0.0
  0
LINE
  5
FD8A
  8
0
 10
392.1790728769914836
 20
75.790114735187629
 30
0.0
 11
392.1563425514914911
 21
75.790114735187629
 31
0.0
  0
LINE
  5
FD8B
  8
0
 10
392.1563425514914911
 20
75.790114735187629
 30
0.0
 11
392.1449773886914727
 21
75.7952095982876131
 31
0.0
  0
LINE
  5
FD8C
  8
0
 10
392.1449773886914727
 20
75.7952095982876131
 30
0.0
 11
392.1563425514914911
 21
75.8003044613876256
 31
0.0
  0
LINE
  5
FD8D
  8
0
 10
392.1563425514914911
 20
75.8003044613876256
 30
0.0
 11
392.1563425514914911
 21
75.790114735187629
 31
0.0
  0
LINE
  5
FD8E
  8
0
 10
392.1790728769914836
 20
75.790114735187629
 30
0.0
 11
392.1790728769914836
 21
75.8003044613876256
 31
0.0
  0
LINE
  5
FD8F
  8
0
 10
392.1563425515914787
 20
75.8120226464876339
 30
0.0
 11
392.179072877091528
 21
75.8120226464876339
 31
0.0
  0
LINE
  5
FD90
  8
0
 10
392.179072877091528
 20
75.8120226464876339
 30
0.0
 11
392.1904380398914896
 21
75.8069277833876214
 31
0.0
  0
LINE
  5
FD91
  8
0
 10
392.1904380398914896
 20
75.8069277833876214
 30
0.0
 11
392.179072877091528
 21
75.8018329202876231
 31
0.0
  0
LINE
  5
FD92
  8
0
 10
392.179072877091528
 20
75.8018329202876231
 30
0.0
 11
392.1563425515914787
 21
75.8018329202876231
 31
0.0
  0
LINE
  5
FD93
  8
0
 10
392.1563425515914787
 20
75.8018329202876231
 30
0.0
 11
392.1449773887915171
 21
75.8069277833876214
 31
0.0
  0
LINE
  5
FD94
  8
0
 10
392.1449773887915171
 20
75.8069277833876214
 30
0.0
 11
392.1563425515914787
 21
75.8120226464876339
 31
0.0
  0
LINE
  5
FD95
  8
0
 10
392.1563425515914787
 20
75.8120226464876339
 30
0.0
 11
392.1563425515914787
 21
75.8018329202876231
 31
0.0
  0
LINE
  5
FD96
  8
0
 10
392.179072877091528
 20
75.8018329202876231
 30
0.0
 11
392.179072877091528
 21
75.8120226464876339
 31
0.0
  0
LINE
  5
FD97
  8
0
 10
392.1747691989422151
 20
75.823740831587628
 30
0.0
 11
392.179072877091528
 21
75.823740831587628
 31
0.0
  0
LINE
  5
FD98
  8
0
 10
392.179072877091528
 20
75.823740831587628
 30
0.0
 11
392.1904380398914896
 21
75.8186459684876297
 31
0.0
  0
LINE
  5
FD99
  8
0
 10
392.1904380398914896
 20
75.8186459684876297
 30
0.0
 11
392.179072877091528
 21
75.8135511053876314
 31
0.0
  0
LINE
  5
FD9A
  8
0
 10
392.179072877091528
 20
75.8135511053876314
 30
0.0
 11
392.1563425515914787
 21
75.8135511053876314
 31
0.0
  0
LINE
  5
FD9B
  8
0
 10
392.1563425515914787
 20
75.8135511053876314
 30
0.0
 11
392.1480761282095955
 21
75.8172568416096908
 31
0.0
  0
LINE
  5
FD9C
  8
0
 10
392.1563425515914787
 20
75.8186994164169761
 30
0.0
 11
392.1563425515914787
 21
75.8135511053876314
 31
0.0
  0
LINE
  5
FD9D
  8
0
 10
392.179072877091528
 20
75.8135511053876314
 30
0.0
 11
392.179072877091528
 21
75.823740831587628
 31
0.0
  0
LINE
  5
FD9E
  8
0
 10
392.1433701681582988
 20
75.8163095479735034
 30
0.0
 11
392.1512282282915862
 21
75.8127868759876264
 31
0.0
  0
LINE
  5
FD9F
  8
0
 10
392.1512282282915862
 20
75.8127868759876264
 30
0.0
 11
392.139863065491511
 21
75.8076920128876282
 31
0.0
  0
LINE
  5
FDA0
  8
0
 10
392.139863065491511
 20
75.8076920128876282
 30
0.0
 11
392.1171327399915185
 21
75.8076920128876282
 31
0.0
  0
LINE
  5
FDA1
  8
0
 10
392.1171327399915185
 20
75.8076920128876282
 30
0.0
 11
392.1150773241428169
 21
75.8086134306047938
 31
0.0
  0
LINE
  5
FDA2
  8
0
 10
392.1171327399915185
 20
75.8092920181605336
 30
0.0
 11
392.1171327399915185
 21
75.8076920128876282
 31
0.0
  0
LINE
  5
FDA3
  8
0
 10
392.139863065491511
 20
75.8076920128876282
 30
0.0
 11
392.139863065491511
 21
75.8155433292991034
 31
0.0
  0
LINE
  5
FDA4
  8
0
 10
392.1171327399915185
 20
75.8061635538876146
 30
0.0
 11
392.139863065491511
 21
75.8061635538876146
 31
0.0
  0
LINE
  5
FDA5
  8
0
 10
392.139863065491511
 20
75.8061635538876146
 30
0.0
 11
392.1512282282915862
 21
75.8010686907876305
 31
0.0
  0
LINE
  5
FDA6
  8
0
 10
392.1512282282915862
 20
75.8010686907876305
 30
0.0
 11
392.139863065491511
 21
75.795973827687618
 31
0.0
  0
LINE
  5
FDA7
  8
0
 10
392.139863065491511
 20
75.795973827687618
 30
0.0
 11
392.1171327399915185
 21
75.795973827687618
 31
0.0
  0
LINE
  5
FDA8
  8
0
 10
392.1171327399915185
 20
75.795973827687618
 30
0.0
 11
392.1057675771915001
 21
75.8010686907876305
 31
0.0
  0
LINE
  5
FDA9
  8
0
 10
392.1057675771915001
 20
75.8010686907876305
 30
0.0
 11
392.1171327399915185
 21
75.8061635538876146
 31
0.0
  0
LINE
  5
FDAA
  8
0
 10
392.1171327399915185
 20
75.8061635538876146
 30
0.0
 11
392.1171327399915185
 21
75.795973827687618
 31
0.0
  0
LINE
  5
FDAB
  8
0
 10
392.139863065491511
 20
75.795973827687618
 30
0.0
 11
392.139863065491511
 21
75.8061635538876146
 31
0.0
  0
LINE
  5
FDAC
  8
0
 10
392.1171327399915185
 20
75.7944453687876205
 30
0.0
 11
392.139863065491511
 21
75.7944453687876205
 31
0.0
  0
LINE
  5
FDAD
  8
0
 10
392.139863065491511
 20
75.7944453687876205
 30
0.0
 11
392.1512282282915862
 21
75.7893505056876222
 31
0.0
  0
LINE
  5
FDAE
  8
0
 10
392.1512282282915862
 20
75.7893505056876222
 30
0.0
 11
392.139863065491511
 21
75.7842556425876239
 31
0.0
  0
LINE
  5
FDAF
  8
0
 10
392.139863065491511
 20
75.7842556425876239
 30
0.0
 11
392.1171327399915185
 21
75.7842556425876239
 31
0.0
  0
LINE
  5
FDB0
  8
0
 10
392.1171327399915185
 20
75.7842556425876239
 30
0.0
 11
392.1057675771915001
 21
75.7893505056876222
 31
0.0
  0
LINE
  5
FDB1
  8
0
 10
392.1057675771915001
 20
75.7893505056876222
 30
0.0
 11
392.1171327399915185
 21
75.7944453687876205
 31
0.0
  0
LINE
  5
FDB2
  8
0
 10
392.1171327399915185
 20
75.7944453687876205
 30
0.0
 11
392.1171327399915185
 21
75.7842556425876239
 31
0.0
  0
LINE
  5
FDB3
  8
0
 10
392.139863065491511
 20
75.7842556425876239
 30
0.0
 11
392.139863065491511
 21
75.7944453687876205
 31
0.0
  0
LINE
  5
FDB4
  8
0
 10
392.1171327399915185
 20
75.7827271836876264
 30
0.0
 11
392.139863065491511
 21
75.7827271836876264
 31
0.0
  0
LINE
  5
FDB5
  8
0
 10
392.139863065491511
 20
75.7827271836876264
 30
0.0
 11
392.1512282282915862
 21
75.7776323205876281
 31
0.0
  0
LINE
  5
FDB6
  8
0
 10
392.1512282282915862
 20
75.7776323205876281
 30
0.0
 11
392.139863065491511
 21
75.7725374574876156
 31
0.0
  0
LINE
  5
FDB7
  8
0
 10
392.139863065491511
 20
75.7725374574876156
 30
0.0
 11
392.1171327399915185
 21
75.7725374574876156
 31
0.0
  0
LINE
  5
FDB8
  8
0
 10
392.1171327399915185
 20
75.7725374574876156
 30
0.0
 11
392.1057675771915001
 21
75.7776323205876281
 31
0.0
  0
LINE
  5
FDB9
  8
0
 10
392.1057675771915001
 20
75.7776323205876281
 30
0.0
 11
392.1171327399915185
 21
75.7827271836876264
 31
0.0
  0
LINE
  5
FDBA
  8
0
 10
392.1171327399915185
 20
75.7827271836876264
 30
0.0
 11
392.1171327399915185
 21
75.7725374574876156
 31
0.0
  0
LINE
  5
FDBB
  8
0
 10
392.139863065491511
 20
75.7725374574876156
 30
0.0
 11
392.139863065491511
 21
75.7827271836876264
 31
0.0
  0
LINE
  5
FDBC
  8
0
 10
392.1171327399915185
 20
75.7710089985876323
 30
0.0
 11
392.139863065491511
 21
75.7710089985876323
 31
0.0
  0
LINE
  5
FDBD
  8
0
 10
392.139863065491511
 20
75.7710089985876323
 30
0.0
 11
392.1512282282915862
 21
75.765914135487634
 31
0.0
  0
LINE
  5
FDBE
  8
0
 10
392.1512282282915862
 20
75.765914135487634
 30
0.0
 11
392.139863065491511
 21
75.7608192723876215
 31
0.0
  0
LINE
  5
FDBF
  8
0
 10
392.139863065491511
 20
75.7608192723876215
 30
0.0
 11
392.1171327399915185
 21
75.7608192723876215
 31
0.0
  0
LINE
  5
FDC0
  8
0
 10
392.1171327399915185
 20
75.7608192723876215
 30
0.0
 11
392.1057675771915001
 21
75.765914135487634
 31
0.0
  0
LINE
  5
FDC1
  8
0
 10
392.1057675771915001
 20
75.765914135487634
 30
0.0
 11
392.1171327399915185
 21
75.7710089985876323
 31
0.0
  0
LINE
  5
FDC2
  8
0
 10
392.1171327399915185
 20
75.7710089985876323
 30
0.0
 11
392.1171327399915185
 21
75.7608192723876215
 31
0.0
  0
LINE
  5
FDC3
  8
0
 10
392.139863065491511
 20
75.7608192723876215
 30
0.0
 11
392.139863065491511
 21
75.7710089985876323
 31
0.0
  0
LINE
  5
FDC4
  8
0
 10
392.1171327399915185
 20
75.759290813487624
 30
0.0
 11
392.139863065491511
 21
75.759290813487624
 31
0.0
  0
LINE
  5
FDC5
  8
0
 10
392.139863065491511
 20
75.759290813487624
 30
0.0
 11
392.1512282282915862
 21
75.7541959503876257
 31
0.0
  0
LINE
  5
FDC6
  8
0
 10
392.1512282282915862
 20
75.7541959503876257
 30
0.0
 11
392.139863065491511
 21
75.7491010872876132
 31
0.0
  0
LINE
  5
FDC7
  8
0
 10
392.139863065491511
 20
75.7491010872876132
 30
0.0
 11
392.1171327399915185
 21
75.7491010872876132
 31
0.0
  0
LINE
  5
FDC8
  8
0
 10
392.1171327399915185
 20
75.7491010872876132
 30
0.0
 11
392.1057675771915001
 21
75.7541959503876257
 31
0.0
  0
LINE
  5
FDC9
  8
0
 10
392.1057675771915001
 20
75.7541959503876257
 30
0.0
 11
392.1171327399915185
 21
75.759290813487624
 31
0.0
  0
LINE
  5
FDCA
  8
0
 10
392.1171327399915185
 20
75.759290813487624
 30
0.0
 11
392.1171327399915185
 21
75.7491010872876132
 31
0.0
  0
LINE
  5
FDCB
  8
0
 10
392.139863065491511
 20
75.7491010872876132
 30
0.0
 11
392.139863065491511
 21
75.759290813487624
 31
0.0
  0
LINE
  5
FDCC
  8
0
 10
392.1171327399915185
 20
75.7475726283876298
 30
0.0
 11
392.139863065491511
 21
75.7475726283876298
 31
0.0
  0
LINE
  5
FDCD
  8
0
 10
392.139863065491511
 20
75.7475726283876298
 30
0.0
 11
392.1512282282915862
 21
75.7424777652876315
 31
0.0
  0
LINE
  5
FDCE
  8
0
 10
392.1512282282915862
 20
75.7424777652876315
 30
0.0
 11
392.139863065491511
 21
75.737382902187619
 31
0.0
  0
LINE
  5
FDCF
  8
0
 10
392.139863065491511
 20
75.737382902187619
 30
0.0
 11
392.1171327399915185
 21
75.737382902187619
 31
0.0
  0
LINE
  5
FDD0
  8
0
 10
392.1171327399915185
 20
75.737382902187619
 30
0.0
 11
392.1057675771915001
 21
75.7424777652876315
 31
0.0
  0
LINE
  5
FDD1
  8
0
 10
392.1057675771915001
 20
75.7424777652876315
 30
0.0
 11
392.1171327399915185
 21
75.7475726283876298
 31
0.0
  0
LINE
  5
FDD2
  8
0
 10
392.1171327399915185
 20
75.7475726283876298
 30
0.0
 11
392.1171327399915185
 21
75.737382902187619
 31
0.0
  0
LINE
  5
FDD3
  8
0
 10
392.139863065491511
 20
75.737382902187619
 30
0.0
 11
392.139863065491511
 21
75.7475726283876298
 31
0.0
  0
LINE
  5
FDD4
  8
0
 10
392.1171327399915185
 20
75.7358544432876215
 30
0.0
 11
392.139863065491511
 21
75.7358544432876215
 31
0.0
  0
LINE
  5
FDD5
  8
0
 10
392.139863065491511
 20
75.7358544432876215
 30
0.0
 11
392.1512282282915862
 21
75.7307595801876232
 31
0.0
  0
LINE
  5
FDD6
  8
0
 10
392.1512282282915862
 20
75.7307595801876232
 30
0.0
 11
392.139863065491511
 21
75.7256647170876249
 31
0.0
  0
LINE
  5
FDD7
  8
0
 10
392.139863065491511
 20
75.7256647170876249
 30
0.0
 11
392.1171327399915185
 21
75.7256647170876249
 31
0.0
  0
LINE
  5
FDD8
  8
0
 10
392.1171327399915185
 20
75.7256647170876249
 30
0.0
 11
392.1057675771915001
 21
75.7307595801876232
 31
0.0
  0
LINE
  5
FDD9
  8
0
 10
392.1057675771915001
 20
75.7307595801876232
 30
0.0
 11
392.1171327399915185
 21
75.7358544432876215
 31
0.0
  0
LINE
  5
FDDA
  8
0
 10
392.1171327399915185
 20
75.7358544432876215
 30
0.0
 11
392.1171327399915185
 21
75.7256647170876249
 31
0.0
  0
LINE
  5
FDDB
  8
0
 10
392.139863065491511
 20
75.7256647170876249
 30
0.0
 11
392.139863065491511
 21
75.7358544432876215
 31
0.0
  0
LINE
  5
FDDC
  8
0
 10
392.0779229283915015
 20
75.7534317208876189
 30
0.0
 11
392.1006532538914939
 21
75.7534317208876189
 31
0.0
  0
LINE
  5
FDDD
  8
0
 10
392.1006532538914939
 20
75.7534317208876189
 30
0.0
 11
392.1120184166915124
 21
75.7483368577876206
 31
0.0
  0
LINE
  5
FDDE
  8
0
 10
392.1120184166915124
 20
75.7483368577876206
 30
0.0
 11
392.1006532538914939
 21
75.7432419946876223
 31
0.0
  0
LINE
  5
FDDF
  8
0
 10
392.1006532538914939
 20
75.7432419946876223
 30
0.0
 11
392.0779229283915015
 21
75.7432419946876223
 31
0.0
  0
LINE
  5
FDE0
  8
0
 10
392.0779229283915015
 20
75.7432419946876223
 30
0.0
 11
392.0665577655914831
 21
75.7483368577876206
 31
0.0
  0
LINE
  5
FDE1
  8
0
 10
392.0665577655914831
 20
75.7483368577876206
 30
0.0
 11
392.0779229283915015
 21
75.7534317208876189
 31
0.0
  0
LINE
  5
FDE2
  8
0
 10
392.0779229283915015
 20
75.7534317208876189
 30
0.0
 11
392.0779229283915015
 21
75.7432419946876223
 31
0.0
  0
LINE
  5
FDE3
  8
0
 10
392.1006532538914939
 20
75.7432419946876223
 30
0.0
 11
392.1006532538914939
 21
75.7534317208876189
 31
0.0
  0
LINE
  5
FDE4
  8
0
 10
392.0779229283915015
 20
75.765149906087629
 30
0.0
 11
392.1006532538914939
 21
75.765149906087629
 31
0.0
  0
LINE
  5
FDE5
  8
0
 10
392.1006532538914939
 20
75.765149906087629
 30
0.0
 11
392.1120184166915124
 21
75.7600550429876307
 31
0.0
  0
LINE
  5
FDE6
  8
0
 10
392.1120184166915124
 20
75.7600550429876307
 30
0.0
 11
392.1006532538914939
 21
75.7549601798876324
 31
0.0
  0
LINE
  5
FDE7
  8
0
 10
392.1006532538914939
 20
75.7549601798876324
 30
0.0
 11
392.0779229283915015
 21
75.7549601798876324
 31
0.0
  0
LINE
  5
FDE8
  8
0
 10
392.0779229283915015
 20
75.7549601798876324
 30
0.0
 11
392.0665577655914831
 21
75.7600550429876307
 31
0.0
  0
LINE
  5
FDE9
  8
0
 10
392.0665577655914831
 20
75.7600550429876307
 30
0.0
 11
392.0779229283915015
 21
75.765149906087629
 31
0.0
  0
LINE
  5
FDEA
  8
0
 10
392.0779229283915015
 20
75.765149906087629
 30
0.0
 11
392.0779229283915015
 21
75.7549601798876324
 31
0.0
  0
LINE
  5
FDEB
  8
0
 10
392.1006532538914939
 20
75.7549601798876324
 30
0.0
 11
392.1006532538914939
 21
75.765149906087629
 31
0.0
  0
LINE
  5
FDEC
  8
0
 10
392.0779229283915015
 20
75.7768680911876231
 30
0.0
 11
392.1006532538914939
 21
75.7768680911876231
 31
0.0
  0
LINE
  5
FDED
  8
0
 10
392.1006532538914939
 20
75.7768680911876231
 30
0.0
 11
392.1120184166915124
 21
75.7717732280876248
 31
0.0
  0
LINE
  5
FDEE
  8
0
 10
392.1120184166915124
 20
75.7717732280876248
 30
0.0
 11
392.1006532538914939
 21
75.7666783649876265
 31
0.0
  0
LINE
  5
FDEF
  8
0
 10
392.1006532538914939
 20
75.7666783649876265
 30
0.0
 11
392.0779229283915015
 21
75.7666783649876265
 31
0.0
  0
LINE
  5
FDF0
  8
0
 10
392.0779229283915015
 20
75.7666783649876265
 30
0.0
 11
392.0665577655914831
 21
75.7717732280876248
 31
0.0
  0
LINE
  5
FDF1
  8
0
 10
392.0665577655914831
 20
75.7717732280876248
 30
0.0
 11
392.0779229283915015
 21
75.7768680911876231
 31
0.0
  0
LINE
  5
FDF2
  8
0
 10
392.0779229283915015
 20
75.7768680911876231
 30
0.0
 11
392.0779229283915015
 21
75.7666783649876265
 31
0.0
  0
LINE
  5
FDF3
  8
0
 10
392.1006532538914939
 20
75.7666783649876265
 30
0.0
 11
392.1006532538914939
 21
75.7768680911876231
 31
0.0
  0
LINE
  5
FDF4
  8
0
 10
392.0779229283915015
 20
75.788586276287603
 30
0.0
 11
392.1006532538914939
 21
75.788586276287603
 31
0.0
  0
LINE
  5
FDF5
  8
0
 10
392.1006532538914939
 20
75.788586276287603
 30
0.0
 11
392.1120184166915124
 21
75.7834914131876189
 31
0.0
  0
LINE
  5
FDF6
  8
0
 10
392.1120184166915124
 20
75.7834914131876189
 30
0.0
 11
392.1006532538914939
 21
75.7783965500876207
 31
0.0
  0
LINE
  5
FDF7
  8
0
 10
392.1006532538914939
 20
75.7783965500876207
 30
0.0
 11
392.0779229283915015
 21
75.7783965500876207
 31
0.0
  0
LINE
  5
FDF8
  8
0
 10
392.0779229283915015
 20
75.7783965500876207
 30
0.0
 11
392.0665577655914831
 21
75.7834914131876189
 31
0.0
  0
LINE
  5
FDF9
  8
0
 10
392.0665577655914831
 20
75.7834914131876189
 30
0.0
 11
392.0779229283915015
 21
75.788586276287603
 31
0.0
  0
LINE
  5
FDFA
  8
0
 10
392.0779229283915015
 20
75.788586276287603
 30
0.0
 11
392.0779229283915015
 21
75.7783965500876207
 31
0.0
  0
LINE
  5
FDFB
  8
0
 10
392.1006532538914939
 20
75.7783965500876207
 30
0.0
 11
392.1006532538914939
 21
75.788586276287603
 31
0.0
  0
LINE
  5
FDFC
  8
0
 10
392.0935521361445808
 20
75.8003044613876256
 30
0.0
 11
392.1006532538914939
 21
75.8003044613876256
 31
0.0
  0
LINE
  5
FDFD
  8
0
 10
392.1006532538914939
 20
75.8003044613876256
 30
0.0
 11
392.1120184166915124
 21
75.7952095982876131
 31
0.0
  0
LINE
  5
FDFE
  8
0
 10
392.1120184166915124
 20
75.7952095982876131
 30
0.0
 11
392.1006532538914939
 21
75.790114735187629
 31
0.0
  0
LINE
  5
FDFF
  8
0
 10
392.1006532538914939
 20
75.790114735187629
 30
0.0
 11
392.0779229283915015
 21
75.790114735187629
 31
0.0
  0
LINE
  5
FE00
  8
0
 10
392.0779229283915015
 20
75.790114735187629
 30
0.0
 11
392.0752260453252802
 21
75.79132371479146
 31
0.0
  0
LINE
  5
FE01
  8
0
 10
392.0779229283915015
 20
75.7927996987398984
 30
0.0
 11
392.0779229283915015
 21
75.790114735187629
 31
0.0
  0
LINE
  5
FE02
  8
0
 10
392.1006532538914939
 20
75.790114735187629
 30
0.0
 11
392.1006532538914939
 21
75.8003044613876256
 31
0.0
  0
LINE
  5
FE03
  8
0
 10
392.3849388791915089
 20
75.6962990721876281
 30
0.0
 11
392.3751219349915118
 21
75.7006998878876232
 31
0.0
  0
LINE
  5
FE04
  8
0
 10
392.3751219349915118
 20
75.7006998878876232
 30
0.0
 11
392.3523916094915194
 21
75.7006998878876232
 31
0.0
  0
LINE
  5
FE05
  8
0
 10
392.3523916094915194
 20
75.7006998878876232
 30
0.0
 11
392.3425746652915223
 21
75.6962990721876281
 31
0.0
  0
LINE
  5
FE06
  8
0
 10
392.3425746652915223
 20
75.6962990721876281
 30
0.0
 11
392.3359121233914948
 21
75.6963692542876316
 31
0.0
  0
LINE
  5
FE07
  8
0
 10
392.3112005462915022
 20
75.6972574250251569
 30
0.0
 11
392.3035812110915117
 21
75.6976161616876055
 31
0.0
  0
LINE
  5
FE08
  8
0
 10
392.3035812110915117
 20
75.6976161616876055
 30
0.0
 11
392.2967023117914778
 21
75.7006998878876232
 31
0.0
  0
LINE
  5
FE09
  8
0
 10
392.2967023117914778
 20
75.7006998878876232
 30
0.0
 11
392.2739719862914853
 21
75.7006998878876232
 31
0.0
  0
LINE
  5
FE0A
  8
0
 10
392.2739719862914853
 20
75.7006998878876232
 30
0.0
 11
392.271686326274903
 21
75.699675254580157
 31
0.0
  0
LINE
  5
FE0B
  8
0
 10
392.271686326274903
 20
75.699675254580157
 30
0.0
 11
392.265919945391488
 21
75.7001471746154095
 31
0.0
  0
LINE
  5
FE0C
  8
0
 10
392.265919945391488
 20
75.7001471746154095
 30
0.0
 11
392.2688576629914792
 21
75.7014641173876299
 31
0.0
  0
LINE
  5
FE0D
  8
0
 10
392.2688576629914792
 20
75.7014641173876299
 30
0.0
 11
392.2574925002915052
 21
75.706558980487614
 31
0.0
  0
LINE
  5
FE0E
  8
0
 10
392.2574925002915052
 20
75.706558980487614
 30
0.0
 11
392.2347621746915252
 21
75.706558980487614
 31
0.0
  0
LINE
  5
FE0F
  8
0
 10
392.2347621746915252
 20
75.706558980487614
 30
0.0
 11
392.228959193622984
 21
75.7039575752465765
 31
0.0
  0
LINE
  5
FE10
  8
0
 10
392.228959193622984
 20
75.7039575752465765
 30
0.0
 11
392.2236320811915107
 21
75.7046264138876239
 31
0.0
  0
LINE
  5
FE11
  8
0
 10
392.2236320811915107
 20
75.7046264138876239
 30
0.0
 11
392.2296478514915066
 21
75.707323209887619
 31
0.0
  0
LINE
  5
FE12
  8
0
 10
392.2296478514915066
 20
75.707323209887619
 30
0.0
 11
392.2182826886914881
 21
75.7124180729876031
 31
0.0
  0
LINE
  5
FE13
  8
0
 10
392.2182826886914881
 20
75.7124180729876031
 30
0.0
 11
392.1955523630915081
 21
75.7124180729876031
 31
0.0
  0
LINE
  5
FE14
  8
0
 10
392.1955523630915081
 20
75.7124180729876031
 30
0.0
 11
392.1895365927915122
 21
75.7097212769876222
 31
0.0
  0
LINE
  5
FE15
  8
0
 10
392.1895365927915122
 20
75.7097212769876222
 30
0.0
 11
392.1846350586915264
 21
75.7105808971961807
 31
0.0
  0
LINE
  5
FE16
  8
0
 10
392.1846350586915264
 20
75.7105808971961807
 30
0.0
 11
392.1904380398914896
 21
75.713182302487624
 31
0.0
  0
LINE
  5
FE17
  8
0
 10
392.1904380398914896
 20
75.713182302487624
 30
0.0
 11
392.179072877091528
 21
75.7182771655876223
 31
0.0
  0
LINE
  5
FE18
  8
0
 10
392.179072877091528
 20
75.7182771655876223
 30
0.0
 11
392.1563425514914911
 21
75.7182771655876223
 31
0.0
  0
LINE
  5
FE19
  8
0
 10
392.1563425514914911
 20
75.7182771655876223
 30
0.0
 11
392.1534048338476737
 21
75.7169602227679945
 31
0.0
  0
LINE
  5
FE1A
  8
0
 10
392.1534048338476737
 20
75.7169602227679945
 30
0.0
 11
392.1489425682914884
 21
75.718016761643085
 31
0.0
  0
LINE
  5
FE1B
  8
0
 10
392.1489425682914884
 20
75.718016761643085
 30
0.0
 11
392.1512282282915862
 21
75.7190413950876291
 31
0.0
  0
LINE
  5
FE1C
  8
0
 10
392.1512282282915862
 20
75.7190413950876291
 30
0.0
 11
392.139863065491511
 21
75.7241362580876256
 31
0.0
  0
LINE
  5
FE1D
  8
0
 10
392.139863065491511
 20
75.7241362580876256
 30
0.0
 11
392.1261052669914875
 21
75.7241362580876256
 31
0.0
  0
LINE
  5
FE1E
  8
0
 10
392.1261052669914875
 20
75.7241362580876256
 30
0.0
 11
392.1171327399915185
 21
75.7256647170876249
 31
0.0
  0
LINE
  5
FE1F
  8
0
 10
392.1057675771915001
 20
75.7307595801876232
 30
0.0
 11
392.1022014724915152
 21
75.7322178569876314
 31
0.0
  0
LINE
  5
FE20
  8
0
 10
392.1022014724915152
 20
75.7322178569876314
 30
0.0
 11
392.1120184166915124
 21
75.7366186726876265
 31
0.0
  0
LINE
  5
FE21
  8
0
 10
392.1120184166915124
 20
75.7366186726876265
 30
0.0
 11
392.1006532538914939
 21
75.7417135357876248
 31
0.0
  0
LINE
  5
FE22
  8
0
 10
392.1006532538914939
 20
75.7417135357876248
 30
0.0
 11
392.0810193655914873
 21
75.7417135357876248
 31
0.0
  0
LINE
  5
FE23
  8
0
 10
392.0810193655914873
 20
75.7417135357876248
 30
0.0
 11
392.0779229283915015
 21
75.7432419946876223
 31
0.0
  0
LINE
  5
FE24
  8
0
 10
392.0685390171211111
 20
75.7492250285398114
 30
0.0
 11
392.0659297057915182
 21
75.751112224199332
 31
0.0
  0
LINE
  5
FE25
  8
0
 10
392.0659297057915182
 20
75.751112224199332
 30
0.0
 11
392.0728086050914953
 21
75.7541959503876257
 31
0.0
  0
LINE
  5
FE26
  8
0
 10
392.0728086050914953
 20
75.7541959503876257
 30
0.0
 11
392.0614434422914769
 21
75.759290813487624
 31
0.0
  0
LINE
  5
FE27
  8
0
 10
392.0614434422914769
 20
75.759290813487624
 30
0.0
 11
392.0568721223044122
 21
75.7592908134516421
 31
0.0
  0
LINE
  5
FE28
  8
0
 10
392.0568721223044122
 20
75.7592908134516421
 30
0.0
 11
392.0555680070739868
 21
75.7608192723876215
 31
0.0
  0
LINE
  5
FE29
  8
0
 10
392.0555680070739868
 20
75.7608192723876215
 30
0.0
 11
392.0614434422914769
 21
75.7608192723876215
 31
0.0
  0
LINE
  5
FE2A
  8
0
 10
392.0614434422914769
 20
75.7608192723876215
 30
0.0
 11
392.0728086050914953
 21
75.765914135487634
 31
0.0
  0
LINE
  5
FE2B
  8
0
 10
392.0728086050914953
 20
75.765914135487634
 30
0.0
 11
392.0614434422914769
 21
75.7710089985876323
 31
0.0
  0
LINE
  5
FE2C
  8
0
 10
392.0614434422914769
 20
75.7710089985876323
 30
0.0
 11
392.0524024381351182
 21
75.7710167351478816
 31
0.0
  0
LINE
  5
FE2D
  8
0
 10
392.0624660531639734
 20
75.782268759844996
 30
0.0
 11
392.0728086050914953
 21
75.7776323205876281
 31
0.0
  0
LINE
  5
FE2E
  8
0
 10
392.0728086050914953
 20
75.7776323205876281
 30
0.0
 11
392.0614434422914769
 21
75.7725374574876156
 31
0.0
  0
LINE
  5
FE2F
  8
0
 10
392.0614434422914769
 20
75.7725374574876156
 30
0.0
 11
392.0533490744412006
 21
75.7725508153946521
 31
0.0
  0
LINE
  5
FE30
  8
0
 10
392.0614434422914769
 20
75.7813665226571231
 30
0.0
 11
392.0614434422914769
 21
75.7725374574876156
 31
0.0
  0
LINE
  5
FE31
  8
0
 10
392.0614434422914769
 20
75.7710089985876323
 30
0.0
 11
392.0614434422914769
 21
75.7608192723876215
 31
0.0
  0
LINE
  5
FE32
  8
0
 10
392.0555680070914946
 20
75.7608192723670584
 30
0.0
 11
392.0555925648466769
 21
75.7710140052954131
 31
0.0
  0
LINE
  5
FE33
  8
0
 10
392.0659297057915182
 20
75.7572796765876291
 30
0.0
 11
392.0659297057915182
 21
75.751112224199332
 31
0.0
  0
LINE
  5
FE34
  8
0
 10
392.1022014724915152
 20
75.7410194883767218
 30
0.0
 11
392.1022014725343752
 21
75.7322178570068729
 31
0.0
  0
LINE
  5
FE35
  8
0
 10
392.1489425682914884
 20
75.7200660284140099
 30
0.0
 11
392.1489425682914884
 21
75.7180167616876219
 31
0.0
  0
LINE
  5
FE36
  8
0
 10
392.1846350586915264
 20
75.7157837077876223
 30
0.0
 11
392.1846350587052257
 21
75.7105808971937648
 31
0.0
  0
LINE
  5
FE37
  8
0
 10
392.2236320811915107
 20
75.71002000598763
 30
0.0
 11
392.2236320811915107
 21
75.7046264138876239
 31
0.0
  0
LINE
  5
FE38
  8
0
 10
392.265919945391488
 20
75.7027810601876041
 30
0.0
 11
392.265919945391488
 21
75.7001471745876273
 31
0.0
  0
LINE
  5
FE39
  8
0
 10
392.2633459550544899
 20
75.8358985847312397
 30
0.0
 11
392.2739719862914853
 21
75.8311283830876306
 31
0.0
  0
LINE
  5
FE3A
  8
0
 10
392.2739719862914853
 20
75.8311283830876306
 30
0.0
 11
392.2967023117914778
 21
75.8311283830876306
 31
0.0
  0
LINE
  5
FE3B
  8
0
 10
392.2967023117914778
 20
75.8311283830876306
 30
0.0
 11
392.3080674745914962
 21
75.8362232461876289
 31
0.0
  0
LINE
  5
FE3C
  8
0
 10
392.3080674745914962
 20
75.8362232461876289
 30
0.0
 11
392.3028839419611131
 21
75.8385469602540638
 31
0.0
  0
LINE
  5
FE3D
  8
0
 10
392.2967023117914778
 20
75.8311283830876306
 30
0.0
 11
392.2967023117914778
 21
75.8382163860799494
 31
0.0
  0
LINE
  5
FE3E
  8
0
 10
392.2739719862914853
 20
75.8311283830876306
 30
0.0
 11
392.2739719862914853
 21
75.8367375439068923
 31
0.0
  0
LINE
  5
FE3F
  8
0
 10
392.3090367781350096
 20
75.838845637126326
 30
0.0
 11
392.3131817978915024
 21
75.8369874755876197
 31
0.0
  0
LINE
  5
FE40
  8
0
 10
392.3131817978915024
 20
75.8369874755876197
 30
0.0
 11
392.3359121233914948
 21
75.8369874755876197
 31
0.0
  0
LINE
  5
FE41
  8
0
 10
392.3359121233914948
 20
75.8369874755876197
 30
0.0
 11
392.3424935757914795
 21
75.8399378599876286
 31
0.0
  0
LINE
  5
FE42
  8
0
 10
392.3359121233914948
 20
75.8369874755876197
 30
0.0
 11
392.3359121233914948
 21
75.8397956728876039
 31
0.0
  0
LINE
  5
FE43
  8
0
 10
392.3131817978915024
 20
75.8369874755876197
 30
0.0
 11
392.3131817978915024
 21
75.8390297853099753
 31
0.0
  0
LINE
  5
FE44
  8
0
 10
392.3495404608055992
 20
75.8400484511052753
 30
0.0
 11
392.341026446691501
 21
75.8362232461876289
 31
0.0
  0
LINE
  5
FE45
  8
0
 10
392.341026446691501
 20
75.8362232461876289
 30
0.0
 11
392.3523916094915194
 21
75.8311283830876306
 31
0.0
  0
LINE
  5
FE46
  8
0
 10
392.3523916094915194
 20
75.8311283830876306
 30
0.0
 11
392.3751219349915118
 21
75.8311283830876306
 31
0.0
  0
LINE
  5
FE47
  8
0
 10
392.3751219349915118
 20
75.8311283830876306
 30
0.0
 11
392.3864870977914734
 21
75.8362232461876289
 31
0.0
  0
LINE
  5
FE48
  8
0
 10
392.3864870977914734
 20
75.8362232461876289
 30
0.0
 11
392.3779578729020159
 21
75.8400532372154146
 31
0.0
  0
LINE
  5
FE49
  8
0
 10
392.3523916094915194
 20
75.8311283830876306
 30
0.0
 11
392.3523916094915194
 21
75.8400931966676666
 31
0.0
  0
LINE
  5
FE4A
  8
0
 10
392.3751219349915118
 20
75.8311283830876306
 30
0.0
 11
392.3751219349915118
 21
75.8400803898916678
 31
0.0
  0
ARC
  5
FE4B
  8
0
 10
392.3617650863062067
 20
74.6036243011573532
 30
0.0
 40
1.2441553969176899
 50
89.9082816079072558
 51
96.0832543311917533
  0
ARC
  5
FE4C
  8
0
 10
392.3114407899757907
 20
75.0758266877006548
 30
0.0
 40
0.7692789617702858
 50
96.0832543311917533
 51
107.0872351657391022
  0
ARC
  5
FE4D
  8
0
 10
392.1321952447814283
 20
75.6589356508408457
 30
0.0
 40
0.1592420543896968
 50
107.0872351657391022
 51
128.6838741223363058
  0
ARC
  5
FE4E
  8
0
 10
392.0577876237866803
 20
75.7526742611022144
 30
0.0
 40
0.0395658590923792
 50
129.4162388634574938
 51
162.8805961807960898
  0
ARC
  5
FE4F
  8
0
 10
392.0426769414004866
 20
75.7586230955706839
 30
0.0
 40
0.0234062767471278
 50
165.9104748763874966
 51
191.0004735449149109
  0
ARC
  5
FE50
  8
0
 10
392.0485583674641248
 20
75.7597663794333442
 30
0.0
 40
0.0293977932941541
 50
191.0004735449149109
 51
224.0233790228236046
  0
ARC
  5
FE51
  8
0
 10
392.1014272538587875
 20
75.8108629763635093
 30
0.0
 40
0.102923172357868
 50
224.0233790228236046
 51
244.9222985356938125
  0
ARC
  5
FE52
  8
0
 10
392.2007226230276729
 20
76.023050824645594
 30
0.0
 40
0.3371949233159566
 50
244.9222985356938125
 51
255.3728261988894985
  0
ARC
  5
FE53
  8
0
 10
392.2936130683207807
 20
76.3789706367282832
 30
0.0
 40
0.7050366657266128
 50
255.3728261988894985
 51
262.3097852105526044
  0
ARC
  5
FE54
  8
0
 10
392.3591163740815091
 20
76.8640674701005366
 30
0.0
 40
1.194536023043214
 50
262.3097852105526044
 51
266.9888439773590108
  0
ARC
  5
FE55
  8
0
 10
392.361960778185221
 20
76.9181404836343887
 30
0.0
 40
1.24868379702643
 50
266.9888439773590108
 51
270.0824092595623256
  0
ARC
  5
FE56
  8
0
 10
392.073203324758822
 20
75.7731129758165451
 30
0.0
 40
0.0315187298851662
 50
131.6882920872573948
 51
222.2051320735185982
  0
LINE
  5
FE57
  8
0
 10
392.8165126845005943
 20
75.7329247418876292
 30
0.0
 11
392.7524113547482898
 21
75.7329247418876292
 31
0.0
  0
ARC
  5
FE58
  8
0
 10
392.3637960017799173
 20
77.2320024248718937
 30
0.0
 40
1.5710415777125131
 50
269.9985694237417988
 51
271.7793059494914019
  0
ARC
  5
FE59
  8
0
 10
392.3683523239660076
 20
77.0853305695755608
 30
0.0
 40
1.4242989690130159
 50
271.7793059494914019
 51
277.8774219860370067
  0
ARC
  5
FE5A
  8
0
 10
392.4534941515323112
 20
76.4699653940893143
 30
0.0
 40
0.8030716112746887
 50
277.8774219860370067
 51
285.3866259324951784
  0
ARC
  5
FE5B
  8
0
 10
392.5960594112349895
 20
75.9757150403085859
 30
0.0
 40
0.2887785643840961
 50
284.1335104252012229
 51
302.7806997450263111
  0
ARC
  5
FE5C
  8
0
 10
392.7193260027898987
 20
75.7868568300617369
 30
0.0
 40
0.0632717207686977
 50
301.5275842377333788
 51
338.1887078563000841
  0
ARC
  5
FE5D
  8
0
 10
392.7516443162332962
 20
75.7739230379093556
 30
0.0
 40
0.0284614297146729
 50
338.1887078563000841
 51
30.3169599788614015
  0
ARC
  5
FE5E
  8
0
 10
392.6753287529937211
 20
75.7108614591428193
 30
0.0
 40
0.1271727220274693
 50
37.5060093850205689
 51
72.465597948012956
  0
ARC
  5
FE5F
  8
0
 10
392.4753785930627146
 20
75.1744680553088216
 30
0.0
 40
0.6994876633941296
 50
70.0849064815082556
 51
83.2798205779687351
  0
ARC
  5
FE60
  8
0
 10
392.376320776441105
 20
74.5130921443289935
 30
0.0
 40
1.3680723059576261
 50
82.4010172841462349
 51
87.5010569633457038
  0
ARC
  5
FE61
  8
0
 10
392.3640106880998246
 20
74.2962310216073831
 30
0.0
 40
1.585266480402286
 50
87.398302213328023
 51
90.0091770784728453
  0
ARC
  5
FE62
  8
0
 10
392.3639176505221826
 20
74.3447061311425728
 30
0.0
 40
1.524943316540865
 50
87.2918936914548169
 51
90.0060480191164345
  0
ARC
  5
FE63
  8
0
 10
392.3708317736627009
 20
74.4908802410755158
 30
0.0
 40
1.378605776881703
 50
83.2327350020898251
 51
87.2918936914548169
  0
ARC
  5
FE64
  8
0
 10
392.4229752831823816
 20
74.9303040723148541
 30
0.0
 40
0.9360989983504813
 50
76.2506591949729398
 51
83.2327350020898251
  0
ARC
  5
FE65
  8
0
 10
392.5562571029602168
 20
75.4750090575327306
 30
0.0
 40
0.3753249222694829
 50
62.780661665642981
 51
76.2506591949729398
  0
ARC
  5
FE66
  8
0
 10
392.6882089278797139
 20
75.7315465265365333
 30
0.0
 40
0.0868413749007325
 50
37.1839868417010067
 51
62.780661665642981
  0
ARC
  5
FE67
  8
0
 10
392.7340086640991217
 20
75.766290247750419
 30
0.0
 40
0.0293544894262484
 50
359.8702016349104156
 51
37.1839868417010067
  0
ARC
  5
FE68
  8
0
 10
392.7343006419715152
 20
75.7662895863000472
 30
0.0
 40
0.029062510804696
 50
327.8815965732646873
 51
359.8702016349112114
  0
ARC
  5
FE69
  8
0
 10
392.6954975977752156
 20
75.793024462780906
 30
0.0
 40
0.0761675414249901
 50
300.2775289934842249
 51
326.3674029862922907
  0
ARC
  5
FE6A
  8
0
 10
392.6271523946026036
 20
75.8994418787718246
 30
0.0
 40
0.2025989385972063
 50
292.3292056013777938
 51
301.7957915646312017
  0
ARC
  5
FE6B
  8
0
 10
392.5428117944529163
 20
76.1067974383851578
 30
0.0
 40
0.4264502013720569
 50
284.2004835876844027
 51
292.226597752392081
  0
ARC
  5
FE6C
  8
0
 10
392.4383581958958871
 20
76.5204505183381087
 30
0.0
 40
0.8530875203878537
 50
277.2627940138112876
 51
284.1861308079123773
  0
ARC
  5
FE6D
  8
0
 10
392.3747445454080776
 20
76.9893034523296507
 30
0.0
 40
1.3262263280682081
 50
272.3778231199585207
 51
277.4282864065805256
  0
ARC
  5
FE6E
  8
0
 10
392.3639894346334245
 20
77.1859908577430218
 30
0.0
 40
1.5231927908590741
 50
269.9912483954523736
 51
272.4750782523793191
  0
ARC
  5
FE6F
  8
0
 10
392.3651985333248149
 20
74.5320393871436977
 30
0.0
 40
1.328440117514891
 50
83.9885070025713958
 51
90.0621831937064456
  0
ARC
  5
FE70
  8
0
 10
392.4148064683117241
 20
75.0031183588394583
 30
0.0
 40
0.8547563149761266
 50
74.8122834262698149
 51
83.9885070025713958
  0
ARC
  5
FE71
  8
0
 10
392.5717540923728279
 20
75.5812714339714802
 30
0.0
 40
0.2556790787343679
 50
60.1350800793576283
 51
74.8122834262698149
  0
ARC
  5
FE72
  8
0
 10
392.6585982960943966
 20
75.7325123395004454
 30
0.0
 40
0.0812780259128567
 50
40.6266073827693006
 51
60.1350800793576283
  0
ARC
  5
FE73
  8
0
 10
392.6952491321388266
 20
75.7639554406218565
 30
0.0
 40
0.0329877329867819
 50
13.8160819301146809
 51
40.6266073827693006
  0
ARC
  5
FE74
  8
0
 10
392.7055004123437243
 20
75.7664764477049175
 30
0.0
 40
0.0224310184148776
 50
359.3545126240138075
 51
13.8160819301138904
  0
ARC
  5
FE75
  8
0
 10
392.693295012011788
 20
75.7666139580979632
 30
0.0
 40
0.0346371933428439
 50
339.3792692582791801
 51
359.3545126240138075
  0
ARC
  5
FE76
  8
0
 10
392.6770496954678151
 20
75.7749011664693057
 30
0.0
 40
0.0527995298070903
 50
309.4754949061539264
 51
337.1704447034969121
  0
ARC
  5
FE77
  8
0
 10
392.6455997165762142
 20
75.8090274518234537
 30
0.0
 40
0.0991693348159864
 50
303.0178765472558098
 51
310.9665120256645992
  0
ARC
  5
FE78
  8
0
 10
392.573568604728905
 20
75.9327123718972672
 30
0.0
 40
0.2422301187647778
 50
286.3455751039625738
 51
301.3624093917824212
  0
ARC
  5
FE79
  8
0
 10
392.4369236158202057
 20
76.3916523894846762
 30
0.0
 40
0.7210792588200605
 50
276.333706571861228
 51
286.5015129964953076
  0
ARC
  5
FE7A
  8
0
 10
392.3688436919420042
 20
76.9137930870744384
 30
0.0
 40
1.2475840189335059
 50
271.1509972147940175
 51
276.7958277222315928
  0
ARC
  5
FE7B
  8
0
 10
392.3638110873973801
 20
77.0464312688177131
 30
0.0
 40
1.380298559715931
 50
269.9977452613495075
 51
271.249260721691428
  0
LINE
  5
FE7C
  8
0
 10
392.7279300073005857
 20
75.8087712650876284
 30
0.0
 11
392.7279296158607735
 21
75.7667617838549603
 31
0.0
  0
ARC
  5
FE7D
  8
0
 10
392.3639784360966019
 20
74.7180308498701322
 30
0.0
 40
1.1221048738108941
 50
88.5894003544750035
 51
90.0113182034465353
  0
ARC
  5
FE7E
  8
0
 10
392.3607103728429024
 20
74.5853153773135631
 30
0.0
 40
1.254860577618089
 50
85.5269228411058862
 51
88.5894003544750035
  0
ARC
  5
FE7F
  8
0
 10
392.3898157378926044
 20
74.9573691455278066
 30
0.0
 40
0.8816701051819705
 50
82.3709242940015827
 51
85.5269228411058862
  0
ARC
  5
FE80
  8
0
 10
392.3995738629093921
 20
75.0302208629140353
 30
0.0
 40
0.808167766920061
 50
77.7215101251128146
 51
82.3709242940015827
  0
ARC
  5
FE81
  8
0
 10
392.4883075353432105
 20
75.4379255484103055
 30
0.0
 40
0.3909187103612955
 50
71.4863423605537349
 51
77.7215101251128146
  0
ARC
  5
FE82
  8
0
 10
392.5314804284914771
 20
75.5668535835167745
 30
0.0
 40
0.2549542409613065
 50
62.4023062387501284
 51
71.4863423605503954
  0
ARC
  5
FE83
  8
0
 10
392.6122883158789136
 20
75.7214399705911063
 30
0.0
 40
0.0805212574613113
 50
43.0922422516665335
 51
62.4023062387501284
  0
ARC
  5
FE84
  8
0
 10
392.6495608357390097
 20
75.7563095130604438
 30
0.0
 40
0.0294808251674781
 50
14.2260562647733604
 51
43.0922422516665335
  0
ARC
  5
FE85
  8
0
 10
392.6584071344580025
 20
75.7585522518569974
 30
0.0
 40
0.0203546606754389
 50
341.0407275772595881
 51
14.2260562647717794
  0
ARC
  5
FE86
  8
0
 10
392.6464595671217239
 20
75.7626566319258785
 30
0.0
 40
0.0329875661609156
 50
314.5880477955809056
 51
341.0407275772611229
  0
ARC
  5
FE87
  8
0
 10
392.6086178521612169
 20
75.8010464551698817
 30
0.0
 40
0.0868927970746196
 50
299.7473417313191248
 51
314.5880477955849983
  0
ARC
  5
FE88
  8
0
 10
392.547273769913204
 20
75.9083878981483338
 30
0.0
 40
0.2105264567614319
 50
283.5369088104596926
 51
299.7473417313191248
  0
ARC
  5
FE89
  8
0
 10
392.262135184148292
 20
77.0927141140280128
 30
0.0
 40
1.4286941786748839
 50
280.839176478930824
 51
283.5369088104596926
  0
ARC
  5
FE8A
  8
0
 10
392.4405718058043817
 20
76.1607790106582314
 30
0.0
 40
0.4798302975829442
 50
273.4181730327899231
 51
280.839176478930824
  0
ARC
  5
FE8B
  8
0
 10
392.3657654009595035
 20
76.8220609855237484
 30
0.0
 40
1.1449386409834279
 50
270.8663784976114925
 51
275.182241053377993
  0
ARC
  5
FE8C
  8
0
 10
392.3637840955047977
 20
76.8948080023830869
 30
0.0
 40
1.217707618481499
 50
269.9987148460086814
 51
270.9078362472470189
  0
LINE
  5
FE8D
  8
0
 10
392.414331753300587
 20
75.7182771655876223
 30
0.0
 11
392.3916014278005946
 21
75.7182771655876223
 31
0.0
  0
LINE
  5
FE8E
  8
0
 10
392.3916014278005946
 20
75.7182771655876223
 30
0.0
 11
392.3802362650005762
 21
75.713182302487624
 31
0.0
  0
LINE
  5
FE8F
  8
0
 10
392.3802362650005762
 20
75.713182302487624
 30
0.0
 11
392.3916014278005946
 21
75.7080874393876257
 31
0.0
  0
LINE
  5
FE90
  8
0
 10
392.3916014278005946
 20
75.7080874393876257
 30
0.0
 11
392.414331753300587
 21
75.7080874393876257
 31
0.0
  0
LINE
  5
FE91
  8
0
 10
392.414331753300587
 20
75.7080874393876257
 30
0.0
 11
392.4256969161007191
 21
75.713182302487624
 31
0.0
  0
LINE
  5
FE92
  8
0
 10
392.4256969161007191
 20
75.713182302487624
 30
0.0
 11
392.414331753300587
 21
75.7182771655876223
 31
0.0
  0
LINE
  5
FE93
  8
0
 10
392.414331753300587
 20
75.7182771655876223
 30
0.0
 11
392.414331753300587
 21
75.7080874393876257
 31
0.0
  0
LINE
  5
FE94
  8
0
 10
392.3916014278005946
 20
75.7080874393876257
 30
0.0
 11
392.3916014278005946
 21
75.7182771655876223
 31
0.0
  0
LINE
  5
FE95
  8
0
 10
392.414331753300587
 20
75.7299953506876307
 30
0.0
 11
392.3916014278005946
 21
75.7299953506876307
 31
0.0
  0
LINE
  5
FE96
  8
0
 10
392.3916014278005946
 20
75.7299953506876307
 30
0.0
 11
392.3802362650005762
 21
75.7249004875876324
 31
0.0
  0
LINE
  5
FE97
  8
0
 10
392.3802362650005762
 20
75.7249004875876324
 30
0.0
 11
392.3916014278005946
 21
75.7198056244876341
 31
0.0
  0
LINE
  5
FE98
  8
0
 10
392.3916014278005946
 20
75.7198056244876341
 30
0.0
 11
392.414331753300587
 21
75.7198056244876199
 31
0.0
  0
LINE
  5
FE99
  8
0
 10
392.414331753300587
 20
75.7198056244876199
 30
0.0
 11
392.4256969161007191
 21
75.7249004875876324
 31
0.0
  0
LINE
  5
FE9A
  8
0
 10
392.4256969161007191
 20
75.7249004875876324
 30
0.0
 11
392.414331753300587
 21
75.7299953506876307
 31
0.0
  0
LINE
  5
FE9B
  8
0
 10
392.414331753300587
 20
75.7299953506876307
 30
0.0
 11
392.414331753300587
 21
75.7198056244876199
 31
0.0
  0
LINE
  5
FE9C
  8
0
 10
392.3916014278005946
 20
75.7198056244876341
 30
0.0
 11
392.3916014278005946
 21
75.7299953506876307
 31
0.0
  0
LINE
  5
FE9D
  8
0
 10
392.414331753300587
 20
75.7417135357876248
 30
0.0
 11
392.3916014278005946
 21
75.7417135357876248
 31
0.0
  0
LINE
  5
FE9E
  8
0
 10
392.3916014278005946
 20
75.7417135357876248
 30
0.0
 11
392.3802362650005762
 21
75.7366186726876265
 31
0.0
  0
LINE
  5
FE9F
  8
0
 10
392.3802362650005762
 20
75.7366186726876265
 30
0.0
 11
392.3916014278005946
 21
75.7315238095876282
 31
0.0
  0
LINE
  5
FEA0
  8
0
 10
392.3916014278005946
 20
75.7315238095876282
 30
0.0
 11
392.414331753300587
 21
75.7315238095876282
 31
0.0
  0
LINE
  5
FEA1
  8
0
 10
392.414331753300587
 20
75.7315238095876282
 30
0.0
 11
392.4256969161007191
 21
75.7366186726876265
 31
0.0
  0
LINE
  5
FEA2
  8
0
 10
392.4256969161007191
 20
75.7366186726876265
 30
0.0
 11
392.414331753300587
 21
75.7417135357876248
 31
0.0
  0
LINE
  5
FEA3
  8
0
 10
392.414331753300587
 20
75.7417135357876248
 30
0.0
 11
392.414331753300587
 21
75.7315238095876282
 31
0.0
  0
LINE
  5
FEA4
  8
0
 10
392.3916014278005946
 20
75.7315238095876282
 30
0.0
 11
392.3916014278005946
 21
75.7417135357876248
 31
0.0
  0
LINE
  5
FEA5
  8
0
 10
392.414331753300587
 20
75.765149906087629
 30
0.0
 11
392.3916014278005946
 21
75.765149906087629
 31
0.0
  0
LINE
  5
FEA6
  8
0
 10
392.3916014278005946
 20
75.765149906087629
 30
0.0
 11
392.3802362650005762
 21
75.7600550429876307
 31
0.0
  0
LINE
  5
FEA7
  8
0
 10
392.3802362650005762
 20
75.7600550429876307
 30
0.0
 11
392.3916014278005946
 21
75.7549601798876324
 31
0.0
  0
LINE
  5
FEA8
  8
0
 10
392.3916014278005946
 20
75.7549601798876324
 30
0.0
 11
392.414331753300587
 21
75.7549601798876324
 31
0.0
  0
LINE
  5
FEA9
  8
0
 10
392.414331753300587
 20
75.7549601798876324
 30
0.0
 11
392.4256969161007191
 21
75.7600550429876307
 31
0.0
  0
LINE
  5
FEAA
  8
0
 10
392.4256969161007191
 20
75.7600550429876307
 30
0.0
 11
392.414331753300587
 21
75.765149906087629
 31
0.0
  0
LINE
  5
FEAB
  8
0
 10
392.414331753300587
 20
75.765149906087629
 30
0.0
 11
392.414331753300587
 21
75.7549601798876324
 31
0.0
  0
LINE
  5
FEAC
  8
0
 10
392.3916014278005946
 20
75.7549601798876324
 30
0.0
 11
392.3916014278005946
 21
75.765149906087629
 31
0.0
  0
LINE
  5
FEAD
  8
0
 10
392.414331753300587
 20
75.7768680911876231
 30
0.0
 11
392.3916014278005946
 21
75.7768680911876231
 31
0.0
  0
LINE
  5
FEAE
  8
0
 10
392.3916014278005946
 20
75.7768680911876231
 30
0.0
 11
392.3802362650005762
 21
75.7717732280876248
 31
0.0
  0
LINE
  5
FEAF
  8
0
 10
392.3802362650005762
 20
75.7717732280876248
 30
0.0
 11
392.3916014278005946
 21
75.7666783649876265
 31
0.0
  0
LINE
  5
FEB0
  8
0
 10
392.3916014278005946
 20
75.7666783649876265
 30
0.0
 11
392.414331753300587
 21
75.7666783649876265
 31
0.0
  0
LINE
  5
FEB1
  8
0
 10
392.414331753300587
 20
75.7666783649876265
 30
0.0
 11
392.4256969161007191
 21
75.7717732280876248
 31
0.0
  0
LINE
  5
FEB2
  8
0
 10
392.4256969161007191
 20
75.7717732280876248
 30
0.0
 11
392.414331753300587
 21
75.7768680911876231
 31
0.0
  0
LINE
  5
FEB3
  8
0
 10
392.414331753300587
 20
75.7768680911876231
 30
0.0
 11
392.414331753300587
 21
75.7666783649876265
 31
0.0
  0
LINE
  5
FEB4
  8
0
 10
392.3916014278005946
 20
75.7666783649876265
 30
0.0
 11
392.3916014278005946
 21
75.7768680911876231
 31
0.0
  0
LINE
  5
FEB5
  8
0
 10
392.414331753300587
 20
75.788586276287603
 30
0.0
 11
392.3916014278005946
 21
75.788586276287603
 31
0.0
  0
LINE
  5
FEB6
  8
0
 10
392.3916014278005946
 20
75.788586276287603
 30
0.0
 11
392.3802362650005762
 21
75.7834914131876189
 31
0.0
  0
LINE
  5
FEB7
  8
0
 10
392.3802362650005762
 20
75.7834914131876189
 30
0.0
 11
392.3916014278005946
 21
75.7783965500876207
 31
0.0
  0
LINE
  5
FEB8
  8
0
 10
392.3916014278005946
 20
75.7783965500876207
 30
0.0
 11
392.414331753300587
 21
75.7783965500876207
 31
0.0
  0
LINE
  5
FEB9
  8
0
 10
392.414331753300587
 20
75.7783965500876207
 30
0.0
 11
392.4256969161007191
 21
75.7834914131876189
 31
0.0
  0
LINE
  5
FEBA
  8
0
 10
392.4256969161007191
 20
75.7834914131876189
 30
0.0
 11
392.414331753300587
 21
75.788586276287603
 31
0.0
  0
LINE
  5
FEBB
  8
0
 10
392.414331753300587
 20
75.788586276287603
 30
0.0
 11
392.414331753300587
 21
75.7783965500876207
 31
0.0
  0
LINE
  5
FEBC
  8
0
 10
392.3916014278005946
 20
75.7783965500876207
 30
0.0
 11
392.3916014278005946
 21
75.788586276287603
 31
0.0
  0
LINE
  5
FEBD
  8
0
 10
392.414331753300587
 20
75.8003044613876256
 30
0.0
 11
392.3916014278005946
 21
75.8003044613876256
 31
0.0
  0
LINE
  5
FEBE
  8
0
 10
392.3916014278005946
 20
75.8003044613876256
 30
0.0
 11
392.3802362650005762
 21
75.7952095982876131
 31
0.0
  0
LINE
  5
FEBF
  8
0
 10
392.3802362650005762
 20
75.7952095982876131
 30
0.0
 11
392.3916014278005946
 21
75.790114735187629
 31
0.0
  0
LINE
  5
FEC0
  8
0
 10
392.3916014278005946
 20
75.790114735187629
 30
0.0
 11
392.414331753300587
 21
75.790114735187629
 31
0.0
  0
LINE
  5
FEC1
  8
0
 10
392.414331753300587
 20
75.790114735187629
 30
0.0
 11
392.4256969161007191
 21
75.7952095982876131
 31
0.0
  0
LINE
  5
FEC2
  8
0
 10
392.4256969161007191
 20
75.7952095982876131
 30
0.0
 11
392.414331753300587
 21
75.8003044613876256
 31
0.0
  0
LINE
  5
FEC3
  8
0
 10
392.414331753300587
 20
75.8003044613876256
 30
0.0
 11
392.414331753300587
 21
75.790114735187629
 31
0.0
  0
LINE
  5
FEC4
  8
0
 10
392.3916014278005946
 20
75.790114735187629
 30
0.0
 11
392.3916014278005946
 21
75.8003044613876256
 31
0.0
  0
LINE
  5
FEC5
  8
0
 10
392.414331753300587
 20
75.8120226464876339
 30
0.0
 11
392.3916014278005946
 21
75.8120226464876339
 31
0.0
  0
LINE
  5
FEC6
  8
0
 10
392.3916014278005946
 20
75.8120226464876339
 30
0.0
 11
392.3802362650005762
 21
75.8069277833876214
 31
0.0
  0
LINE
  5
FEC7
  8
0
 10
392.3802362650005762
 20
75.8069277833876214
 30
0.0
 11
392.3916014278005946
 21
75.8018329202876231
 31
0.0
  0
LINE
  5
FEC8
  8
0
 10
392.3916014278005946
 20
75.8018329202876231
 30
0.0
 11
392.414331753300587
 21
75.8018329202876231
 31
0.0
  0
LINE
  5
FEC9
  8
0
 10
392.414331753300587
 20
75.8018329202876231
 30
0.0
 11
392.4256969161007191
 21
75.8069277833876214
 31
0.0
  0
LINE
  5
FECA
  8
0
 10
392.4256969161007191
 20
75.8069277833876214
 30
0.0
 11
392.414331753300587
 21
75.8120226464876339
 31
0.0
  0
LINE
  5
FECB
  8
0
 10
392.414331753300587
 20
75.8120226464876339
 30
0.0
 11
392.414331753300587
 21
75.8018329202876231
 31
0.0
  0
LINE
  5
FECC
  8
0
 10
392.3916014278005946
 20
75.8018329202876231
 30
0.0
 11
392.3916014278005946
 21
75.8120226464876339
 31
0.0
  0
LINE
  5
FECD
  8
0
 10
392.414331753300587
 20
75.823740831587628
 30
0.0
 11
392.3916014278005946
 21
75.823740831587628
 31
0.0
  0
LINE
  5
FECE
  8
0
 10
392.3916014278005946
 20
75.823740831587628
 30
0.0
 11
392.3802362650005762
 21
75.8186459684876297
 31
0.0
  0
LINE
  5
FECF
  8
0
 10
392.3802362650005762
 20
75.8186459684876297
 30
0.0
 11
392.3916014278005946
 21
75.8135511053876314
 31
0.0
  0
LINE
  5
FED0
  8
0
 10
392.3916014278005946
 20
75.8135511053876314
 30
0.0
 11
392.414331753300587
 21
75.8135511053876314
 31
0.0
  0
LINE
  5
FED1
  8
0
 10
392.414331753300587
 20
75.8135511053876314
 30
0.0
 11
392.4256969161007191
 21
75.8186459684876297
 31
0.0
  0
LINE
  5
FED2
  8
0
 10
392.4256969161007191
 20
75.8186459684876297
 30
0.0
 11
392.414331753300587
 21
75.823740831587628
 31
0.0
  0
LINE
  5
FED3
  8
0
 10
392.414331753300587
 20
75.823740831587628
 30
0.0
 11
392.414331753300587
 21
75.8135511053876314
 31
0.0
  0
LINE
  5
FED4
  8
0
 10
392.3916014278005946
 20
75.8135511053876314
 30
0.0
 11
392.3916014278005946
 21
75.823740831587628
 31
0.0
  0
LINE
  5
FED5
  8
0
 10
392.414331753300587
 20
75.8354590166876221
 30
0.0
 11
392.3916014278005946
 21
75.8354590166876221
 31
0.0
  0
LINE
  5
FED6
  8
0
 10
392.3916014278005946
 20
75.8354590166876221
 30
0.0
 11
392.3802362650005762
 21
75.8303641535876238
 31
0.0
  0
LINE
  5
FED7
  8
0
 10
392.3802362650005762
 20
75.8303641535876238
 30
0.0
 11
392.3916014278005946
 21
75.8252692904876255
 31
0.0
  0
LINE
  5
FED8
  8
0
 10
392.3916014278005946
 20
75.8252692904876255
 30
0.0
 11
392.414331753300587
 21
75.8252692904876255
 31
0.0
  0
LINE
  5
FED9
  8
0
 10
392.414331753300587
 20
75.8252692904876255
 30
0.0
 11
392.4256969161007191
 21
75.8303641535876238
 31
0.0
  0
LINE
  5
FEDA
  8
0
 10
392.4256969161007191
 20
75.8303641535876238
 30
0.0
 11
392.414331753300587
 21
75.8354590166876221
 31
0.0
  0
LINE
  5
FEDB
  8
0
 10
392.414331753300587
 20
75.8354590166876221
 30
0.0
 11
392.414331753300587
 21
75.8252692904876255
 31
0.0
  0
LINE
  5
FEDC
  8
0
 10
392.3916014278005946
 20
75.8252692904876255
 30
0.0
 11
392.3916014278005946
 21
75.8354590166876221
 31
0.0
  0
LINE
  5
FEDD
  8
0
 10
392.4535415649007177
 20
75.8295999241876189
 30
0.0
 11
392.4308112394006116
 21
75.8295999241876189
 31
0.0
  0
LINE
  5
FEDE
  8
0
 10
392.4308112394006116
 20
75.8295999241876189
 30
0.0
 11
392.4194460766005932
 21
75.8245050610876206
 31
0.0
  0
LINE
  5
FEDF
  8
0
 10
392.4194460766005932
 20
75.8245050610876206
 30
0.0
 11
392.4308112394006116
 21
75.8194101979876223
 31
0.0
  0
LINE
  5
FEE0
  8
0
 10
392.4308112394006116
 20
75.8194101979876223
 30
0.0
 11
392.4535415649007177
 21
75.8194101979876223
 31
0.0
  0
LINE
  5
FEE1
  8
0
 10
392.4535415649007177
 20
75.8194101979876223
 30
0.0
 11
392.4649067277006225
 21
75.8245050610876206
 31
0.0
  0
LINE
  5
FEE2
  8
0
 10
392.4649067277006225
 20
75.8245050610876206
 30
0.0
 11
392.4535415649007177
 21
75.8295999241876189
 31
0.0
  0
LINE
  5
FEE3
  8
0
 10
392.4535415649007177
 20
75.8295999241876189
 30
0.0
 11
392.4535415649007177
 21
75.8194101979876223
 31
0.0
  0
LINE
  5
FEE4
  8
0
 10
392.4308112394006116
 20
75.8194101979876223
 30
0.0
 11
392.4308112394006116
 21
75.8295999241876189
 31
0.0
  0
LINE
  5
FEE5
  8
0
 10
392.4535415649007177
 20
75.8178817390876247
 30
0.0
 11
392.4308112394006116
 21
75.8178817390876247
 31
0.0
  0
LINE
  5
FEE6
  8
0
 10
392.4308112394006116
 20
75.8178817390876247
 30
0.0
 11
392.4194460766005932
 21
75.8127868759876264
 31
0.0
  0
LINE
  5
FEE7
  8
0
 10
392.4194460766005932
 20
75.8127868759876264
 30
0.0
 11
392.4308112394006116
 21
75.8076920128876282
 31
0.0
  0
LINE
  5
FEE8
  8
0
 10
392.4308112394006116
 20
75.8076920128876282
 30
0.0
 11
392.4535415649007177
 21
75.8076920128876282
 31
0.0
  0
LINE
  5
FEE9
  8
0
 10
392.4535415649007177
 20
75.8076920128876282
 30
0.0
 11
392.4649067277006225
 21
75.8127868759876264
 31
0.0
  0
LINE
  5
FEEA
  8
0
 10
392.4649067277006225
 20
75.8127868759876264
 30
0.0
 11
392.4535415649007177
 21
75.8178817390876247
 31
0.0
  0
LINE
  5
FEEB
  8
0
 10
392.4535415649007177
 20
75.8178817390876247
 30
0.0
 11
392.4535415649007177
 21
75.8076920128876282
 31
0.0
  0
LINE
  5
FEEC
  8
0
 10
392.4308112394006116
 20
75.8076920128876282
 30
0.0
 11
392.4308112394006116
 21
75.8178817390876247
 31
0.0
  0
LINE
  5
FEED
  8
0
 10
392.4535415649007177
 20
75.7944453687876205
 30
0.0
 11
392.4308112394006116
 21
75.7944453687876205
 31
0.0
  0
LINE
  5
FEEE
  8
0
 10
392.4308112394006116
 20
75.7944453687876205
 30
0.0
 11
392.4194460766005932
 21
75.7893505056876222
 31
0.0
  0
LINE
  5
FEEF
  8
0
 10
392.4194460766005932
 20
75.7893505056876222
 30
0.0
 11
392.4308112394006116
 21
75.7842556425876239
 31
0.0
  0
LINE
  5
FEF0
  8
0
 10
392.4308112394006116
 20
75.7842556425876239
 30
0.0
 11
392.4535415649007177
 21
75.7842556425876239
 31
0.0
  0
LINE
  5
FEF1
  8
0
 10
392.4535415649007177
 20
75.7842556425876239
 30
0.0
 11
392.4649067277006225
 21
75.7893505056876222
 31
0.0
  0
LINE
  5
FEF2
  8
0
 10
392.4649067277006225
 20
75.7893505056876222
 30
0.0
 11
392.4535415649007177
 21
75.7944453687876205
 31
0.0
  0
LINE
  5
FEF3
  8
0
 10
392.4535415649007177
 20
75.7944453687876205
 30
0.0
 11
392.4535415649007177
 21
75.7842556425876239
 31
0.0
  0
LINE
  5
FEF4
  8
0
 10
392.4308112394006116
 20
75.7842556425876239
 30
0.0
 11
392.4308112394006116
 21
75.7944453687876205
 31
0.0
  0
LINE
  5
FEF5
  8
0
 10
392.4535415649007177
 20
75.7827271836876264
 30
0.0
 11
392.4308112394006116
 21
75.7827271836876264
 31
0.0
  0
LINE
  5
FEF6
  8
0
 10
392.4308112394006116
 20
75.7827271836876264
 30
0.0
 11
392.4194460766005932
 21
75.7776323205876281
 31
0.0
  0
LINE
  5
FEF7
  8
0
 10
392.4194460766005932
 20
75.7776323205876281
 30
0.0
 11
392.4308112394006116
 21
75.7725374574876156
 31
0.0
  0
LINE
  5
FEF8
  8
0
 10
392.4308112394006116
 20
75.7725374574876156
 30
0.0
 11
392.4535415649007177
 21
75.7725374574876156
 31
0.0
  0
LINE
  5
FEF9
  8
0
 10
392.4535415649007177
 20
75.7725374574876156
 30
0.0
 11
392.4649067277006225
 21
75.7776323205876281
 31
0.0
  0
LINE
  5
FEFA
  8
0
 10
392.4649067277006225
 20
75.7776323205876281
 30
0.0
 11
392.4535415649007177
 21
75.7827271836876264
 31
0.0
  0
LINE
  5
FEFB
  8
0
 10
392.4535415649007177
 20
75.7827271836876264
 30
0.0
 11
392.4535415649007177
 21
75.7725374574876156
 31
0.0
  0
LINE
  5
FEFC
  8
0
 10
392.4308112394006116
 20
75.7725374574876156
 30
0.0
 11
392.4308112394006116
 21
75.7827271836876264
 31
0.0
  0
LINE
  5
FEFD
  8
0
 10
392.4535415649007177
 20
75.7710089985876323
 30
0.0
 11
392.4308112394006116
 21
75.7710089985876323
 31
0.0
  0
LINE
  5
FEFE
  8
0
 10
392.4308112394006116
 20
75.7710089985876323
 30
0.0
 11
392.4194460766005932
 21
75.765914135487634
 31
0.0
  0
LINE
  5
FEFF
  8
0
 10
392.4194460766005932
 20
75.765914135487634
 30
0.0
 11
392.4308112394006116
 21
75.7608192723876215
 31
0.0
  0
LINE
  5
FF00
  8
0
 10
392.4308112394006116
 20
75.7608192723876215
 30
0.0
 11
392.4535415649007177
 21
75.7608192723876215
 31
0.0
  0
LINE
  5
FF01
  8
0
 10
392.4535415649007177
 20
75.7608192723876215
 30
0.0
 11
392.4649067277006225
 21
75.765914135487634
 31
0.0
  0
LINE
  5
FF02
  8
0
 10
392.4649067277006225
 20
75.765914135487634
 30
0.0
 11
392.4535415649007177
 21
75.7710089985876323
 31
0.0
  0
LINE
  5
FF03
  8
0
 10
392.4535415649007177
 20
75.7710089985876323
 30
0.0
 11
392.4535415649007177
 21
75.7608192723876215
 31
0.0
  0
LINE
  5
FF04
  8
0
 10
392.4308112394006116
 20
75.7608192723876215
 30
0.0
 11
392.4308112394006116
 21
75.7710089985876323
 31
0.0
  0
LINE
  5
FF05
  8
0
 10
392.4535415649007177
 20
75.759290813487624
 30
0.0
 11
392.4308112394006116
 21
75.759290813487624
 31
0.0
  0
LINE
  5
FF06
  8
0
 10
392.4308112394006116
 20
75.759290813487624
 30
0.0
 11
392.4194460766005932
 21
75.7541959503876257
 31
0.0
  0
LINE
  5
FF07
  8
0
 10
392.4194460766005932
 20
75.7541959503876257
 30
0.0
 11
392.4308112394006116
 21
75.7491010872876132
 31
0.0
  0
LINE
  5
FF08
  8
0
 10
392.4308112394006116
 20
75.7491010872876132
 30
0.0
 11
392.4535415649007177
 21
75.7491010872876132
 31
0.0
  0
LINE
  5
FF09
  8
0
 10
392.4535415649007177
 20
75.7491010872876132
 30
0.0
 11
392.4649067277006225
 21
75.7541959503876257
 31
0.0
  0
LINE
  5
FF0A
  8
0
 10
392.4649067277006225
 20
75.7541959503876257
 30
0.0
 11
392.4535415649007177
 21
75.759290813487624
 31
0.0
  0
LINE
  5
FF0B
  8
0
 10
392.4535415649007177
 20
75.759290813487624
 30
0.0
 11
392.4535415649007177
 21
75.7491010872876132
 31
0.0
  0
LINE
  5
FF0C
  8
0
 10
392.4308112394006116
 20
75.7491010872876132
 30
0.0
 11
392.4308112394006116
 21
75.759290813487624
 31
0.0
  0
LINE
  5
FF0D
  8
0
 10
392.4535415649007177
 20
75.7475726283876298
 30
0.0
 11
392.4308112394006116
 21
75.7475726283876298
 31
0.0
  0
LINE
  5
FF0E
  8
0
 10
392.4308112394006116
 20
75.7475726283876298
 30
0.0
 11
392.4194460766005932
 21
75.7424777652876315
 31
0.0
  0
LINE
  5
FF0F
  8
0
 10
392.4194460766005932
 20
75.7424777652876315
 30
0.0
 11
392.4308112394006116
 21
75.737382902187619
 31
0.0
  0
LINE
  5
FF10
  8
0
 10
392.4308112394006116
 20
75.737382902187619
 30
0.0
 11
392.4535415649007177
 21
75.737382902187619
 31
0.0
  0
LINE
  5
FF11
  8
0
 10
392.4535415649007177
 20
75.737382902187619
 30
0.0
 11
392.4649067277006225
 21
75.7424777652876315
 31
0.0
  0
LINE
  5
FF12
  8
0
 10
392.4649067277006225
 20
75.7424777652876315
 30
0.0
 11
392.4535415649007177
 21
75.7475726283876298
 31
0.0
  0
LINE
  5
FF13
  8
0
 10
392.4535415649007177
 20
75.7475726283876298
 30
0.0
 11
392.4535415649007177
 21
75.737382902187619
 31
0.0
  0
LINE
  5
FF14
  8
0
 10
392.4308112394006116
 20
75.737382902187619
 30
0.0
 11
392.4308112394006116
 21
75.7475726283876298
 31
0.0
  0
LINE
  5
FF15
  8
0
 10
392.4535415649007177
 20
75.7358544432876215
 30
0.0
 11
392.4308112394006116
 21
75.7358544432876215
 31
0.0
  0
LINE
  5
FF16
  8
0
 10
392.4308112394006116
 20
75.7358544432876215
 30
0.0
 11
392.4194460766005932
 21
75.7307595801876232
 31
0.0
  0
LINE
  5
FF17
  8
0
 10
392.4194460766005932
 20
75.7307595801876232
 30
0.0
 11
392.4308112394006116
 21
75.7256647170876249
 31
0.0
  0
LINE
  5
FF18
  8
0
 10
392.4308112394006116
 20
75.7256647170876249
 30
0.0
 11
392.4535415649007177
 21
75.7256647170876249
 31
0.0
  0
LINE
  5
FF19
  8
0
 10
392.4535415649007177
 20
75.7256647170876249
 30
0.0
 11
392.4649067277006225
 21
75.7307595801876232
 31
0.0
  0
LINE
  5
FF1A
  8
0
 10
392.4649067277006225
 20
75.7307595801876232
 30
0.0
 11
392.4535415649007177
 21
75.7358544432876215
 31
0.0
  0
LINE
  5
FF1B
  8
0
 10
392.4535415649007177
 20
75.7358544432876215
 30
0.0
 11
392.4535415649007177
 21
75.7256647170876249
 31
0.0
  0
LINE
  5
FF1C
  8
0
 10
392.4308112394006116
 20
75.7256647170876249
 30
0.0
 11
392.4308112394006116
 21
75.7358544432876215
 31
0.0
  0
LINE
  5
FF1D
  8
0
 10
392.4535415649007177
 20
75.7241362581876274
 30
0.0
 11
392.4308112394006116
 21
75.7241362581876274
 31
0.0
  0
LINE
  5
FF1E
  8
0
 10
392.4308112394006116
 20
75.7241362581876274
 30
0.0
 11
392.4194460766005932
 21
75.7190413950876291
 31
0.0
  0
LINE
  5
FF1F
  8
0
 10
392.4194460766005932
 20
75.7190413950876291
 30
0.0
 11
392.4308112394006116
 21
75.7139465319876308
 31
0.0
  0
LINE
  5
FF20
  8
0
 10
392.4308112394006116
 20
75.7139465319876308
 30
0.0
 11
392.4535415649007177
 21
75.7139465319876308
 31
0.0
  0
LINE
  5
FF21
  8
0
 10
392.4535415649007177
 20
75.7139465319876308
 30
0.0
 11
392.4649067277006225
 21
75.7190413950876291
 31
0.0
  0
LINE
  5
FF22
  8
0
 10
392.4649067277006225
 20
75.7190413950876291
 30
0.0
 11
392.4535415649007177
 21
75.7241362581876274
 31
0.0
  0
LINE
  5
FF23
  8
0
 10
392.4535415649007177
 20
75.7241362581876274
 30
0.0
 11
392.4535415649007177
 21
75.7139465319876308
 31
0.0
  0
LINE
  5
FF24
  8
0
 10
392.4308112394006116
 20
75.7139465319876308
 30
0.0
 11
392.4308112394006116
 21
75.7241362581876274
 31
0.0
  0
LINE
  5
FF25
  8
0
 10
392.4535415649007177
 20
75.7124180729876315
 30
0.0
 11
392.4308112394006116
 21
75.7124180729876315
 31
0.0
  0
LINE
  5
FF26
  8
0
 10
392.4308112394006116
 20
75.7124180729876315
 30
0.0
 11
392.4194460766005932
 21
75.707323209887619
 31
0.0
  0
LINE
  5
FF27
  8
0
 10
392.4194460766005932
 20
75.707323209887619
 30
0.0
 11
392.4308112394006116
 21
75.7022283467876207
 31
0.0
  0
LINE
  5
FF28
  8
0
 10
392.4308112394006116
 20
75.7022283467876207
 30
0.0
 11
392.4535415649007177
 21
75.7022283467876207
 31
0.0
  0
LINE
  5
FF29
  8
0
 10
392.4535415649007177
 20
75.7022283467876207
 30
0.0
 11
392.4649067277006225
 21
75.707323209887619
 31
0.0
  0
LINE
  5
FF2A
  8
0
 10
392.4649067277006225
 20
75.707323209887619
 30
0.0
 11
392.4535415649007177
 21
75.7124180729876315
 31
0.0
  0
LINE
  5
FF2B
  8
0
 10
392.4535415649007177
 20
75.7124180729876315
 30
0.0
 11
392.4535415649007177
 21
75.7022283467876207
 31
0.0
  0
LINE
  5
FF2C
  8
0
 10
392.4308112394006116
 20
75.7022283467876207
 30
0.0
 11
392.4308112394006116
 21
75.7124180729876315
 31
0.0
  0
LINE
  5
FF2D
  8
0
 10
392.414331753300587
 20
75.706558980487614
 30
0.0
 11
392.3916014278005946
 21
75.706558980487614
 31
0.0
  0
LINE
  5
FF2E
  8
0
 10
392.3916014278005946
 20
75.706558980487614
 30
0.0
 11
392.3802362650005762
 21
75.7014641173876299
 31
0.0
  0
LINE
  5
FF2F
  8
0
 10
392.3802362650005762
 20
75.7014641173876299
 30
0.0
 11
392.3916014278005946
 21
75.6963692542876316
 31
0.0
  0
LINE
  5
FF30
  8
0
 10
392.3916014278005946
 20
75.6963692542876316
 30
0.0
 11
392.414331753300587
 21
75.6963692542876174
 31
0.0
  0
LINE
  5
FF31
  8
0
 10
392.414331753300587
 20
75.6963692542876174
 30
0.0
 11
392.4256969161007191
 21
75.7014641173876299
 31
0.0
  0
LINE
  5
FF32
  8
0
 10
392.4256969161007191
 20
75.7014641173876299
 30
0.0
 11
392.414331753300587
 21
75.706558980487614
 31
0.0
  0
LINE
  5
FF33
  8
0
 10
392.414331753300587
 20
75.706558980487614
 30
0.0
 11
392.414331753300587
 21
75.6963692542876174
 31
0.0
  0
LINE
  5
FF34
  8
0
 10
392.3916014278005946
 20
75.6963692542876316
 30
0.0
 11
392.3916014278005946
 21
75.706558980487614
 31
0.0
  0
LINE
  5
FF35
  8
0
 10
392.4927513765006211
 20
75.7182771655876223
 30
0.0
 11
392.4700210510005718
 21
75.7182771655876223
 31
0.0
  0
LINE
  5
FF36
  8
0
 10
392.4700210510005718
 20
75.7182771655876223
 30
0.0
 11
392.4586558882007239
 21
75.713182302487624
 31
0.0
  0
LINE
  5
FF37
  8
0
 10
392.4586558882007239
 20
75.713182302487624
 30
0.0
 11
392.4700210510005718
 21
75.7080874393876257
 31
0.0
  0
LINE
  5
FF38
  8
0
 10
392.4700210510005718
 20
75.7080874393876257
 30
0.0
 11
392.4927513765006211
 21
75.7080874393876257
 31
0.0
  0
LINE
  5
FF39
  8
0
 10
392.4927513765006211
 20
75.7080874393876257
 30
0.0
 11
392.5041165393006963
 21
75.713182302487624
 31
0.0
  0
LINE
  5
FF3A
  8
0
 10
392.5041165393006963
 20
75.713182302487624
 30
0.0
 11
392.4927513765006211
 21
75.7182771655876223
 31
0.0
  0
LINE
  5
FF3B
  8
0
 10
392.4927513765006211
 20
75.7182771655876223
 30
0.0
 11
392.4927513765006211
 21
75.7080874393876257
 31
0.0
  0
LINE
  5
FF3C
  8
0
 10
392.4700210510005718
 20
75.7080874393876257
 30
0.0
 11
392.4700210510005718
 21
75.7182771655876223
 31
0.0
  0
LINE
  5
FF3D
  8
0
 10
392.4927513765006211
 20
75.7299953506876307
 30
0.0
 11
392.4700210510005718
 21
75.7299953506876307
 31
0.0
  0
LINE
  5
FF3E
  8
0
 10
392.4700210510005718
 20
75.7299953506876307
 30
0.0
 11
392.4586558882007239
 21
75.7249004875876324
 31
0.0
  0
LINE
  5
FF3F
  8
0
 10
392.4586558882007239
 20
75.7249004875876324
 30
0.0
 11
392.4700210510005718
 21
75.7198056244876341
 31
0.0
  0
LINE
  5
FF40
  8
0
 10
392.4700210510005718
 20
75.7198056244876341
 30
0.0
 11
392.4927513765006211
 21
75.7198056244876199
 31
0.0
  0
LINE
  5
FF41
  8
0
 10
392.4927513765006211
 20
75.7198056244876199
 30
0.0
 11
392.5041165393006963
 21
75.7249004875876324
 31
0.0
  0
LINE
  5
FF42
  8
0
 10
392.5041165393006963
 20
75.7249004875876324
 30
0.0
 11
392.4927513765006211
 21
75.7299953506876307
 31
0.0
  0
LINE
  5
FF43
  8
0
 10
392.4927513765006211
 20
75.7299953506876307
 30
0.0
 11
392.4927513765006211
 21
75.7198056244876199
 31
0.0
  0
LINE
  5
FF44
  8
0
 10
392.4700210510005718
 20
75.7198056244876341
 30
0.0
 11
392.4700210510005718
 21
75.7299953506876307
 31
0.0
  0
LINE
  5
FF45
  8
0
 10
392.4927513765006211
 20
75.7417135357876248
 30
0.0
 11
392.4700210510005718
 21
75.7417135357876248
 31
0.0
  0
LINE
  5
FF46
  8
0
 10
392.4700210510005718
 20
75.7417135357876248
 30
0.0
 11
392.4586558882007239
 21
75.7366186726876265
 31
0.0
  0
LINE
  5
FF47
  8
0
 10
392.4586558882007239
 20
75.7366186726876265
 30
0.0
 11
392.4700210510005718
 21
75.7315238095876282
 31
0.0
  0
LINE
  5
FF48
  8
0
 10
392.4700210510005718
 20
75.7315238095876282
 30
0.0
 11
392.4927513765006211
 21
75.7315238095876282
 31
0.0
  0
LINE
  5
FF49
  8
0
 10
392.4927513765006211
 20
75.7315238095876282
 30
0.0
 11
392.5041165393006963
 21
75.7366186726876265
 31
0.0
  0
LINE
  5
FF4A
  8
0
 10
392.5041165393006963
 20
75.7366186726876265
 30
0.0
 11
392.4927513765006211
 21
75.7417135357876248
 31
0.0
  0
LINE
  5
FF4B
  8
0
 10
392.4927513765006211
 20
75.7417135357876248
 30
0.0
 11
392.4927513765006211
 21
75.7315238095876282
 31
0.0
  0
LINE
  5
FF4C
  8
0
 10
392.4700210510005718
 20
75.7315238095876282
 30
0.0
 11
392.4700210510005718
 21
75.7417135357876248
 31
0.0
  0
LINE
  5
FF4D
  8
0
 10
392.4927513765006211
 20
75.7534317208876189
 30
0.0
 11
392.4700210510005718
 21
75.7534317208876189
 31
0.0
  0
LINE
  5
FF4E
  8
0
 10
392.4700210510005718
 20
75.7534317208876189
 30
0.0
 11
392.4586558882007239
 21
75.7483368577876206
 31
0.0
  0
LINE
  5
FF4F
  8
0
 10
392.4586558882007239
 20
75.7483368577876206
 30
0.0
 11
392.4700210510005718
 21
75.7432419946876223
 31
0.0
  0
LINE
  5
FF50
  8
0
 10
392.4700210510005718
 20
75.7432419946876223
 30
0.0
 11
392.4927513765006211
 21
75.7432419946876223
 31
0.0
  0
LINE
  5
FF51
  8
0
 10
392.4927513765006211
 20
75.7432419946876223
 30
0.0
 11
392.5041165393006963
 21
75.7483368577876206
 31
0.0
  0
LINE
  5
FF52
  8
0
 10
392.5041165393006963
 20
75.7483368577876206
 30
0.0
 11
392.4927513765006211
 21
75.7534317208876189
 31
0.0
  0
LINE
  5
FF53
  8
0
 10
392.4927513765006211
 20
75.7534317208876189
 30
0.0
 11
392.4927513765006211
 21
75.7432419946876223
 31
0.0
  0
LINE
  5
FF54
  8
0
 10
392.4700210510005718
 20
75.7432419946876223
 30
0.0
 11
392.4700210510005718
 21
75.7534317208876189
 31
0.0
  0
LINE
  5
FF55
  8
0
 10
392.4927513765006211
 20
75.765149906087629
 30
0.0
 11
392.4700210510005718
 21
75.765149906087629
 31
0.0
  0
LINE
  5
FF56
  8
0
 10
392.4700210510005718
 20
75.765149906087629
 30
0.0
 11
392.4586558882007239
 21
75.7600550429876307
 31
0.0
  0
LINE
  5
FF57
  8
0
 10
392.4586558882007239
 20
75.7600550429876307
 30
0.0
 11
392.4700210510005718
 21
75.7549601798876324
 31
0.0
  0
LINE
  5
FF58
  8
0
 10
392.4700210510005718
 20
75.7549601798876324
 30
0.0
 11
392.4927513765006211
 21
75.7549601798876324
 31
0.0
  0
LINE
  5
FF59
  8
0
 10
392.4927513765006211
 20
75.7549601798876324
 30
0.0
 11
392.5041165393006963
 21
75.7600550429876307
 31
0.0
  0
LINE
  5
FF5A
  8
0
 10
392.5041165393006963
 20
75.7600550429876307
 30
0.0
 11
392.4927513765006211
 21
75.765149906087629
 31
0.0
  0
LINE
  5
FF5B
  8
0
 10
392.4927513765006211
 20
75.765149906087629
 30
0.0
 11
392.4927513765006211
 21
75.7549601798876324
 31
0.0
  0
LINE
  5
FF5C
  8
0
 10
392.4700210510005718
 20
75.7549601798876324
 30
0.0
 11
392.4700210510005718
 21
75.765149906087629
 31
0.0
  0
LINE
  5
FF5D
  8
0
 10
392.4933196346007094
 20
75.7766133480483148
 30
0.0
 11
392.4705893091007169
 21
75.7766133480483148
 31
0.0
  0
LINE
  5
FF5E
  8
0
 10
392.4705893091007169
 20
75.7766133480483148
 30
0.0
 11
392.4592241463005848
 21
75.7715184849483165
 31
0.0
  0
LINE
  5
FF5F
  8
0
 10
392.4592241463005848
 20
75.7715184849483165
 30
0.0
 11
392.4705893091007169
 21
75.7664236218483182
 31
0.0
  0
LINE
  5
FF60
  8
0
 10
392.4705893091007169
 20
75.7664236218483182
 30
0.0
 11
392.4933196346007094
 21
75.7664236218483182
 31
0.0
  0
LINE
  5
FF61
  8
0
 10
392.4933196346007094
 20
75.7664236218483182
 30
0.0
 11
392.5046847974006141
 21
75.7715184849483165
 31
0.0
  0
LINE
  5
FF62
  8
0
 10
392.5046847974006141
 20
75.7715184849483165
 30
0.0
 11
392.4933196346007094
 21
75.7766133480483148
 31
0.0
  0
LINE
  5
FF63
  8
0
 10
392.4933196346007094
 20
75.7766133480483148
 30
0.0
 11
392.4933196346007094
 21
75.7664236218483182
 31
0.0
  0
LINE
  5
FF64
  8
0
 10
392.4705893091007169
 20
75.7664236218483182
 30
0.0
 11
392.4705893091007169
 21
75.7766133480483148
 31
0.0
  0
LINE
  5
FF65
  8
0
 10
392.4927513765006211
 20
75.788586276287603
 30
0.0
 11
392.4700210510005718
 21
75.788586276287603
 31
0.0
  0
LINE
  5
FF66
  8
0
 10
392.4700210510005718
 20
75.788586276287603
 30
0.0
 11
392.4586558882007239
 21
75.7834914131876189
 31
0.0
  0
LINE
  5
FF67
  8
0
 10
392.4586558882007239
 20
75.7834914131876189
 30
0.0
 11
392.4700210510005718
 21
75.7783965500876207
 31
0.0
  0
LINE
  5
FF68
  8
0
 10
392.4700210510005718
 20
75.7783965500876207
 30
0.0
 11
392.4927513765006211
 21
75.7783965500876207
 31
0.0
  0
LINE
  5
FF69
  8
0
 10
392.4927513765006211
 20
75.7783965500876207
 30
0.0
 11
392.5041165393006963
 21
75.7834914131876189
 31
0.0
  0
LINE
  5
FF6A
  8
0
 10
392.5041165393006963
 20
75.7834914131876189
 30
0.0
 11
392.4927513765006211
 21
75.788586276287603
 31
0.0
  0
LINE
  5
FF6B
  8
0
 10
392.4927513765006211
 20
75.788586276287603
 30
0.0
 11
392.4927513765006211
 21
75.7783965500876207
 31
0.0
  0
LINE
  5
FF6C
  8
0
 10
392.4700210510005718
 20
75.7783965500876207
 30
0.0
 11
392.4700210510005718
 21
75.788586276287603
 31
0.0
  0
LINE
  5
FF6D
  8
0
 10
392.4927513765006211
 20
75.8003044613876256
 30
0.0
 11
392.4700210510005718
 21
75.8003044613876256
 31
0.0
  0
LINE
  5
FF6E
  8
0
 10
392.4700210510005718
 20
75.8003044613876256
 30
0.0
 11
392.4586558882007239
 21
75.7952095982876131
 31
0.0
  0
LINE
  5
FF6F
  8
0
 10
392.4586558882007239
 20
75.7952095982876131
 30
0.0
 11
392.4700210510005718
 21
75.790114735187629
 31
0.0
  0
LINE
  5
FF70
  8
0
 10
392.4700210510005718
 20
75.790114735187629
 30
0.0
 11
392.4927513765006211
 21
75.790114735187629
 31
0.0
  0
LINE
  5
FF71
  8
0
 10
392.4927513765006211
 20
75.790114735187629
 30
0.0
 11
392.5041165393006963
 21
75.7952095982876131
 31
0.0
  0
LINE
  5
FF72
  8
0
 10
392.5041165393006963
 20
75.7952095982876131
 30
0.0
 11
392.4927513765006211
 21
75.8003044613876256
 31
0.0
  0
LINE
  5
FF73
  8
0
 10
392.4927513765006211
 20
75.8003044613876256
 30
0.0
 11
392.4927513765006211
 21
75.790114735187629
 31
0.0
  0
LINE
  5
FF74
  8
0
 10
392.4700210510005718
 20
75.790114735187629
 30
0.0
 11
392.4700210510005718
 21
75.8003044613876256
 31
0.0
  0
LINE
  5
FF75
  8
0
 10
392.4927513765006211
 20
75.8120226464876339
 30
0.0
 11
392.4700210510005718
 21
75.8120226464876339
 31
0.0
  0
LINE
  5
FF76
  8
0
 10
392.4700210510005718
 20
75.8120226464876339
 30
0.0
 11
392.4586558882007239
 21
75.8069277833876214
 31
0.0
  0
LINE
  5
FF77
  8
0
 10
392.4586558882007239
 20
75.8069277833876214
 30
0.0
 11
392.4700210510005718
 21
75.8018329202876231
 31
0.0
  0
LINE
  5
FF78
  8
0
 10
392.4700210510005718
 20
75.8018329202876231
 30
0.0
 11
392.4927513765006211
 21
75.8018329202876231
 31
0.0
  0
LINE
  5
FF79
  8
0
 10
392.4927513765006211
 20
75.8018329202876231
 30
0.0
 11
392.5041165393006963
 21
75.8069277833876214
 31
0.0
  0
LINE
  5
FF7A
  8
0
 10
392.5041165393006963
 20
75.8069277833876214
 30
0.0
 11
392.4927513765006211
 21
75.8120226464876339
 31
0.0
  0
LINE
  5
FF7B
  8
0
 10
392.4927513765006211
 20
75.8120226464876339
 30
0.0
 11
392.4927513765006211
 21
75.8018329202876231
 31
0.0
  0
LINE
  5
FF7C
  8
0
 10
392.4700210510005718
 20
75.8018329202876231
 30
0.0
 11
392.4700210510005718
 21
75.8120226464876339
 31
0.0
  0
LINE
  5
FF7D
  8
0
 10
392.4927513765006211
 20
75.823740831587628
 30
0.0
 11
392.4700210510005718
 21
75.823740831587628
 31
0.0
  0
LINE
  5
FF7E
  8
0
 10
392.4700210510005718
 20
75.823740831587628
 30
0.0
 11
392.4586558882007239
 21
75.8186459684876297
 31
0.0
  0
LINE
  5
FF7F
  8
0
 10
392.4586558882007239
 20
75.8186459684876297
 30
0.0
 11
392.4700210510005718
 21
75.8135511053876314
 31
0.0
  0
LINE
  5
FF80
  8
0
 10
392.4700210510005718
 20
75.8135511053876314
 30
0.0
 11
392.4927513765006211
 21
75.8135511053876314
 31
0.0
  0
LINE
  5
FF81
  8
0
 10
392.4927513765006211
 20
75.8135511053876314
 30
0.0
 11
392.5041165393006963
 21
75.8186459684876297
 31
0.0
  0
LINE
  5
FF82
  8
0
 10
392.5041165393006963
 20
75.8186459684876297
 30
0.0
 11
392.4927513765006211
 21
75.823740831587628
 31
0.0
  0
LINE
  5
FF83
  8
0
 10
392.4927513765006211
 20
75.823740831587628
 30
0.0
 11
392.4927513765006211
 21
75.8135511053876314
 31
0.0
  0
LINE
  5
FF84
  8
0
 10
392.4700210510005718
 20
75.8135511053876314
 30
0.0
 11
392.4700210510005718
 21
75.823740831587628
 31
0.0
  0
LINE
  5
FF85
  8
0
 10
392.469881169831126
 20
75.8353963096748345
 30
0.0
 11
392.4586558882007239
 21
75.8303641535876238
 31
0.0
  0
LINE
  5
FF86
  8
0
 10
392.4586558882007239
 20
75.8303641535876238
 30
0.0
 11
392.4700210510005718
 21
75.8252692904876255
 31
0.0
  0
LINE
  5
FF87
  8
0
 10
392.4700210510005718
 20
75.8252692904876255
 30
0.0
 11
392.4927513765006211
 21
75.8252692904876255
 31
0.0
  0
LINE
  5
FF88
  8
0
 10
392.4927513765006211
 20
75.8252692904876255
 30
0.0
 11
392.5041165393006963
 21
75.8303641535876238
 31
0.0
  0
LINE
  5
FF89
  8
0
 10
392.5041165393006963
 20
75.8303641535876238
 30
0.0
 11
392.5002556862493748
 21
75.8320949266606732
 31
0.0
  0
LINE
  5
FF8A
  8
0
 10
392.4927513765006211
 20
75.8330097274310901
 30
0.0
 11
392.4927513765006211
 21
75.8252692904876255
 31
0.0
  0
LINE
  5
FF8B
  8
0
 10
392.4700210510005718
 20
75.8252692904876255
 30
0.0
 11
392.4700210510005718
 21
75.8353835429728633
 31
0.0
  0
LINE
  5
FF8C
  8
0
 10
392.518436202975181
 20
75.8295999241876189
 30
0.0
 11
392.5092308625007149
 21
75.8295999241876189
 31
0.0
  0
LINE
  5
FF8D
  8
0
 10
392.5092308625007149
 20
75.8295999241876189
 30
0.0
 11
392.4978656997005828
 21
75.8245050610876206
 31
0.0
  0
LINE
  5
FF8E
  8
0
 10
392.4978656997005828
 20
75.8245050610876206
 30
0.0
 11
392.5092308625007149
 21
75.8194101979876223
 31
0.0
  0
LINE
  5
FF8F
  8
0
 10
392.5092308625007149
 20
75.8194101979876223
 30
0.0
 11
392.5319611880007074
 21
75.8194101979876223
 31
0.0
  0
LINE
  5
FF90
  8
0
 10
392.5319611880007074
 20
75.8194101979876223
 30
0.0
 11
392.5433263508006121
 21
75.8245050610876206
 31
0.0
  0
LINE
  5
FF91
  8
0
 10
392.5433263508006121
 20
75.8245050610876206
 30
0.0
 11
392.5396369636223994
 21
75.8261589681126793
 31
0.0
  0
LINE
  5
FF92
  8
0
 10
392.5319611880007074
 20
75.8274715986576666
 30
0.0
 11
392.5319611880007074
 21
75.8194101979876223
 31
0.0
  0
LINE
  5
FF93
  8
0
 10
392.5092308625007149
 20
75.8194101979876223
 30
0.0
 11
392.5092308625007149
 21
75.8295999241876189
 31
0.0
  0
LINE
  5
FF94
  8
0
 10
392.5319611880007074
 20
75.8178817390876247
 30
0.0
 11
392.5092308625007149
 21
75.8178817390876247
 31
0.0
  0
LINE
  5
FF95
  8
0
 10
392.5092308625007149
 20
75.8178817390876247
 30
0.0
 11
392.4978656997005828
 21
75.8127868759876264
 31
0.0
  0
LINE
  5
FF96
  8
0
 10
392.4978656997005828
 20
75.8127868759876264
 30
0.0
 11
392.5092308625007149
 21
75.8076920128876282
 31
0.0
  0
LINE
  5
FF97
  8
0
 10
392.5092308625007149
 20
75.8076920128876282
 30
0.0
 11
392.5319611880007074
 21
75.8076920128876282
 31
0.0
  0
LINE
  5
FF98
  8
0
 10
392.5319611880007074
 20
75.8076920128876282
 30
0.0
 11
392.5433263508006121
 21
75.8127868759876264
 31
0.0
  0
LINE
  5
FF99
  8
0
 10
392.5433263508006121
 20
75.8127868759876264
 30
0.0
 11
392.5319611880007074
 21
75.8178817390876247
 31
0.0
  0
LINE
  5
FF9A
  8
0
 10
392.5319611880007074
 20
75.8178817390876247
 30
0.0
 11
392.5319611880007074
 21
75.8076920128876282
 31
0.0
  0
LINE
  5
FF9B
  8
0
 10
392.5092308625007149
 20
75.8076920128876282
 30
0.0
 11
392.5092308625007149
 21
75.8178817390876247
 31
0.0
  0
LINE
  5
FF9C
  8
0
 10
392.5319611880007074
 20
75.8061635538876146
 30
0.0
 11
392.5092308625007149
 21
75.8061635538876146
 31
0.0
  0
LINE
  5
FF9D
  8
0
 10
392.5092308625007149
 20
75.8061635538876146
 30
0.0
 11
392.4978656997005828
 21
75.8010686907876305
 31
0.0
  0
LINE
  5
FF9E
  8
0
 10
392.4978656997005828
 20
75.8010686907876305
 30
0.0
 11
392.5092308625007149
 21
75.795973827687618
 31
0.0
  0
LINE
  5
FF9F
  8
0
 10
392.5092308625007149
 20
75.795973827687618
 30
0.0
 11
392.5319611880007074
 21
75.795973827687618
 31
0.0
  0
LINE
  5
FFA0
  8
0
 10
392.5319611880007074
 20
75.795973827687618
 30
0.0
 11
392.5433263508006121
 21
75.8010686907876305
 31
0.0
  0
LINE
  5
FFA1
  8
0
 10
392.5433263508006121
 20
75.8010686907876305
 30
0.0
 11
392.5319611880007074
 21
75.8061635538876146
 31
0.0
  0
LINE
  5
FFA2
  8
0
 10
392.5319611880007074
 20
75.8061635538876146
 30
0.0
 11
392.5319611880007074
 21
75.795973827687618
 31
0.0
  0
LINE
  5
FFA3
  8
0
 10
392.5092308625007149
 20
75.795973827687618
 30
0.0
 11
392.5092308625007149
 21
75.8061635538876146
 31
0.0
  0
LINE
  5
FFA4
  8
0
 10
392.5319611880007074
 20
75.7944453687876205
 30
0.0
 11
392.5092308625007149
 21
75.7944453687876205
 31
0.0
  0
LINE
  5
FFA5
  8
0
 10
392.5092308625007149
 20
75.7944453687876205
 30
0.0
 11
392.4978656997005828
 21
75.7893505056876222
 31
0.0
  0
LINE
  5
FFA6
  8
0
 10
392.4978656997005828
 20
75.7893505056876222
 30
0.0
 11
392.5092308625007149
 21
75.7842556425876239
 31
0.0
  0
LINE
  5
FFA7
  8
0
 10
392.5092308625007149
 20
75.7842556425876239
 30
0.0
 11
392.5319611880007074
 21
75.7842556425876239
 31
0.0
  0
LINE
  5
FFA8
  8
0
 10
392.5319611880007074
 20
75.7842556425876239
 30
0.0
 11
392.5433263508006121
 21
75.7893505056876222
 31
0.0
  0
LINE
  5
FFA9
  8
0
 10
392.5433263508006121
 20
75.7893505056876222
 30
0.0
 11
392.5319611880007074
 21
75.7944453687876205
 31
0.0
  0
LINE
  5
FFAA
  8
0
 10
392.5319611880007074
 20
75.7944453687876205
 30
0.0
 11
392.5319611880007074
 21
75.7842556425876239
 31
0.0
  0
LINE
  5
FFAB
  8
0
 10
392.5092308625007149
 20
75.7842556425876239
 30
0.0
 11
392.5092308625007149
 21
75.7944453687876205
 31
0.0
  0
LINE
  5
FFAC
  8
0
 10
392.5319611880007074
 20
75.7827271836876264
 30
0.0
 11
392.5092308625007149
 21
75.7827271836876264
 31
0.0
  0
LINE
  5
FFAD
  8
0
 10
392.5092308625007149
 20
75.7827271836876264
 30
0.0
 11
392.4978656997005828
 21
75.7776323205876281
 31
0.0
  0
LINE
  5
FFAE
  8
0
 10
392.4978656997005828
 20
75.7776323205876281
 30
0.0
 11
392.5092308625007149
 21
75.7725374574876156
 31
0.0
  0
LINE
  5
FFAF
  8
0
 10
392.5092308625007149
 20
75.7725374574876156
 30
0.0
 11
392.5319611880007074
 21
75.7725374574876156
 31
0.0
  0
LINE
  5
FFB0
  8
0
 10
392.5319611880007074
 20
75.7725374574876156
 30
0.0
 11
392.5433263508006121
 21
75.7776323205876281
 31
0.0
  0
LINE
  5
FFB1
  8
0
 10
392.5433263508006121
 20
75.7776323205876281
 30
0.0
 11
392.5319611880007074
 21
75.7827271836876264
 31
0.0
  0
LINE
  5
FFB2
  8
0
 10
392.5319611880007074
 20
75.7827271836876264
 30
0.0
 11
392.5319611880007074
 21
75.7725374574876156
 31
0.0
  0
LINE
  5
FFB3
  8
0
 10
392.5092308625007149
 20
75.7725374574876156
 30
0.0
 11
392.5092308625007149
 21
75.7827271836876264
 31
0.0
  0
LINE
  5
FFB4
  8
0
 10
392.5319611880007074
 20
75.7710089985876323
 30
0.0
 11
392.5092308625007149
 21
75.7710089985876323
 31
0.0
  0
LINE
  5
FFB5
  8
0
 10
392.5092308625007149
 20
75.7710089985876323
 30
0.0
 11
392.4978656997005828
 21
75.765914135487634
 31
0.0
  0
LINE
  5
FFB6
  8
0
 10
392.4978656997005828
 20
75.765914135487634
 30
0.0
 11
392.5092308625007149
 21
75.7608192723876215
 31
0.0
  0
LINE
  5
FFB7
  8
0
 10
392.5092308625007149
 20
75.7608192723876215
 30
0.0
 11
392.5319611880007074
 21
75.7608192723876215
 31
0.0
  0
LINE
  5
FFB8
  8
0
 10
392.5319611880007074
 20
75.7608192723876215
 30
0.0
 11
392.5433263508006121
 21
75.765914135487634
 31
0.0
  0
LINE
  5
FFB9
  8
0
 10
392.5433263508006121
 20
75.765914135487634
 30
0.0
 11
392.5319611880007074
 21
75.7710089985876323
 31
0.0
  0
LINE
  5
FFBA
  8
0
 10
392.5319611880007074
 20
75.7710089985876323
 30
0.0
 11
392.5319611880007074
 21
75.7608192723876215
 31
0.0
  0
LINE
  5
FFBB
  8
0
 10
392.5092308625007149
 20
75.7608192723876215
 30
0.0
 11
392.5092308625007149
 21
75.7710089985876323
 31
0.0
  0
LINE
  5
FFBC
  8
0
 10
392.5319611880007074
 20
75.759290813487624
 30
0.0
 11
392.5092308625007149
 21
75.759290813487624
 31
0.0
  0
LINE
  5
FFBD
  8
0
 10
392.5092308625007149
 20
75.759290813487624
 30
0.0
 11
392.4978656997005828
 21
75.7541959503876257
 31
0.0
  0
LINE
  5
FFBE
  8
0
 10
392.4978656997005828
 20
75.7541959503876257
 30
0.0
 11
392.5092308625007149
 21
75.7491010872876132
 31
0.0
  0
LINE
  5
FFBF
  8
0
 10
392.5092308625007149
 20
75.7491010872876132
 30
0.0
 11
392.5319611880007074
 21
75.7491010872876132
 31
0.0
  0
LINE
  5
FFC0
  8
0
 10
392.5319611880007074
 20
75.7491010872876132
 30
0.0
 11
392.5433263508006121
 21
75.7541959503876257
 31
0.0
  0
LINE
  5
FFC1
  8
0
 10
392.5433263508006121
 20
75.7541959503876257
 30
0.0
 11
392.5319611880007074
 21
75.759290813487624
 31
0.0
  0
LINE
  5
FFC2
  8
0
 10
392.5319611880007074
 20
75.759290813487624
 30
0.0
 11
392.5319611880007074
 21
75.7491010872876132
 31
0.0
  0
LINE
  5
FFC3
  8
0
 10
392.5092308625007149
 20
75.7491010872876132
 30
0.0
 11
392.5092308625007149
 21
75.759290813487624
 31
0.0
  0
LINE
  5
FFC4
  8
0
 10
392.5319611880007074
 20
75.7475726283876298
 30
0.0
 11
392.5092308625007149
 21
75.7475726283876298
 31
0.0
  0
LINE
  5
FFC5
  8
0
 10
392.5092308625007149
 20
75.7475726283876298
 30
0.0
 11
392.4978656997005828
 21
75.7424777652876315
 31
0.0
  0
LINE
  5
FFC6
  8
0
 10
392.4978656997005828
 20
75.7424777652876315
 30
0.0
 11
392.5092308625007149
 21
75.737382902187619
 31
0.0
  0
LINE
  5
FFC7
  8
0
 10
392.5092308625007149
 20
75.737382902187619
 30
0.0
 11
392.5319611880007074
 21
75.737382902187619
 31
0.0
  0
LINE
  5
FFC8
  8
0
 10
392.5319611880007074
 20
75.737382902187619
 30
0.0
 11
392.5433263508006121
 21
75.7424777652876315
 31
0.0
  0
LINE
  5
FFC9
  8
0
 10
392.5433263508006121
 20
75.7424777652876315
 30
0.0
 11
392.5319611880007074
 21
75.7475726283876298
 31
0.0
  0
LINE
  5
FFCA
  8
0
 10
392.5319611880007074
 20
75.7475726283876298
 30
0.0
 11
392.5319611880007074
 21
75.737382902187619
 31
0.0
  0
LINE
  5
FFCB
  8
0
 10
392.5092308625007149
 20
75.737382902187619
 30
0.0
 11
392.5092308625007149
 21
75.7475726283876298
 31
0.0
  0
LINE
  5
FFCC
  8
0
 10
392.5325294462006127
 20
75.7361091864695197
 30
0.0
 11
392.5097991207006203
 21
75.7361091864695197
 31
0.0
  0
LINE
  5
FFCD
  8
0
 10
392.5097991207006203
 20
75.7361091864695197
 30
0.0
 11
392.4984339579006019
 21
75.7310143233695214
 31
0.0
  0
LINE
  5
FFCE
  8
0
 10
392.4984339579006019
 20
75.7310143233695214
 30
0.0
 11
392.5097991207006203
 21
75.7259194602695231
 31
0.0
  0
LINE
  5
FFCF
  8
0
 10
392.5097991207006203
 20
75.7259194602695231
 30
0.0
 11
392.5325294462006127
 21
75.7259194602695231
 31
0.0
  0
LINE
  5
FFD0
  8
0
 10
392.5325294462006127
 20
75.7259194602695231
 30
0.0
 11
392.5438946090005743
 21
75.7310143233695214
 31
0.0
  0
LINE
  5
FFD1
  8
0
 10
392.5438946090005743
 20
75.7310143233695214
 30
0.0
 11
392.5325294462006127
 21
75.7361091864695197
 31
0.0
  0
LINE
  5
FFD2
  8
0
 10
392.5325294462006127
 20
75.7361091864695197
 30
0.0
 11
392.5325294462006127
 21
75.7259194602695231
 31
0.0
  0
LINE
  5
FFD3
  8
0
 10
392.5097991207006203
 20
75.7259194602695231
 30
0.0
 11
392.5097991207006203
 21
75.7361091864695197
 31
0.0
  0
LINE
  5
FFD4
  8
0
 10
392.5319611880007074
 20
75.7241362581876274
 30
0.0
 11
392.5092308625007149
 21
75.7241362581876274
 31
0.0
  0
LINE
  5
FFD5
  8
0
 10
392.5092308625007149
 20
75.7241362581876274
 30
0.0
 11
392.4978656997005828
 21
75.7190413950876291
 31
0.0
  0
LINE
  5
FFD6
  8
0
 10
392.4978656997005828
 20
75.7190413950876291
 30
0.0
 11
392.5092308625007149
 21
75.7139465319876308
 31
0.0
  0
LINE
  5
FFD7
  8
0
 10
392.5092308625007149
 20
75.7139465319876308
 30
0.0
 11
392.5319611880007074
 21
75.7139465319876308
 31
0.0
  0
LINE
  5
FFD8
  8
0
 10
392.5319611880007074
 20
75.7139465319876308
 30
0.0
 11
392.5433263508006121
 21
75.7190413950876291
 31
0.0
  0
LINE
  5
FFD9
  8
0
 10
392.5433263508006121
 20
75.7190413950876291
 30
0.0
 11
392.5319611880007074
 21
75.7241362581876274
 31
0.0
  0
LINE
  5
FFDA
  8
0
 10
392.5319611880007074
 20
75.7241362581876274
 30
0.0
 11
392.5319611880007074
 21
75.7139465319876308
 31
0.0
  0
LINE
  5
FFDB
  8
0
 10
392.5092308625007149
 20
75.7139465319876308
 30
0.0
 11
392.5092308625007149
 21
75.7241362581876274
 31
0.0
  0
LINE
  5
FFDC
  8
0
 10
392.5711709996006107
 20
75.7299953506876307
 30
0.0
 11
392.5484406741006183
 21
75.7299953506876307
 31
0.0
  0
LINE
  5
FFDD
  8
0
 10
392.5484406741006183
 20
75.7299953506876307
 30
0.0
 11
392.5370755113007135
 21
75.7249004875876324
 31
0.0
  0
LINE
  5
FFDE
  8
0
 10
392.5370755113007135
 20
75.7249004875876324
 30
0.0
 11
392.5484406741006183
 21
75.7198056244876341
 31
0.0
  0
LINE
  5
FFDF
  8
0
 10
392.5484406741006183
 20
75.7198056244876341
 30
0.0
 11
392.5711709996006107
 21
75.7198056244876199
 31
0.0
  0
LINE
  5
FFE0
  8
0
 10
392.5711709996006107
 20
75.7198056244876199
 30
0.0
 11
392.5825361624005723
 21
75.7249004875876324
 31
0.0
  0
LINE
  5
FFE1
  8
0
 10
392.5825361624005723
 20
75.7249004875876324
 30
0.0
 11
392.5711709996006107
 21
75.7299953506876307
 31
0.0
  0
LINE
  5
FFE2
  8
0
 10
392.5711709996006107
 20
75.7299953506876307
 30
0.0
 11
392.5711709996006107
 21
75.7198056244876199
 31
0.0
  0
LINE
  5
FFE3
  8
0
 10
392.5484406741006183
 20
75.7198056244876341
 30
0.0
 11
392.5484406741006183
 21
75.7299953506876307
 31
0.0
  0
LINE
  5
FFE4
  8
0
 10
392.5711709996006107
 20
75.7417135357876248
 30
0.0
 11
392.5484406741006183
 21
75.7417135357876248
 31
0.0
  0
LINE
  5
FFE5
  8
0
 10
392.5484406741006183
 20
75.7417135357876248
 30
0.0
 11
392.5370755113007135
 21
75.7366186726876265
 31
0.0
  0
LINE
  5
FFE6
  8
0
 10
392.5370755113007135
 20
75.7366186726876265
 30
0.0
 11
392.5484406741006183
 21
75.7315238095876282
 31
0.0
  0
LINE
  5
FFE7
  8
0
 10
392.5484406741006183
 20
75.7315238095876282
 30
0.0
 11
392.5711709996006107
 21
75.7315238095876282
 31
0.0
  0
LINE
  5
FFE8
  8
0
 10
392.5711709996006107
 20
75.7315238095876282
 30
0.0
 11
392.5825361624005723
 21
75.7366186726876265
 31
0.0
  0
LINE
  5
FFE9
  8
0
 10
392.5825361624005723
 20
75.7366186726876265
 30
0.0
 11
392.5711709996006107
 21
75.7417135357876248
 31
0.0
  0
LINE
  5
FFEA
  8
0
 10
392.5711709996006107
 20
75.7417135357876248
 30
0.0
 11
392.5711709996006107
 21
75.7315238095876282
 31
0.0
  0
LINE
  5
FFEB
  8
0
 10
392.5484406741006183
 20
75.7315238095876282
 30
0.0
 11
392.5484406741006183
 21
75.7417135357876248
 31
0.0
  0
LINE
  5
FFEC
  8
0
 10
392.5711709996006107
 20
75.7534317208876189
 30
0.0
 11
392.5484406741006183
 21
75.7534317208876189
 31
0.0
  0
LINE
  5
FFED
  8
0
 10
392.5484406741006183
 20
75.7534317208876189
 30
0.0
 11
392.5370755113007135
 21
75.7483368577876206
 31
0.0
  0
LINE
  5
FFEE
  8
0
 10
392.5370755113007135
 20
75.7483368577876206
 30
0.0
 11
392.5484406741006183
 21
75.7432419946876223
 31
0.0
  0
LINE
  5
FFEF
  8
0
 10
392.5484406741006183
 20
75.7432419946876223
 30
0.0
 11
392.5711709996006107
 21
75.7432419946876223
 31
0.0
  0
LINE
  5
FFF0
  8
0
 10
392.5711709996006107
 20
75.7432419946876223
 30
0.0
 11
392.5825361624005723
 21
75.7483368577876206
 31
0.0
  0
LINE
  5
FFF1
  8
0
 10
392.5825361624005723
 20
75.7483368577876206
 30
0.0
 11
392.5711709996006107
 21
75.7534317208876189
 31
0.0
  0
LINE
  5
FFF2
  8
0
 10
392.5711709996006107
 20
75.7534317208876189
 30
0.0
 11
392.5711709996006107
 21
75.7432419946876223
 31
0.0
  0
LINE
  5
FFF3
  8
0
 10
392.5484406741006183
 20
75.7432419946876223
 30
0.0
 11
392.5484406741006183
 21
75.7534317208876189
 31
0.0
  0
LINE
  5
FFF4
  8
0
 10
392.5711709996006107
 20
75.765149906087629
 30
0.0
 11
392.5484406741006183
 21
75.765149906087629
 31
0.0
  0
LINE
  5
FFF5
  8
0
 10
392.5484406741006183
 20
75.765149906087629
 30
0.0
 11
392.5370755113007135
 21
75.7600550429876307
 31
0.0
  0
LINE
  5
FFF6
  8
0
 10
392.5370755113007135
 20
75.7600550429876307
 30
0.0
 11
392.5484406741006183
 21
75.7549601798876324
 31
0.0
  0
LINE
  5
FFF7
  8
0
 10
392.5484406741006183
 20
75.7549601798876324
 30
0.0
 11
392.5711709996006107
 21
75.7549601798876324
 31
0.0
  0
LINE
  5
FFF8
  8
0
 10
392.5711709996006107
 20
75.7549601798876324
 30
0.0
 11
392.5825361624005723
 21
75.7600550429876307
 31
0.0
  0
LINE
  5
FFF9
  8
0
 10
392.5825361624005723
 20
75.7600550429876307
 30
0.0
 11
392.5711709996006107
 21
75.765149906087629
 31
0.0
  0
LINE
  5
FFFA
  8
0
 10
392.5711709996006107
 20
75.765149906087629
 30
0.0
 11
392.5711709996006107
 21
75.7549601798876324
 31
0.0
  0
LINE
  5
FFFB
  8
0
 10
392.5484406741006183
 20
75.7549601798876324
 30
0.0
 11
392.5484406741006183
 21
75.765149906087629
 31
0.0
  0
LINE
  5
FFFC
  8
0
 10
392.5711709996006107
 20
75.7768680911876231
 30
0.0
 11
392.5484406741006183
 21
75.7768680911876231
 31
0.0
  0
LINE
  5
FFFD
  8
0
 10
392.5484406741006183
 20
75.7768680911876231
 30
0.0
 11
392.5370755113007135
 21
75.7717732280876248
 31
0.0
  0
LINE
  5
FFFE
  8
0
 10
392.5370755113007135
 20
75.7717732280876248
 30
0.0
 11
392.5484406741006183
 21
75.7666783649876265
 31
0.0
  0
LINE
  5
FFFF
  8
0
 10
392.5484406741006183
 20
75.7666783649876265
 30
0.0
 11
392.5711709996006107
 21
75.7666783649876265
 31
0.0
  0
LINE
  5
10000
  8
0
 10
392.5711709996006107
 20
75.7666783649876265
 30
0.0
 11
392.5825361624005723
 21
75.7717732280876248
 31
0.0
  0
LINE
  5
10001
  8
0
 10
392.5825361624005723
 20
75.7717732280876248
 30
0.0
 11
392.5711709996006107
 21
75.7768680911876231
 31
0.0
  0
LINE
  5
10002
  8
0
 10
392.5711709996006107
 20
75.7768680911876231
 30
0.0
 11
392.5711709996006107
 21
75.7666783649876265
 31
0.0
  0
LINE
  5
10003
  8
0
 10
392.5484406741006183
 20
75.7666783649876265
 30
0.0
 11
392.5484406741006183
 21
75.7768680911876231
 31
0.0
  0
LINE
  5
10004
  8
0
 10
392.5711709996006107
 20
75.788586276287603
 30
0.0
 11
392.5484406741006183
 21
75.788586276287603
 31
0.0
  0
LINE
  5
10005
  8
0
 10
392.5484406741006183
 20
75.788586276287603
 30
0.0
 11
392.5370755113007135
 21
75.7834914131876189
 31
0.0
  0
LINE
  5
10006
  8
0
 10
392.5370755113007135
 20
75.7834914131876189
 30
0.0
 11
392.5484406741006183
 21
75.7783965500876207
 31
0.0
  0
LINE
  5
10007
  8
0
 10
392.5484406741006183
 20
75.7783965500876207
 30
0.0
 11
392.5711709996006107
 21
75.7783965500876207
 31
0.0
  0
LINE
  5
10008
  8
0
 10
392.5711709996006107
 20
75.7783965500876207
 30
0.0
 11
392.5825361624005723
 21
75.7834914131876189
 31
0.0
  0
LINE
  5
10009
  8
0
 10
392.5825361624005723
 20
75.7834914131876189
 30
0.0
 11
392.5711709996006107
 21
75.788586276287603
 31
0.0
  0
LINE
  5
1000A
  8
0
 10
392.5711709996006107
 20
75.788586276287603
 30
0.0
 11
392.5711709996006107
 21
75.7783965500876207
 31
0.0
  0
LINE
  5
1000B
  8
0
 10
392.5484406741006183
 20
75.7783965500876207
 30
0.0
 11
392.5484406741006183
 21
75.788586276287603
 31
0.0
  0
LINE
  5
1000C
  8
0
 10
392.5711709997007119
 20
75.8003044613876256
 30
0.0
 11
392.5484406742007195
 21
75.8003044613876256
 31
0.0
  0
LINE
  5
1000D
  8
0
 10
392.5484406742007195
 20
75.8003044613876256
 30
0.0
 11
392.5370755114005874
 21
75.7952095982876131
 31
0.0
  0
LINE
  5
1000E
  8
0
 10
392.5370755114005874
 20
75.7952095982876131
 30
0.0
 11
392.5484406742007195
 21
75.790114735187629
 31
0.0
  0
LINE
  5
1000F
  8
0
 10
392.5484406742007195
 20
75.790114735187629
 30
0.0
 11
392.5711709997007119
 21
75.790114735187629
 31
0.0
  0
LINE
  5
10010
  8
0
 10
392.5711709997007119
 20
75.790114735187629
 30
0.0
 11
392.5825361625006167
 21
75.7952095982876131
 31
0.0
  0
LINE
  5
10011
  8
0
 10
392.5825361625006167
 20
75.7952095982876131
 30
0.0
 11
392.5711709997007119
 21
75.8003044613876256
 31
0.0
  0
LINE
  5
10012
  8
0
 10
392.5711709997007119
 20
75.8003044613876256
 30
0.0
 11
392.5711709997007119
 21
75.790114735187629
 31
0.0
  0
LINE
  5
10013
  8
0
 10
392.5484406742007195
 20
75.790114735187629
 30
0.0
 11
392.5484406742007195
 21
75.8003044613876256
 31
0.0
  0
LINE
  5
10014
  8
0
 10
392.5711709996006107
 20
75.8120226464876339
 30
0.0
 11
392.5484406741006183
 21
75.8120226464876339
 31
0.0
  0
LINE
  5
10015
  8
0
 10
392.5484406741006183
 20
75.8120226464876339
 30
0.0
 11
392.5370755113007135
 21
75.8069277833876214
 31
0.0
  0
LINE
  5
10016
  8
0
 10
392.5370755113007135
 20
75.8069277833876214
 30
0.0
 11
392.5484406741006183
 21
75.8018329202876231
 31
0.0
  0
LINE
  5
10017
  8
0
 10
392.5484406741006183
 20
75.8018329202876231
 30
0.0
 11
392.5711709996006107
 21
75.8018329202876231
 31
0.0
  0
LINE
  5
10018
  8
0
 10
392.5711709996006107
 20
75.8018329202876231
 30
0.0
 11
392.5825361624005723
 21
75.8069277833876214
 31
0.0
  0
LINE
  5
10019
  8
0
 10
392.5825361624005723
 20
75.8069277833876214
 30
0.0
 11
392.5711709996006107
 21
75.8120226464876339
 31
0.0
  0
LINE
  5
1001A
  8
0
 10
392.5711709996006107
 20
75.8120226464876339
 30
0.0
 11
392.5711709996006107
 21
75.8018329202876231
 31
0.0
  0
LINE
  5
1001B
  8
0
 10
392.5484406741006183
 20
75.8018329202876231
 30
0.0
 11
392.5484406741006183
 21
75.8120226464876339
 31
0.0
  0
LINE
  5
1001C
  8
0
 10
392.552744352249988
 20
75.823740831587628
 30
0.0
 11
392.5484406741006183
 21
75.823740831587628
 31
0.0
  0
LINE
  5
1001D
  8
0
 10
392.5484406741006183
 20
75.823740831587628
 30
0.0
 11
392.5370755113007135
 21
75.8186459684876297
 31
0.0
  0
LINE
  5
1001E
  8
0
 10
392.5370755113007135
 20
75.8186459684876297
 30
0.0
 11
392.5484406741006183
 21
75.8135511053876314
 31
0.0
  0
LINE
  5
1001F
  8
0
 10
392.5484406741006183
 20
75.8135511053876314
 30
0.0
 11
392.5711709996006107
 21
75.8135511053876314
 31
0.0
  0
LINE
  5
10020
  8
0
 10
392.5711709996006107
 20
75.8135511053876314
 30
0.0
 11
392.5806221753873047
 21
75.8177879515828863
 31
0.0
  0
LINE
  5
10021
  8
0
 10
392.5711709996006107
 20
75.819961049410793
 30
0.0
 11
392.5711709996006107
 21
75.8135511053876314
 31
0.0
  0
LINE
  5
10022
  8
0
 10
392.5484406741006183
 20
75.8135511053876314
 30
0.0
 11
392.5484406741006183
 21
75.823740831587628
 31
0.0
  0
LINE
  5
10023
  8
0
 10
392.5850052527782168
 20
75.8166959136098342
 30
0.0
 11
392.5762853229006168
 21
75.8127868759876264
 31
0.0
  0
LINE
  5
10024
  8
0
 10
392.5762853229006168
 20
75.8127868759876264
 30
0.0
 11
392.5876504857005784
 21
75.8076920128876282
 31
0.0
  0
LINE
  5
10025
  8
0
 10
392.5876504857005784
 20
75.8076920128876282
 30
0.0
 11
392.6103808112006277
 21
75.8076920128876282
 31
0.0
  0
LINE
  5
10026
  8
0
 10
392.6103808112006277
 20
75.8076920128876282
 30
0.0
 11
392.6124362270492725
 21
75.8086134306047938
 31
0.0
  0
LINE
  5
10027
  8
0
 10
392.6103808112006277
 20
75.8092920181605336
 30
0.0
 11
392.6103808112006277
 21
75.8076920128876282
 31
0.0
  0
LINE
  5
10028
  8
0
 10
392.5876504857005784
 20
75.8076920128876282
 30
0.0
 11
392.5876504857005784
 21
75.8160107455878887
 31
0.0
  0
LINE
  5
10029
  8
0
 10
392.6103808112006277
 20
75.8061635538876146
 30
0.0
 11
392.5876504857005784
 21
75.8061635538876146
 31
0.0
  0
LINE
  5
1002A
  8
0
 10
392.5876504857005784
 20
75.8061635538876146
 30
0.0
 11
392.5762853229006168
 21
75.8010686907876305
 31
0.0
  0
LINE
  5
1002B
  8
0
 10
392.5762853229006168
 20
75.8010686907876305
 30
0.0
 11
392.5876504857005784
 21
75.795973827687618
 31
0.0
  0
LINE
  5
1002C
  8
0
 10
392.5876504857005784
 20
75.795973827687618
 30
0.0
 11
392.6103808112006277
 21
75.795973827687618
 31
0.0
  0
LINE
  5
1002D
  8
0
 10
392.6103808112006277
 20
75.795973827687618
 30
0.0
 11
392.6217459740005893
 21
75.8010686907876305
 31
0.0
  0
LINE
  5
1002E
  8
0
 10
392.6217459740005893
 20
75.8010686907876305
 30
0.0
 11
392.6103808112006277
 21
75.8061635538876146
 31
0.0
  0
LINE
  5
1002F
  8
0
 10
392.6103808112006277
 20
75.8061635538876146
 30
0.0
 11
392.6103808112006277
 21
75.795973827687618
 31
0.0
  0
LINE
  5
10030
  8
0
 10
392.5876504857005784
 20
75.795973827687618
 30
0.0
 11
392.5876504857005784
 21
75.8061635538876146
 31
0.0
  0
LINE
  5
10031
  8
0
 10
392.6103808112006277
 20
75.7944453687876205
 30
0.0
 11
392.5876504857005784
 21
75.7944453687876205
 31
0.0
  0
LINE
  5
10032
  8
0
 10
392.5876504857005784
 20
75.7944453687876205
 30
0.0
 11
392.5762853229006168
 21
75.7893505056876222
 31
0.0
  0
LINE
  5
10033
  8
0
 10
392.5762853229006168
 20
75.7893505056876222
 30
0.0
 11
392.5876504857005784
 21
75.7842556425876239
 31
0.0
  0
LINE
  5
10034
  8
0
 10
392.5876504857005784
 20
75.7842556425876239
 30
0.0
 11
392.6103808112006277
 21
75.7842556425876239
 31
0.0
  0
LINE
  5
10035
  8
0
 10
392.6103808112006277
 20
75.7842556425876239
 30
0.0
 11
392.6217459740005893
 21
75.7893505056876222
 31
0.0
  0
LINE
  5
10036
  8
0
 10
392.6217459740005893
 20
75.7893505056876222
 30
0.0
 11
392.6103808112006277
 21
75.7944453687876205
 31
0.0
  0
LINE
  5
10037
  8
0
 10
392.6103808112006277
 20
75.7944453687876205
 30
0.0
 11
392.6103808112006277
 21
75.7842556425876239
 31
0.0
  0
LINE
  5
10038
  8
0
 10
392.5876504857005784
 20
75.7842556425876239
 30
0.0
 11
392.5876504857005784
 21
75.7944453687876205
 31
0.0
  0
LINE
  5
10039
  8
0
 10
392.6103808112006277
 20
75.7827271836876264
 30
0.0
 11
392.5876504857005784
 21
75.7827271836876264
 31
0.0
  0
LINE
  5
1003A
  8
0
 10
392.5876504857005784
 20
75.7827271836876264
 30
0.0
 11
392.5762853229006168
 21
75.7776323205876281
 31
0.0
  0
LINE
  5
1003B
  8
0
 10
392.5762853229006168
 20
75.7776323205876281
 30
0.0
 11
392.5876504857005784
 21
75.7725374574876156
 31
0.0
  0
LINE
  5
1003C
  8
0
 10
392.5876504857005784
 20
75.7725374574876156
 30
0.0
 11
392.6103808112006277
 21
75.7725374574876156
 31
0.0
  0
LINE
  5
1003D
  8
0
 10
392.6103808112006277
 20
75.7725374574876156
 30
0.0
 11
392.6217459740005893
 21
75.7776323205876281
 31
0.0
  0
LINE
  5
1003E
  8
0
 10
392.6217459740005893
 20
75.7776323205876281
 30
0.0
 11
392.6103808112006277
 21
75.7827271836876264
 31
0.0
  0
LINE
  5
1003F
  8
0
 10
392.6103808112006277
 20
75.7827271836876264
 30
0.0
 11
392.6103808112006277
 21
75.7725374574876156
 31
0.0
  0
LINE
  5
10040
  8
0
 10
392.5876504857005784
 20
75.7725374574876156
 30
0.0
 11
392.5876504857005784
 21
75.7827271836876264
 31
0.0
  0
LINE
  5
10041
  8
0
 10
392.6103808112006277
 20
75.7710089985876323
 30
0.0
 11
392.5876504857005784
 21
75.7710089985876323
 31
0.0
  0
LINE
  5
10042
  8
0
 10
392.5876504857005784
 20
75.7710089985876323
 30
0.0
 11
392.5762853229006168
 21
75.765914135487634
 31
0.0
  0
LINE
  5
10043
  8
0
 10
392.5762853229006168
 20
75.765914135487634
 30
0.0
 11
392.5876504857005784
 21
75.7608192723876215
 31
0.0
  0
LINE
  5
10044
  8
0
 10
392.5876504857005784
 20
75.7608192723876215
 30
0.0
 11
392.6103808112006277
 21
75.7608192723876215
 31
0.0
  0
LINE
  5
10045
  8
0
 10
392.6103808112006277
 20
75.7608192723876215
 30
0.0
 11
392.6217459740005893
 21
75.765914135487634
 31
0.0
  0
LINE
  5
10046
  8
0
 10
392.6217459740005893
 20
75.765914135487634
 30
0.0
 11
392.6103808112006277
 21
75.7710089985876323
 31
0.0
  0
LINE
  5
10047
  8
0
 10
392.6103808112006277
 20
75.7710089985876323
 30
0.0
 11
392.6103808112006277
 21
75.7608192723876215
 31
0.0
  0
LINE
  5
10048
  8
0
 10
392.5876504857005784
 20
75.7608192723876215
 30
0.0
 11
392.5876504857005784
 21
75.7710089985876323
 31
0.0
  0
LINE
  5
10049
  8
0
 10
392.6103808112006277
 20
75.759290813487624
 30
0.0
 11
392.5876504857005784
 21
75.759290813487624
 31
0.0
  0
LINE
  5
1004A
  8
0
 10
392.5876504857005784
 20
75.759290813487624
 30
0.0
 11
392.5762853229006168
 21
75.7541959503876257
 31
0.0
  0
LINE
  5
1004B
  8
0
 10
392.5762853229006168
 20
75.7541959503876257
 30
0.0
 11
392.5876504857005784
 21
75.7491010872876132
 31
0.0
  0
LINE
  5
1004C
  8
0
 10
392.5876504857005784
 20
75.7491010872876132
 30
0.0
 11
392.6103808112006277
 21
75.7491010872876132
 31
0.0
  0
LINE
  5
1004D
  8
0
 10
392.6103808112006277
 20
75.7491010872876132
 30
0.0
 11
392.6217459740005893
 21
75.7541959503876257
 31
0.0
  0
LINE
  5
1004E
  8
0
 10
392.6217459740005893
 20
75.7541959503876257
 30
0.0
 11
392.6103808112006277
 21
75.759290813487624
 31
0.0
  0
LINE
  5
1004F
  8
0
 10
392.6103808112006277
 20
75.759290813487624
 30
0.0
 11
392.6103808112006277
 21
75.7491010872876132
 31
0.0
  0
LINE
  5
10050
  8
0
 10
392.5876504857005784
 20
75.7491010872876132
 30
0.0
 11
392.5876504857005784
 21
75.759290813487624
 31
0.0
  0
LINE
  5
10051
  8
0
 10
392.6103808112006277
 20
75.7475726283876298
 30
0.0
 11
392.5876504857005784
 21
75.7475726283876298
 31
0.0
  0
LINE
  5
10052
  8
0
 10
392.5876504857005784
 20
75.7475726283876298
 30
0.0
 11
392.5762853229006168
 21
75.7424777652876315
 31
0.0
  0
LINE
  5
10053
  8
0
 10
392.5762853229006168
 20
75.7424777652876315
 30
0.0
 11
392.5876504857005784
 21
75.737382902187619
 31
0.0
  0
LINE
  5
10054
  8
0
 10
392.5876504857005784
 20
75.737382902187619
 30
0.0
 11
392.6103808112006277
 21
75.737382902187619
 31
0.0
  0
LINE
  5
10055
  8
0
 10
392.6103808112006277
 20
75.737382902187619
 30
0.0
 11
392.6217459740005893
 21
75.7424777652876315
 31
0.0
  0
LINE
  5
10056
  8
0
 10
392.6217459740005893
 20
75.7424777652876315
 30
0.0
 11
392.6103808112006277
 21
75.7475726283876298
 31
0.0
  0
LINE
  5
10057
  8
0
 10
392.6103808112006277
 20
75.7475726283876298
 30
0.0
 11
392.6103808112006277
 21
75.737382902187619
 31
0.0
  0
LINE
  5
10058
  8
0
 10
392.5876504857005784
 20
75.737382902187619
 30
0.0
 11
392.5876504857005784
 21
75.7475726283876298
 31
0.0
  0
LINE
  5
10059
  8
0
 10
392.6103808112006277
 20
75.7358544432876215
 30
0.0
 11
392.5876504857005784
 21
75.7358544432876215
 31
0.0
  0
LINE
  5
1005A
  8
0
 10
392.5876504857005784
 20
75.7358544432876215
 30
0.0
 11
392.5762853229006168
 21
75.7307595801876232
 31
0.0
  0
LINE
  5
1005B
  8
0
 10
392.5762853229006168
 20
75.7307595801876232
 30
0.0
 11
392.5876504857005784
 21
75.7256647170876249
 31
0.0
  0
LINE
  5
1005C
  8
0
 10
392.5876504857005784
 20
75.7256647170876249
 30
0.0
 11
392.6103808112006277
 21
75.7256647170876249
 31
0.0
  0
LINE
  5
1005D
  8
0
 10
392.6103808112006277
 20
75.7256647170876249
 30
0.0
 11
392.6217459740005893
 21
75.7307595801876232
 31
0.0
  0
LINE
  5
1005E
  8
0
 10
392.6217459740005893
 20
75.7307595801876232
 30
0.0
 11
392.6103808112006277
 21
75.7358544432876215
 31
0.0
  0
LINE
  5
1005F
  8
0
 10
392.6103808112006277
 20
75.7358544432876215
 30
0.0
 11
392.6103808112006277
 21
75.7256647170876249
 31
0.0
  0
LINE
  5
10060
  8
0
 10
392.5876504857005784
 20
75.7256647170876249
 30
0.0
 11
392.5876504857005784
 21
75.7358544432876215
 31
0.0
  0
LINE
  5
10061
  8
0
 10
392.6495906228007016
 20
75.7534317208876189
 30
0.0
 11
392.6268602973005954
 21
75.7534317208876189
 31
0.0
  0
LINE
  5
10062
  8
0
 10
392.6268602973005954
 20
75.7534317208876189
 30
0.0
 11
392.615495134500577
 21
75.7483368577876206
 31
0.0
  0
LINE
  5
10063
  8
0
 10
392.615495134500577
 20
75.7483368577876206
 30
0.0
 11
392.6268602973005954
 21
75.7432419946876223
 31
0.0
  0
LINE
  5
10064
  8
0
 10
392.6268602973005954
 20
75.7432419946876223
 30
0.0
 11
392.6495906228007016
 21
75.7432419946876223
 31
0.0
  0
LINE
  5
10065
  8
0
 10
392.6495906228007016
 20
75.7432419946876223
 30
0.0
 11
392.66095578560072
 21
75.7483368577876206
 31
0.0
  0
LINE
  5
10066
  8
0
 10
392.66095578560072
 20
75.7483368577876206
 30
0.0
 11
392.6495906228007016
 21
75.7534317208876189
 31
0.0
  0
LINE
  5
10067
  8
0
 10
392.6495906228007016
 20
75.7534317208876189
 30
0.0
 11
392.6495906228007016
 21
75.7432419946876223
 31
0.0
  0
LINE
  5
10068
  8
0
 10
392.6268602973005954
 20
75.7432419946876223
 30
0.0
 11
392.6268602973005954
 21
75.7534317208876189
 31
0.0
  0
LINE
  5
10069
  8
0
 10
392.6495906228007016
 20
75.765149906087629
 30
0.0
 11
392.6268602973005954
 21
75.765149906087629
 31
0.0
  0
LINE
  5
1006A
  8
0
 10
392.6268602973005954
 20
75.765149906087629
 30
0.0
 11
392.615495134500577
 21
75.7600550429876307
 31
0.0
  0
LINE
  5
1006B
  8
0
 10
392.615495134500577
 20
75.7600550429876307
 30
0.0
 11
392.6268602973005954
 21
75.7549601798876324
 31
0.0
  0
LINE
  5
1006C
  8
0
 10
392.6268602973005954
 20
75.7549601798876324
 30
0.0
 11
392.6495906228007016
 21
75.7549601798876324
 31
0.0
  0
LINE
  5
1006D
  8
0
 10
392.6495906228007016
 20
75.7549601798876324
 30
0.0
 11
392.66095578560072
 21
75.7600550429876307
 31
0.0
  0
LINE
  5
1006E
  8
0
 10
392.66095578560072
 20
75.7600550429876307
 30
0.0
 11
392.6495906228007016
 21
75.765149906087629
 31
0.0
  0
LINE
  5
1006F
  8
0
 10
392.6495906228007016
 20
75.765149906087629
 30
0.0
 11
392.6495906228007016
 21
75.7549601798876324
 31
0.0
  0
LINE
  5
10070
  8
0
 10
392.6268602973005954
 20
75.7549601798876324
 30
0.0
 11
392.6268602973005954
 21
75.765149906087629
 31
0.0
  0
LINE
  5
10071
  8
0
 10
392.6495906228007016
 20
75.7768680911876231
 30
0.0
 11
392.6268602973005954
 21
75.7768680911876231
 31
0.0
  0
LINE
  5
10072
  8
0
 10
392.6268602973005954
 20
75.7768680911876231
 30
0.0
 11
392.615495134500577
 21
75.7717732280876248
 31
0.0
  0
LINE
  5
10073
  8
0
 10
392.615495134500577
 20
75.7717732280876248
 30
0.0
 11
392.6268602973005954
 21
75.7666783649876265
 31
0.0
  0
LINE
  5
10074
  8
0
 10
392.6268602973005954
 20
75.7666783649876265
 30
0.0
 11
392.6495906228007016
 21
75.7666783649876265
 31
0.0
  0
LINE
  5
10075
  8
0
 10
392.6495906228007016
 20
75.7666783649876265
 30
0.0
 11
392.66095578560072
 21
75.7717732280876248
 31
0.0
  0
LINE
  5
10076
  8
0
 10
392.66095578560072
 20
75.7717732280876248
 30
0.0
 11
392.6495906228007016
 21
75.7768680911876231
 31
0.0
  0
LINE
  5
10077
  8
0
 10
392.6495906228007016
 20
75.7768680911876231
 30
0.0
 11
392.6495906228007016
 21
75.7666783649876265
 31
0.0
  0
LINE
  5
10078
  8
0
 10
392.6268602973005954
 20
75.7666783649876265
 30
0.0
 11
392.6268602973005954
 21
75.7768680911876231
 31
0.0
  0
LINE
  5
10079
  8
0
 10
392.6495906228007016
 20
75.788586276287603
 30
0.0
 11
392.6268602973005954
 21
75.788586276287603
 31
0.0
  0
LINE
  5
1007A
  8
0
 10
392.6268602973005954
 20
75.788586276287603
 30
0.0
 11
392.615495134500577
 21
75.7834914131876189
 31
0.0
  0
LINE
  5
1007B
  8
0
 10
392.615495134500577
 20
75.7834914131876189
 30
0.0
 11
392.6268602973005954
 21
75.7783965500876207
 31
0.0
  0
LINE
  5
1007C
  8
0
 10
392.6268602973005954
 20
75.7783965500876207
 30
0.0
 11
392.6495906228007016
 21
75.7783965500876207
 31
0.0
  0
LINE
  5
1007D
  8
0
 10
392.6495906228007016
 20
75.7783965500876207
 30
0.0
 11
392.66095578560072
 21
75.7834914131876189
 31
0.0
  0
LINE
  5
1007E
  8
0
 10
392.66095578560072
 20
75.7834914131876189
 30
0.0
 11
392.6495906228007016
 21
75.788586276287603
 31
0.0
  0
LINE
  5
1007F
  8
0
 10
392.6495906228007016
 20
75.788586276287603
 30
0.0
 11
392.6495906228007016
 21
75.7783965500876207
 31
0.0
  0
LINE
  5
10080
  8
0
 10
392.6268602973005954
 20
75.7783965500876207
 30
0.0
 11
392.6268602973005954
 21
75.788586276287603
 31
0.0
  0
LINE
  5
10081
  8
0
 10
392.6339614150475086
 20
75.8003044613876256
 30
0.0
 11
392.6268602973005954
 21
75.8003044613876256
 31
0.0
  0
LINE
  5
10082
  8
0
 10
392.6268602973005954
 20
75.8003044613876256
 30
0.0
 11
392.615495134500577
 21
75.7952095982876131
 31
0.0
  0
LINE
  5
10083
  8
0
 10
392.615495134500577
 20
75.7952095982876131
 30
0.0
 11
392.6268602973005954
 21
75.790114735187629
 31
0.0
  0
LINE
  5
10084
  8
0
 10
392.6268602973005954
 20
75.790114735187629
 30
0.0
 11
392.6495906228007016
 21
75.790114735187629
 31
0.0
  0
LINE
  5
10085
  8
0
 10
392.6495906228007016
 20
75.790114735187629
 30
0.0
 11
392.6523337332146184
 21
75.7913444379444741
 31
0.0
  0
LINE
  5
10086
  8
0
 10
392.6495906228007016
 20
75.7927996987398984
 30
0.0
 11
392.6495906228007016
 21
75.790114735187629
 31
0.0
  0
LINE
  5
10087
  8
0
 10
392.6268602973005954
 20
75.790114735187629
 30
0.0
 11
392.6268602973005954
 21
75.8003044613876256
 31
0.0
  0
LINE
  5
10088
  8
0
 10
392.384938885900624
 20
75.6962990721876281
 30
0.0
 11
392.3916014278005946
 21
75.6963692542876316
 31
0.0
  0
LINE
  5
10089
  8
0
 10
392.4163130049007009
 20
75.6972574250251569
 30
0.0
 11
392.4239323401005777
 21
75.6976161616876055
 31
0.0
  0
LINE
  5
1008A
  8
0
 10
392.4239323401005777
 20
75.6976161616876055
 30
0.0
 11
392.4308112394006116
 21
75.7006998878876232
 31
0.0
  0
LINE
  5
1008B
  8
0
 10
392.4308112394006116
 20
75.7006998878876232
 30
0.0
 11
392.4535415649007177
 21
75.7006998878876232
 31
0.0
  0
LINE
  5
1008C
  8
0
 10
392.4535415649007177
 20
75.7006998878876232
 30
0.0
 11
392.4558272249173001
 21
75.699675254580157
 31
0.0
  0
LINE
  5
1008D
  8
0
 10
392.4558272249173001
 20
75.699675254580157
 30
0.0
 11
392.4615936058007151
 21
75.7001471746154095
 31
0.0
  0
LINE
  5
1008E
  8
0
 10
392.4615936058007151
 20
75.7001471746154095
 30
0.0
 11
392.4586558882007239
 21
75.7014641173876299
 31
0.0
  0
LINE
  5
1008F
  8
0
 10
392.4586558882007239
 20
75.7014641173876299
 30
0.0
 11
392.4700210509005842
 21
75.706558980487614
 31
0.0
  0
LINE
  5
10090
  8
0
 10
392.4700210509005842
 20
75.706558980487614
 30
0.0
 11
392.4927513765006211
 21
75.706558980487614
 31
0.0
  0
LINE
  5
10091
  8
0
 10
392.4927513765006211
 20
75.706558980487614
 30
0.0
 11
392.4985543575691054
 21
75.7039575752465765
 31
0.0
  0
LINE
  5
10092
  8
0
 10
392.4985543575691054
 20
75.7039575752465765
 30
0.0
 11
392.5038814700005787
 21
75.7046264138876239
 31
0.0
  0
LINE
  5
10093
  8
0
 10
392.5038814700005787
 20
75.7046264138876239
 30
0.0
 11
392.4978656997005828
 21
75.707323209887619
 31
0.0
  0
LINE
  5
10094
  8
0
 10
392.4978656997005828
 20
75.707323209887619
 30
0.0
 11
392.5092308625007149
 21
75.7124180729876031
 31
0.0
  0
LINE
  5
10095
  8
0
 10
392.5092308625007149
 20
75.7124180729876031
 30
0.0
 11
392.5319611881005812
 21
75.7124180729876031
 31
0.0
  0
LINE
  5
10096
  8
0
 10
392.5319611881005812
 20
75.7124180729876031
 30
0.0
 11
392.5379769584005771
 21
75.7097212769876222
 31
0.0
  0
LINE
  5
10097
  8
0
 10
392.5379769584005771
 20
75.7097212769876222
 30
0.0
 11
392.5428784925006767
 21
75.7105808971961807
 31
0.0
  0
LINE
  5
10098
  8
0
 10
392.5428784925006767
 20
75.7105808971961807
 30
0.0
 11
392.5370755113007135
 21
75.713182302487624
 31
0.0
  0
LINE
  5
10099
  8
0
 10
392.5370755113007135
 20
75.713182302487624
 30
0.0
 11
392.5484406741006183
 21
75.7182771655876223
 31
0.0
  0
LINE
  5
1009A
  8
0
 10
392.5484406741006183
 20
75.7182771655876223
 30
0.0
 11
392.5711709997007119
 21
75.7182771655876223
 31
0.0
  0
LINE
  5
1009B
  8
0
 10
392.5711709997007119
 20
75.7182771655876223
 30
0.0
 11
392.5741087173444157
 21
75.7169602227679945
 31
0.0
  0
LINE
  5
1009C
  8
0
 10
392.5741087173444157
 20
75.7169602227679945
 30
0.0
 11
392.5785709829007146
 21
75.718016761643085
 31
0.0
  0
LINE
  5
1009D
  8
0
 10
392.5785709829007146
 20
75.718016761643085
 30
0.0
 11
392.5762853229006168
 21
75.7190413950876291
 31
0.0
  0
LINE
  5
1009E
  8
0
 10
392.5762853229006168
 20
75.7190413950876291
 30
0.0
 11
392.5876504857005784
 21
75.7241362580876256
 31
0.0
  0
LINE
  5
1009F
  8
0
 10
392.5876504857005784
 20
75.7241362580876256
 30
0.0
 11
392.6014082842007156
 21
75.7241362580876256
 31
0.0
  0
LINE
  5
100A0
  8
0
 10
392.6014082842007156
 20
75.7241362580876256
 30
0.0
 11
392.6103808112006277
 21
75.7256647170876249
 31
0.0
  0
LINE
  5
100A1
  8
0
 10
392.6217459740005893
 20
75.7307595801876232
 30
0.0
 11
392.6253120787006878
 21
75.7322178569876314
 31
0.0
  0
LINE
  5
100A2
  8
0
 10
392.6253120787006878
 20
75.7322178569876314
 30
0.0
 11
392.615495134500577
 21
75.7366186726876265
 31
0.0
  0
LINE
  5
100A3
  8
0
 10
392.615495134500577
 20
75.7366186726876265
 30
0.0
 11
392.6268602973005954
 21
75.7417135357876248
 31
0.0
  0
LINE
  5
100A4
  8
0
 10
392.6268602973005954
 20
75.7417135357876248
 30
0.0
 11
392.6464941856007158
 21
75.7417135357876248
 31
0.0
  0
LINE
  5
100A5
  8
0
 10
392.6464941856007158
 20
75.7417135357876248
 30
0.0
 11
392.6495906228007016
 21
75.7432419946876223
 31
0.0
  0
LINE
  5
100A6
  8
0
 10
392.6589745340709783
 20
75.7492250285398114
 30
0.0
 11
392.661583845400628
 21
75.751112224199332
 31
0.0
  0
LINE
  5
100A7
  8
0
 10
392.661583845400628
 20
75.751112224199332
 30
0.0
 11
392.6547049461007077
 21
75.7541959503876257
 31
0.0
  0
LINE
  5
100A8
  8
0
 10
392.6547049461007077
 20
75.7541959503876257
 30
0.0
 11
392.6660701089006125
 21
75.759290813487624
 31
0.0
  0
LINE
  5
100A9
  8
0
 10
392.6660701089006125
 20
75.759290813487624
 30
0.0
 11
392.6706414288877909
 21
75.7592908134516421
 31
0.0
  0
LINE
  5
100AA
  8
0
 10
392.6706414288877909
 20
75.7592908134516421
 30
0.0
 11
392.6719455441181026
 21
75.7608192723876215
 31
0.0
  0
LINE
  5
100AB
  8
0
 10
392.6719455441181026
 20
75.7608192723876215
 30
0.0
 11
392.6660701089006125
 21
75.7608192723876215
 31
0.0
  0
LINE
  5
100AC
  8
0
 10
392.6660701089006125
 20
75.7608192723876215
 30
0.0
 11
392.6547049461007077
 21
75.765914135487634
 31
0.0
  0
LINE
  5
100AD
  8
0
 10
392.6547049461007077
 20
75.765914135487634
 30
0.0
 11
392.6660701089006125
 21
75.7710089985876323
 31
0.0
  0
LINE
  5
100AE
  8
0
 10
392.6660701089006125
 20
75.7710089985876323
 30
0.0
 11
392.675111113057028
 21
75.7710167351478816
 31
0.0
  0
LINE
  5
100AF
  8
0
 10
392.6650474980281729
 20
75.782268759844996
 30
0.0
 11
392.6547049461007077
 21
75.7776323205876281
 31
0.0
  0
LINE
  5
100B0
  8
0
 10
392.6547049461007077
 20
75.7776323205876281
 30
0.0
 11
392.6660701089006125
 21
75.7725374574876156
 31
0.0
  0
LINE
  5
100B1
  8
0
 10
392.6660701089006125
 20
75.7725374574876156
 30
0.0
 11
392.6741644767508888
 21
75.7725508153946521
 31
0.0
  0
LINE
  5
100B2
  8
0
 10
392.6660701089006125
 20
75.7813665226571231
 30
0.0
 11
392.6660701089006125
 21
75.7725374574876156
 31
0.0
  0
LINE
  5
100B3
  8
0
 10
392.6660701089006125
 20
75.7710089985876323
 30
0.0
 11
392.6660701089006125
 21
75.7608192723876215
 31
0.0
  0
LINE
  5
100B4
  8
0
 10
392.6719455441005948
 20
75.7608192723670584
 30
0.0
 11
392.6719209863455262
 21
75.7710140052954131
 31
0.0
  0
LINE
  5
100B5
  8
0
 10
392.661583845400628
 20
75.7572796765876291
 30
0.0
 11
392.661583845400628
 21
75.751112224199332
 31
0.0
  0
LINE
  5
100B6
  8
0
 10
392.6253120787006878
 20
75.7410194883767218
 30
0.0
 11
392.6253120786577142
 21
75.7322178570068729
 31
0.0
  0
LINE
  5
100B7
  8
0
 10
392.5785709829007146
 20
75.7200660284140099
 30
0.0
 11
392.5785709829007146
 21
75.7180167616876219
 31
0.0
  0
LINE
  5
100B8
  8
0
 10
392.5428784925006198
 20
75.7157837077876223
 30
0.0
 11
392.5428784924869205
 21
75.7105808971937648
 31
0.0
  0
LINE
  5
100B9
  8
0
 10
392.5038814700005787
 20
75.71002000598763
 30
0.0
 11
392.5038814700005787
 21
75.7046264138876239
 31
0.0
  0
LINE
  5
100BA
  8
0
 10
392.4615936058007151
 20
75.7027810601876041
 30
0.0
 11
392.4615936058007151
 21
75.7001471745876273
 31
0.0
  0
LINE
  5
100BB
  8
0
 10
392.4641675961375995
 20
75.8358985847312397
 30
0.0
 11
392.4535415649007177
 21
75.8311283830876306
 31
0.0
  0
LINE
  5
100BC
  8
0
 10
392.4535415649007177
 20
75.8311283830876306
 30
0.0
 11
392.4308112394006116
 21
75.8311283830876306
 31
0.0
  0
LINE
  5
100BD
  8
0
 10
392.4308112394006116
 20
75.8311283830876306
 30
0.0
 11
392.4194460766005932
 21
75.8362232461876289
 31
0.0
  0
LINE
  5
100BE
  8
0
 10
392.4194460766005932
 20
75.8362232461876289
 30
0.0
 11
392.4246296092310899
 21
75.8385469602540638
 31
0.0
  0
LINE
  5
100BF
  8
0
 10
392.4308112394006116
 20
75.8311283830876306
 30
0.0
 11
392.4308112394006116
 21
75.8382163860799494
 31
0.0
  0
LINE
  5
100C0
  8
0
 10
392.4535415649007177
 20
75.8311283830876306
 30
0.0
 11
392.4535415649007177
 21
75.8367375439068923
 31
0.0
  0
LINE
  5
100C1
  8
0
 10
392.4184767730571934
 20
75.838845637126326
 30
0.0
 11
392.414331753300587
 21
75.8369874755876197
 31
0.0
  0
LINE
  5
100C2
  8
0
 10
392.414331753300587
 20
75.8369874755876197
 30
0.0
 11
392.3916014278005946
 21
75.8369874755876197
 31
0.0
  0
LINE
  5
100C3
  8
0
 10
392.3916014278005946
 20
75.8369874755876197
 30
0.0
 11
392.3850199754007235
 21
75.8399378599876286
 31
0.0
  0
LINE
  5
100C4
  8
0
 10
392.3916014278005946
 20
75.8369874755876197
 30
0.0
 11
392.3916014278005946
 21
75.8397956728876039
 31
0.0
  0
LINE
  5
100C5
  8
0
 10
392.414331753300587
 20
75.8369874755876197
 30
0.0
 11
392.414331753300587
 21
75.8390297853099753
 31
0.0
  0
ARC
  5
100C6
  8
0
 10
392.3657484648859963
 20
74.6036243011573532
 30
0.0
 40
1.2441553969176899
 50
83.9167456688082609
 51
90.0917183920927869
  0
ARC
  5
100C7
  8
0
 10
392.4160727612162987
 20
75.0758266877006548
 30
0.0
 40
0.7692789617702858
 50
72.9127648342608694
 51
83.9167456688082609
  0
ARC
  5
100C8
  8
0
 10
392.5953183064107179
 20
75.6589356508408457
 30
0.0
 40
0.1592420543896968
 50
51.3161258776637084
 51
72.9127648342608694
  0
ARC
  5
100C9
  8
0
 10
392.669725927405409
 20
75.7526742611022144
 30
0.0
 40
0.0395658590923792
 50
17.1194038192038285
 51
50.5837611365424635
  0
ARC
  5
100CA
  8
0
 10
392.6848366097917165
 20
75.7586230955706839
 30
0.0
 40
0.0234062767471278
 50
348.9995264550851175
 51
14.0895251236124999
  0
ARC
  5
100CB
  8
0
 10
392.6789551837280214
 20
75.7597663794333442
 30
0.0
 40
0.0293977932941541
 50
315.9766209771764238
 51
348.9995264550851175
  0
ARC
  5
100CC
  8
0
 10
392.6260862973333019
 20
75.8108629763635093
 30
0.0
 40
0.102923172357868
 50
295.077701464306017
 51
315.9766209771764238
  0
ARC
  5
100CD
  8
0
 10
392.5267909281644165
 20
76.023050824645594
 30
0.0
 40
0.3371949233159566
 50
284.6271738011104162
 51
295.077701464306017
  0
ARC
  5
100CE
  8
0
 10
392.4339004828714224
 20
76.3789706367282832
 30
0.0
 40
0.7050366657266128
 50
277.6902147894473956
 51
284.6271738011104162
  0
ARC
  5
100CF
  8
0
 10
392.368397177110694
 20
76.8640674701005366
 30
0.0
 40
1.194536023043214
 50
273.0111560226409892
 51
277.6902147894473956
  0
ARC
  5
100D0
  8
0
 10
392.3655527730069821
 20
76.9181404836343887
 30
0.0
 40
1.24868379702643
 50
269.9175907404376744
 51
273.0111560226409892
  0
ARC
  5
100D1
  8
0
 10
392.6543102264333243
 20
75.7731129758165451
 30
0.0
 40
0.0315187298851662
 50
317.7948679264811176
 51
48.3117079127425626
  0
ARC
  5
100D2
  8
0
 10
392.5154868842529936
 20
75.9754137800825617
 30
0.0
 40
0.6044860184041263
 50
180.0030251490503019
 51
191.6591311346653015
  0
ARC
  5
100D3
  8
0
 10
392.513568604051386
 20
75.9750179501233447
 30
0.0
 40
0.602527324888343
 50
191.6591311346653015
 51
200.4446610736058005
  0
ARC
  5
100D4
  8
0
 10
391.9484630039153217
 20
75.9746523561833271
 30
0.0
 40
0.0374688182524212
 50
133.3497338836901918
 51
178.9179589094503058
  0
ARC
  5
100D5
  8
0
 10
392.1054783022771062
 20
75.7704889524141691
 30
0.0
 40
0.2948607944501688
 50
100.1287039215606995
 51
128.2968366781047962
  0
ARC
  5
100D6
  8
0
 10
392.307855515154813
 20
74.9660305130848883
 30
0.0
 40
1.1238567521085441
 50
94.8455615100475598
 51
103.0742381452396046
  0
ARC
  5
100D7
  8
0
 10
392.3622746742551044
 20
74.422792752207755
 30
0.0
 40
1.6697705962084299
 50
89.9491438147309594
 51
95.1316434100689037
  0
ARC
  5
100D8
  8
0
 10
392.2120266669390958
 20
75.9754137800825617
 30
0.0
 40
0.6044860184041263
 50
348.3408688653346985
 51
359.9969748509495844
  0
ARC
  5
100D9
  8
0
 10
392.213944947140817
 20
75.9750179501233447
 30
0.0
 40
0.602527324888343
 50
339.5553389263941995
 51
348.3408688653346985
  0
ARC
  5
100DA
  8
0
 10
392.6220352489150969
 20
75.7704889524141691
 30
0.0
 40
0.2948607944501688
 50
51.7031633218951967
 51
79.8712960784392436
  0
ARC
  5
100DB
  8
0
 10
392.4196580360372764
 20
74.9660305130848883
 30
0.0
 40
1.1238567521085441
 50
76.925761854760367
 51
85.154438489952426
  0
ARC
  5
100DC
  8
0
 10
392.3652388769370987
 20
74.422792752207755
 30
0.0
 40
1.6697705962084299
 50
84.8683565899310963
 51
90.0508561852690548
  0
ARC
  5
100DD
  8
0
 10
392.7846953637989031
 20
75.9752814044978493
 30
0.0
 40
0.031817310516543
 50
359.9562517000086928
 51
20.6882530602219887
  0
ARC
  5
100DE
  8
0
 10
392.7719250511187852
 20
75.9704588972631285
 30
0.0
 40
0.0454678585632366
 50
20.6882530602227597
 51
43.7470531163303278
  0
LINE
  5
100DF
  8
0
 10
394.631079602919101
 20
68.0400993170876376
 30
0.0
 11
394.6082262771457749
 21
68.0400993170876376
 31
0.0
  0
LINE
  5
100E0
  8
0
 10
394.4019644277544216
 20
68.0400993170876376
 30
0.0
 11
394.2475230024924144
 21
68.0400993170876376
 31
0.0
  0
LINE
  5
100E1
  8
0
 10
393.8403082429915116
 20
68.0400993170876376
 30
0.0
 11
393.4472356098013961
 21
68.0400993170876376
 31
0.0
  0
LINE
  5
100E2
  8
0
 10
391.4976150400415236
 20
67.1344727784876341
 30
0.0
 11
391.499372869151216
 21
67.5659135212027309
 31
0.0
  0
ENDSEC
  0
EOF
