  0
SECTION
  2
HEADER
  9
$ACADVER
  1
AC1009
  9
$INSBASE
 10
980.6708109816523802
 20
138.5734689551512986
 30
0.0
  9
$EXTMIN
 10
975.317938642684453
 20
138.563744897028613
 30
-0.0000000000000058
  9
$EXTMAX
 10
981.3829750297069268
 20
148.8524570698918126
 30
0.0000000000000104
  9
$LIMMIN
 10
0.0
 20
0.0
  9
$LIMMAX
 10
11.6929133858000007
 20
8.2677165353999982
  9
$ORTHOMODE
 70
     0
  9
$REGENMODE
 70
     1
  9
$FILLMODE
 70
     1
  9
$QTEXTMODE
 70
     0
  9
$MIRRTEXT
 70
     0
  9
$DRAGMODE
 70
     2
  9
$LTSCALE
 40
0.6431102362
  9
$OSMODE
 70
  4095
  9
$ATTMODE
 70
     1
  9
$TEXTSIZE
 40
0.2
  9
$TRACEWID
 40
0.05
  9
$TEXTSTYLE
  7
STANDARD
  9
$CLAYER
  8
0
  9
$CELTYPE
  6
BYLAYER
  9
$CECOLOR
 62
   256
  9
$DIMSCALE
 40
1.0
  9
$DIMASZ
 40
0.1875
  9
$DIMEXO
 40
0.0625
  9
$DIMDLI
 40
0.4443307087
  9
$DIMRND
 40
0.0
  9
$DIMDLE
 40
0.0
  9
$DIMEXE
 40
0.125
  9
$DIMTP
 40
0.01
  9
$DIMTM
 40
0.01
  9
$DIMTXT
 40
1.0
  9
$DIMCEN
 40
0.1052362205
  9
$DIMTSZ
 40
0.0
  9
$DIMTOL
 70
     1
  9
$DIMLIM
 70
     0
  9
$DIMTIH
 70
     0
  9
$DIMTOH
 70
     1
  9
$DIMSE1
 70
     0
  9
$DIMSE2
 70
     0
  9
$DIMTAD
 70
     0
  9
$DIMZIN
 70
     0
  9
$DIMBLK
  1

  9
$DIMASO
 70
     1
  9
$DIMSHO
 70
     1
  9
$DIMPOST
  1
\X
  9
$DIMAPOST
  1

  9
$DIMALT
 70
     1
  9
$DIMALTD
 70
     2
  9
$DIMALTF
 40
25.3999999999999986
  9
$DIMLFAC
 40
1.0
  9
$DIMTOFL
 70
     0
  9
$DIMTVP
 40
0.0
  9
$DIMTIX
 70
     0
  9
$DIMSOXD
 70
     0
  9
$DIMSAH
 70
     0
  9
$DIMBLK1
  1

  9
$DIMBLK2
  1

  9
$DIMSTYLE
  2
STANDARD
  9
$DIMCLRD
 70
     0
  9
$DIMCLRE
 70
     0
  9
$DIMCLRT
 70
     0
  9
$DIMTFAC
 40
1.0
  9
$DIMGAP
 40
0.09
  9
$LUNITS
 70
     2
  9
$LUPREC
 70
     4
  9
$SKETCHINC
 40
0.1
  9
$FILLETRAD
 40
0.0
  9
$AUNITS
 70
     0
  9
$AUPREC
 70
     0
  9
$MENU
  1
.
  9
$ELEVATION
 40
0.0
  9
$PELEVATION
 40
0.0
  9
$THICKNESS
 40
0.0
  9
$LIMCHECK
 70
     0
  9
$BLIPMODE
 70
     0
  9
$CHAMFERA
 40
0.0
  9
$CHAMFERB
 40
0.0
  9
$SKPOLY
 70
     0
  9
$TDCREATE
 40
2458172.5207638889551163
  9
$TDUPDATE
 40
2459207.9027199079282582
  9
$TDINDWG
 40
0.4503132176
  9
$TDUSRTIMER
 40
0.4503132176
  9
$USRTIMER
 70
     1
  9
$ANGBASE
 50
0.0
  9
$ANGDIR
 70
     0
  9
$PDMODE
 70
     0
  9
$PDSIZE
 40
0.3125
  9
$PLINEWID
 40
0.0
  9
$COORDS
 70
     1
  9
$SPLFRAME
 70
     0
  9
$SPLINETYPE
 70
     6
  9
$SPLINESEGS
 70
     8
  9
$ATTDIA
 70
     1
  9
$ATTREQ
 70
     1
  9
$HANDLING
 70
     1
  9
$HANDSEED
  5
C5F8
  9
$SURFTAB1
 70
     6
  9
$SURFTAB2
 70
     6
  9
$SURFTYPE
 70
     6
  9
$SURFU
 70
     6
  9
$SURFV
 70
     6
  9
$UCSNAME
  2

  9
$UCSORG
 10
0.0
 20
0.0
 30
0.0
  9
$UCSXDIR
 10
1.0
 20
0.0
 30
0.0
  9
$UCSYDIR
 10
0.0
 20
1.0
 30
0.0
  9
$PUCSNAME
  2

  9
$PUCSORG
 10
0.0
 20
0.0
 30
0.0
  9
$PUCSXDIR
 10
1.0
 20
0.0
 30
0.0
  9
$PUCSYDIR
 10
0.0
 20
1.0
 30
0.0
  9
$USERI1
 70
     0
  9
$USERI2
 70
     0
  9
$USERI3
 70
     0
  9
$USERI4
 70
     0
  9
$USERI5
 70
     0
  9
$USERR1
 40
0.0
  9
$USERR2
 40
0.0
  9
$USERR3
 40
0.0
  9
$USERR4
 40
0.0
  9
$USERR5
 40
0.0
  9
$WORLDVIEW
 70
     1
  9
$SHADEDGE
 70
     3
  9
$SHADEDIF
 70
    70
  9
$TILEMODE
 70
     1
  9
$MAXACTVP
 70
    64
  9
$PLIMCHECK
 70
     0
  9
$PEXTMIN
 10
1.0000000000000000E+20
 20
1.0000000000000000E+20
 30
1.0000000000000000E+20
  9
$PEXTMAX
 10
-1.0000000000000000E+20
 20
-1.0000000000000000E+20
 30
-1.0000000000000000E+20
  9
$PLIMMIN
 10
0.0
 20
0.0
  9
$PLIMMAX
 10
12.0
 20
9.0
  9
$UNITMODE
 70
     0
  9
$VISRETAIN
 70
     1
  9
$PLINEGEN
 70
     0
  9
$PSLTSCALE
 70
     1
  0
ENDSEC
  0
SECTION
  2
TABLES
  0
TABLE
  2
VPORT
 70
     1
  0
VPORT
  2
*ACTIVE
 70
     0
 10
0.0
 20
0.0
 11
1.0
 21
1.0
 12
511.608255128365613
 22
54.5749538635304177
 13
0.0
 23
0.0
 14
1.0
 24
1.0
 15
0.0
 25
0.0
 16
0.0
 26
0.0
 36
24.1179433675886514
 17
466.74220170783002
 27
89.133147119929788
 37
0.0
 40
10.4211848617841198
 41
2.9182795698924728
 42
50.0
 43
0.0
 44
0.0
 50
0.0
 51
0.0
 71
     0
 72
   100
 73
     1
 74
     1
 75
     0
 76
     0
 77
     0
 78
     0
  0
ENDTAB
  0
TABLE
  2
LTYPE
 70
     2
  0
LTYPE
  2
CONTINUOUS
 70
     0
  3
Solid line
 72
    65
 73
     0
 40
0.0
  0
LTYPE
  2
PHANTOM2
 70
     0
  3
___ _ _ ___ _ _ ___ _ _ ___ _ _
 72
    65
 73
     6
 40
1.25
 49
0.625
 49
-0.125
 49
0.125
 49
-0.125
 49
0.125
 49
-0.125
  0
ENDTAB
  0
TABLE
  2
LAYER
 70
     2
  0
LAYER
  2
0
 70
     0
 62
   255
  6
CONTINUOUS
  0
LAYER
  2
DEFPOINTS
 70
     0
 62
     7
  6
CONTINUOUS
  0
ENDTAB
  0
TABLE
  2
STYLE
 70
     1
  0
STYLE
  2
STANDARD
 70
     0
 40
0.0
 41
0.8
 50
0.0
 71
     0
 42
0.2
  3
txt
  4

  0
ENDTAB
  0
TABLE
  2
VIEW
 70
     0
  0
ENDTAB
  0
TABLE
  2
UCS
 70
     0
  0
ENDTAB
  0
TABLE
  2
APPID
 70
    11
  0
APPID
  2
ACAD
 70
     0
  0
APPID
  2
ACAD_MLEADERVER
 70
     0
  0
APPID
  2
ACAD_EXEMPT_FROM_CAD_STANDARDS
 70
     0
  0
APPID
  2
ACAD_DSTYLE_DIMJAG
 70
     0
  0
APPID
  2
ACAD_DSTYLE_DIMTALN
 70
     0
  0
APPID
  2
ACAD_NAV_VCDISPLAY
 70
     0
  0
APPID
  2
ACAECLAYERSTANDARD
 70
     0
  0
APPID
  2
ACCMTRANSPARENCY
 70
     0
  0
APPID
  2
DCO15
 70
     0
  0
APPID
  2
ACDBATTR
 70
     0
  0
APPID
  2
ACADANNOTATIVE
 70
     0
  0
ENDTAB
  0
TABLE
  2
DIMSTYLE
 70
     1
  0
DIMSTYLE
  2
STANDARD
 70
     0
  3

  4

  5

  6

  7

 40
1.0
 41
0.1875
 42
0.0625
 43
0.38
 44
0.125
 45
0.0
 46
0.0
 47
0.01
 48
0.01
140
0.15625
141
0.09
142
0.0
143
25.3999999999999986
144
1.0
145
0.0
146
1.0
147
0.09
 71
     1
 72
     0
 73
     1
 74
     1
 75
     0
 76
     0
 77
     0
 78
     4
170
     0
171
     2
172
     0
173
     0
174
     0
175
     0
176
     0
177
     0
178
     0
  0
ENDTAB
  0
ENDSEC
  0
SECTION
  2
BLOCKS
  0
BLOCK
  8
0
  2
$MODEL_SPACE
 70
     0
 10
0.0
 20
0.0
 30
0.0
  3
$MODEL_SPACE
  1

  0
ENDBLK
  5
21
  8
0
  0
BLOCK
 67
     1
  8
0
  2
$PAPER_SPACE
 70
     0
 10
0.0
 20
0.0
 30
0.0
  3
$PAPER_SPACE
  1

  0
ENDBLK
  5
1D
 67
     1
  8
0
  0
ENDSEC
  0
SECTION
  2
ENTITIES
  0
ATTDEF
  5
829
  8
DEFPOINTS
 10
980.6678453146721495
 20
138.5775352528509075
 30
0.0
 40
0.001
  1
K-99453BR-4ND
  3

  2
MODELNUMBER
 70
     0
1001
ACDBATTR
1070
     0
1070
     1
  0
ATTDEF
  5
82A
  8
DEFPOINTS
 10
980.6678453146721495
 20
138.5758685861842139
 30
0.0
 40
0.001
  1
KUMIN
  3

  2
TRADENAME
 70
     0
1001
ACDBATTR
1070
     0
1070
     1
  0
ATTDEF
  5
82B
  8
DEFPOINTS
 10
980.6678453146721495
 20
138.5742019195174919
 30
0.0
 40
0.001
  1
BATHROOM SINK FAUCET
  3

  2
PRODUCT
 70
     0
1001
ACDBATTR
1070
     0
1070
     1
  0
LINE
  5
C2D8
  8
0
 10
979.9818342225690913
 20
138.5734692993983117
 30
0.0
 11
981.3597869784689465
 21
138.5734692993983117
 31
0.0
  0
LINE
  5
C2D9
  8
0
 10
981.3597869784689465
 20
138.5734692993983117
 30
0.0
 11
981.3597869784689465
 21
146.7087937952352092
 31
0.0
  0
LINE
  5
C2DA
  8
0
 10
979.9818342225690913
 20
138.5734692993983117
 30
0.0
 11
979.9818342225690913
 21
145.4650901782003984
 31
0.0
  0
LINE
  5
C2DB
  8
0
 10
976.1002508396375106
 20
147.2010312521715036
 30
0.0
 11
979.5536766035542087
 21
147.2010312521715036
 31
0.0
  0
LINE
  5
C2DC
  8
0
 10
976.4332579237690197
 20
146.2290412454985074
 30
0.0
 11
979.5059360991692756
 21
146.1864530732825074
 31
0.0
  0
ARC
  5
C2DD
  8
0
 10
976.1757816753754469
 20
146.0910459578425105
 30
0.0
 40
1.112552138451866
 50
93.8927877626962868
 51
113.4685911853518974
  0
ARC
  5
C2DE
  8
0
 10
976.2231441622479906
 20
146.1998157942120997
 30
0.0
 40
1.035283771465233
 50
118.2758923699996956
 51
148.0336466109577884
  0
ARC
  5
C2DF
  8
0
 10
975.3695289674760716
 20
146.7281592038970928
 30
0.0
 40
0.0316122572338689
 50
141.3176583087889071
 51
218.6704092985229124
  0
ARC
  5
C2E0
  8
0
 10
976.7062206194860892
 20
147.5942263624243083
 30
0.0
 40
1.624196149280243
 50
213.051293987310487
 51
222.6930362473281093
  0
ARC
  5
C2E1
  8
0
 10
975.2921302817901505
 20
144.5780788555537981
 30
0.0
 40
2.0069502007523981
 50
55.3481842295427313
 51
61.4249951568463999
  0
LINE
  5
C2E2
  8
0
 10
975.7325387411085558
 20
146.4537071731012929
 30
0.0
 11
975.5124413003820791
 21
146.4929071223234018
 31
0.0
  0
ARC
  5
C2E3
  8
0
 10
977.9603191432333915
 20
161.5662999318705886
 30
0.0
 40
15.2759112792819902
 50
261.614297037581423
 51
262.6246152382370269
  0
ARC
  5
C2E4
  8
0
 10
975.8956919015869289
 20
145.6159019314941077
 30
0.0
 40
0.8075548277909598
 50
63.8126410166225924
 51
82.6246152382369843
  0
ARC
  5
C2E5
  8
0
 10
978.7681571336845536
 20
145.4731652699929043
 30
0.0
 40
1.2137039520371911
 50
359.6187932884155884
 51
16.385705374831069
  0
ARC
  5
C2E6
  8
0
 10
979.3630264067536473
 20
145.6480835612547935
 30
0.0
 40
0.5936508408766059
 50
16.385705374831069
 51
53.774426234462382
  0
ARC
  5
C2E7
  8
0
 10
979.4742137545324567
 20
145.6823780122674066
 30
0.0
 40
0.5050722466009886
 50
61.6753635572539167
 51
86.39902294913243
  0
LINE
  5
C2E8
  8
0
 10
980.0885842780742223
 20
147.8503524133984968
 30
0.0
 11
981.2530495405131887
 21
147.8503524133984968
 31
0.0
  0
LINE
  5
C2E9
  8
0
 10
980.0724380972690142
 20
147.8936594999985061
 30
0.0
 11
981.2753362457691537
 21
147.8936594999985061
 31
0.0
  0
ARC
  5
C2EA
  8
0
 10
979.5543026906980231
 20
147.6810423962967036
 30
0.0
 40
0.4800115524333727
 50
269.9252681296429728
 51
286.2346560306808101
  0
ARC
  5
C2EB
  8
0
 10
979.577216146288265
 20
147.6023514547981961
 30
0.0
 40
0.3980524728813866
 50
286.2346560306808101
 51
311.1523690930417274
  0
ARC
  5
C2EC
  8
0
 10
979.3964128350338569
 20
147.8092281693666052
 30
0.0
 40
0.6728029276420197
 50
311.1523690930417274
 51
1.772865661771978
  0
ARC
  5
C2ED
  8
0
 10
980.0885842780742223
 20
147.8306524133984965
 30
0.0
 40
0.0197
 50
89.9999999999869686
 51
181.7728656618176899
  0
ARC
  5
C2EE
  8
0
 10
981.2133315273174503
 20
146.7113641319529052
 30
0.0
 40
0.146478004501905
 50
358.9945451966246992
 51
14.4180289304241693
  0
ARC
  5
C2EF
  8
0
 10
983.3163309436282589
 20
147.2520280279209999
 30
0.0
 40
2.0249095687810441
 50
183.5119968053936077
 51
194.4180289304241001
  0
ARC
  5
C2F0
  8
0
 10
1005.2848348403470027
 20
148.6002964014533063
 30
0.0
 40
24.0347480749407509
 50
182.6071044379640114
 51
183.5119968053936077
  0
ARC
  5
C2F1
  8
0
 10
996.5733737185422569
 20
147.7735373780915893
 30
0.0
 40
15.3007306417005609
 50
179.7863990819442961
 51
180.9980207698334027
  0
ARC
  5
C2F2
  8
0
 10
981.2530495405131887
 20
147.8306524133984965
 30
0.0
 40
0.0197
 50
359.7863990819590754
 51
89.9999999999934914
  0
LINE
  5
C2F3
  8
0
 10
981.2753362457691537
 20
147.8936594999985061
 30
0.0
 11
981.2753362457691537
 21
148.6323035253577132
 31
0.0
  0
LINE
  5
C2F4
  8
0
 10
980.0724380972690142
 20
147.8936594999985061
 30
0.0
 11
980.0724380972690142
 21
148.0562559890323939
 31
0.0
  0
LINE
  5
C2F5
  8
0
 10
981.1924641437689161
 20
147.8503524133984968
 30
0.0
 11
981.1924641437689161
 21
147.8936594999985061
 31
0.0
  0
LINE
  5
C2F6
  8
0
 10
980.1491570571690772
 20
147.8503524133984968
 30
0.0
 11
980.1491570571690772
 21
147.8936594999985061
 31
0.0
  0
LINE
  5
C2F7
  8
0
 10
980.554409589373563
 20
148.8449343633205046
 30
0.0
 11
979.0025136520431488
 21
148.8449343633205046
 31
0.0
  0
ARC
  5
C2F8
  8
0
 10
980.7081229519545786
 20
147.8837670630250045
 30
0.0
 40
0.9508605784858373
 50
54.2729887033185534
 51
85.4464304332840214
  0
ARC
  5
C2F9
  8
0
 10
980.5178458125764109
 20
146.2347775347975016
 30
0.0
 40
2.610412913555797
 50
84.156572044614947
 51
89.1974378493332267
  0
ARC
  5
C2FA
  8
0
 10
981.2465362457691072
 20
148.6323035253577984
 30
0.0
 40
0.0288
 50
359.999999999970612
 51
54.2729887033908582
  0
LINE
  5
C2FB
  8
0
 10
978.4699397023711072
 20
148.5294487472880007
 30
0.0
 11
979.9085483854652239
 21
148.5294487472880007
 31
0.0
  0
ARC
  5
C2FC
  8
0
 10
979.5794171481605872
 20
148.1692337148413969
 30
0.0
 40
0.5057999829861494
 50
347.0932805072517908
 51
17.1854934424870116
  0
ARC
  5
C2FD
  8
0
 10
979.507528789867024
 20
148.2673095970189934
 30
0.0
 40
0.5574779199350736
 50
5.287236375314901
 51
26.0330105416645594
  0
ARC
  5
C2FE
  8
0
 10
979.8643424510842124
 20
147.9822643581925092
 30
0.0
 40
0.5489671395487783
 50
74.781607809097423
 51
85.3812193981442249
  0
ARC
  5
C2FF
  8
0
 10
978.9916148924811523
 20
146.7918174736713013
 30
0.0
 40
2.053145816916798
 50
89.6958541120759349
 51
99.9700686026360756
  0
ARC
  5
C300
  8
0
 10
978.8104431944055932
 20
147.9234555558765862
 30
0.0
 40
0.9073989867272032
 50
101.0744409603726979
 51
122.3623196842776935
  0
LINE
  5
C301
  8
0
 10
978.3864682455384809
 20
148.5515314821340951
 30
0.0
 11
978.3242618807131521
 21
148.58692238102239
 31
0.0
  0
ARC
  5
C302
  8
0
 10
978.4699397023711072
 20
148.6982487472880905
 30
0.0
 40
0.1688
 50
240.3632707335137866
 51
270.0
  0
ARC
  5
C303
  8
0
 10
978.3538400029707418
 20
148.6339761605715069
 30
0.0
 40
0.0555780845848471
 50
197.5728631168304048
 51
237.8464298476650924
  0
ARC
  5
C304
  8
0
 10
978.368912778220988
 20
148.6387496704466002
 30
0.0
 40
0.0713886807239925
 50
158.1156704437769065
 51
197.5728631168304048
  0
ARC
  5
C305
  8
0
 10
978.3473305054296816
 20
148.6474188325655064
 30
0.0
 40
0.0481303731611383
 50
117.9948837298453981
 51
158.1156704437754001
  0
LINE
  5
C306
  8
0
 10
975.6486109648330967
 20
146.4686549369529018
 30
0.0
 11
976.283447452051746
 21
146.2375933518904105
 31
0.0
  0
LINE
  5
C307
  8
0
 10
976.314259792001053
 20
146.2646943552684888
 30
0.0
 11
976.3263858431763538
 21
146.2980104071110077
 31
0.0
  0
LINE
  5
C308
  8
0
 10
976.2938870622896275
 20
146.2424614221071977
 30
0.0
 11
976.283447452051746
 21
146.2375933518904105
 31
0.0
  0
ARC
  5
C309
  8
0
 10
976.2772359027354696
 20
146.2781699488971014
 30
0.0
 40
0.0394
 50
295.0000000667182007
 51
340.0000000284687189
  0
ARC
  5
C30A
  8
0
 10
976.151404770701788
 20
146.8624585224725934
 30
0.0
 40
0.6013126047042316
 50
255.1840151155672061
 51
275.6580093867307255
  0
LINE
  5
C30B
  8
0
 10
975.9976398287634538
 20
146.281138308470986
 30
0.0
 11
976.0170778902795519
 21
146.3345439437273114
 31
0.0
  0
LINE
  5
C30C
  8
0
 10
976.0423500692014613
 20
146.3118903577945957
 30
0.0
 11
976.0377044428777253
 21
146.299126603935207
 31
0.0
  0
LINE
  5
C30D
  8
0
 10
976.0359428730690752
 20
146.2942867304984134
 30
0.0
 11
976.0327219147692404
 21
146.2854372199984141
 31
0.0
  0
LINE
  5
C30E
  8
0
 10
976.0315755019613562
 20
146.282287476588607
 30
0.0
 11
976.0296791215157555
 21
146.2770772139579094
 31
0.0
  0
LINE
  5
C30F
  8
0
 10
976.0291138403508739
 20
146.2755241166688052
 30
0.0
 11
976.0285009538464465
 21
146.2738402247800025
 31
0.0
  0
LINE
  5
C310
  8
0
 10
976.0447844972296707
 20
146.3185788940593
 30
0.0
 11
976.0466745078996382
 21
146.3237716558745944
 31
0.0
  0
LINE
  5
C311
  8
0
 10
976.0315755018691561
 20
146.2822874765984977
 30
0.0
 11
976.0324353654937113
 21
146.2821957389660952
 31
0.0
  0
LINE
  5
C312
  8
0
 10
976.0324353654937113
 20
146.2821957389660952
 30
0.0
 11
976.0488129949156928
 21
146.2773486364268933
 31
0.0
  0
LINE
  5
C313
  8
0
 10
976.0488129949156928
 20
146.2773486364268933
 30
0.0
 11
976.0478364839498227
 21
146.2746656946663109
 31
0.0
  0
LINE
  5
C314
  8
0
 10
976.0478364839498227
 20
146.2746656946663109
 30
0.0
 11
976.0304906589507254
 21
146.2768527016669111
 31
0.0
  0
LINE
  5
C315
  8
0
 10
976.0304906589507254
 20
146.2768527016669111
 30
0.0
 11
976.0296791215157555
 21
146.2770772139579094
 31
0.0
  0
LINE
  5
C316
  8
0
 10
976.0291138403508739
 20
146.2755241166688052
 30
0.0
 11
976.0299569867689797
 21
146.2753864492983951
 31
0.0
  0
LINE
  5
C317
  8
0
 10
976.0299569867689797
 20
146.2753864492983951
 30
0.0
 11
976.0466526575689841
 21
146.2714131584984045
 31
0.0
  0
LINE
  5
C318
  8
0
 10
976.0466526575689841
 20
146.2714131584984045
 30
0.0
 11
976.0462858738736713
 21
146.2704054284803021
 31
0.0
  0
LINE
  5
C319
  8
0
 10
976.0359428730690752
 20
146.2942867304984134
 30
0.0
 11
976.0368207525690423
 21
146.2942444909984943
 31
0.0
  0
LINE
  5
C31A
  8
0
 10
976.0368207525690423
 20
146.2942444909984943
 30
0.0
 11
976.0528403920083065
 21
146.2884138192571015
 31
0.0
  0
LINE
  5
C31B
  8
0
 10
976.0528403920083065
 20
146.2884138192571015
 30
0.0
 11
976.0512142253523962
 21
146.2839459629529131
 31
0.0
  0
LINE
  5
C31C
  8
0
 10
976.0512142253523962
 20
146.2839459629529131
 30
0.0
 11
976.0335176795663301
 21
146.2851693723063136
 31
0.0
  0
LINE
  5
C31D
  8
0
 10
976.0335176795663301
 20
146.2851693723063136
 30
0.0
 11
976.0327219147692404
 21
146.2854372199984141
 31
0.0
  0
LINE
  5
C31E
  8
0
 10
976.0423500692014613
 20
146.3118903577945957
 30
0.0
 11
976.0432472392690215
 21
146.3119011180984899
 31
0.0
  0
LINE
  5
C31F
  8
0
 10
976.0432472392690215
 20
146.3119011180984899
 30
0.0
 11
976.0589554746690055
 21
146.3052148705984905
 31
0.0
  0
LINE
  5
C320
  8
0
 10
976.0589554746690055
 20
146.3052148705984905
 30
0.0
 11
976.0565638481117503
 21
146.2986439307740909
 31
0.0
  0
LINE
  5
C321
  8
0
 10
976.0565638481117503
 20
146.2986439307740909
 30
0.0
 11
976.0384838439357509
 21
146.2988137971117908
 31
0.0
  0
LINE
  5
C322
  8
0
 10
976.0384838439357509
 20
146.2988137971117908
 30
0.0
 11
976.0377044428777253
 21
146.299126603935207
 31
0.0
  0
LINE
  5
C323
  8
0
 10
976.0447844975690259
 20
146.3185788938984899
 30
0.0
 11
976.0455463547895079
 21
146.3182178858546933
 31
0.0
  0
LINE
  5
C324
  8
0
 10
976.0455463547895079
 20
146.3182178858546933
 30
0.0
 11
976.0599721358521492
 21
146.3189317151116029
 31
0.0
  0
LINE
  5
C325
  8
0
 10
976.04939637064831
 20
146.2972446360230094
 30
0.0
 11
976.0474181702624037
 21
146.291699058199697
 31
0.0
  0
LINE
  5
C326
  8
0
 10
976.0474181702624037
 20
146.291699058199697
 30
0.0
 11
976.0635572216690434
 21
146.2863069848984878
 31
0.0
  0
LINE
  5
C327
  8
0
 10
976.0635572216690434
 20
146.2863069848984878
 30
0.0
 11
976.0817490953767219
 21
146.2864444778674056
 31
0.0
  0
LINE
  5
C328
  8
0
 10
976.0817490953767219
 20
146.2864444778674056
 30
0.0
 11
976.0837878729689692
 21
146.2920459731984124
 31
0.0
  0
LINE
  5
C329
  8
0
 10
976.0837878729689692
 20
146.2920459731984124
 30
0.0
 11
976.0676097437834642
 21
146.2974411979380989
 31
0.0
  0
LINE
  5
C32A
  8
0
 10
976.0676097437834642
 20
146.2974411979380989
 30
0.0
 11
976.0493963691914132
 21
146.2972446319386108
 31
0.0
  0
LINE
  5
C32B
  8
0
 10
976.0642365576208022
 20
146.3173795925208935
 30
0.0
 11
976.0565488429690504
 21
146.3168958921984881
 31
0.0
  0
LINE
  5
C32C
  8
0
 10
976.0565488429690504
 20
146.3168958921984881
 30
0.0
 11
976.0537651391689451
 21
146.3092477287983968
 31
0.0
  0
LINE
  5
C32D
  8
0
 10
976.0537651391689451
 20
146.3092477287983968
 30
0.0
 11
976.0695997961607873
 21
146.3029088218758034
 31
0.0
  0
LINE
  5
C32E
  8
0
 10
976.0695997961607873
 20
146.3029088218758034
 30
0.0
 11
976.0882127225138447
 21
146.3042031473630118
 31
0.0
  0
LINE
  5
C32F
  8
0
 10
976.0882127225138447
 20
146.3042031473630118
 30
0.0
 11
976.0896428718531297
 21
146.3081324503743019
 31
0.0
  0
LINE
  5
C330
  8
0
 10
976.0443541343183824
 20
146.2833912054549899
 30
0.0
 11
976.0621781114506348
 21
146.2825179107910003
 31
0.0
  0
LINE
  5
C331
  8
0
 10
976.0621781114506348
 20
146.2825179107910003
 30
0.0
 11
976.0786840910698174
 21
146.2780234476003898
 31
0.0
  0
LINE
  5
C332
  8
0
 10
976.0786840910698174
 20
146.2780234476003898
 30
0.0
 11
976.0773582685396832
 21
146.2743807803176992
 31
0.0
  0
LINE
  5
C333
  8
0
 10
976.0773582685396832
 20
146.2743807803176992
 30
0.0
 11
976.0595420247691436
 21
146.2752753221984108
 31
0.0
  0
LINE
  5
C334
  8
0
 10
976.0595420247691436
 20
146.2752753221984108
 30
0.0
 11
976.0430437793118017
 21
146.2797910347223933
 31
0.0
  0
LINE
  5
C335
  8
0
 10
976.0430437793118017
 20
146.2797910347223933
 30
0.0
 11
976.0443541342543767
 21
146.2833912054580878
 31
0.0
  0
LINE
  5
C336
  8
0
 10
976.0412609531690578
 20
146.2748927602985134
 30
0.0
 11
976.0587302906069453
 21
146.273045100833798
 31
0.0
  0
LINE
  5
C337
  8
0
 10
976.0587302906069453
 20
146.273045100833798
 30
0.0
 11
976.0755547322690973
 21
146.2694256050984905
 31
0.0
  0
LINE
  5
C338
  8
0
 10
976.0755547322690973
 20
146.2694256050984905
 30
0.0
 11
976.0749012586691151
 21
146.2676302010985125
 31
0.0
  0
LINE
  5
C339
  8
0
 10
976.0749012586691151
 20
146.2676302010985125
 30
0.0
 11
976.0574308131876933
 21
146.2694748159605069
 31
0.0
  0
LINE
  5
C33A
  8
0
 10
976.0574308131876933
 20
146.2694748159605069
 30
0.0
 11
976.0406733192564843
 21
146.273103867474191
 31
0.0
  0
LINE
  5
C33B
  8
0
 10
976.0406733192564843
 20
146.273103867474191
 30
0.0
 11
976.0412609531678072
 21
146.2748927602953017
 31
0.0
  0
LINE
  5
C33C
  8
0
 10
976.0807528024117801
 20
146.3020003732362113
 30
0.0
 11
976.0995089805199996
 21
146.3036882795846907
 31
0.0
  0
LINE
  5
C33D
  8
0
 10
976.0995089805199996
 20
146.3036882795846907
 30
0.0
 11
976.1157586545956519
 21
146.2984896226838885
 31
0.0
  0
LINE
  5
C33E
  8
0
 10
976.1157586545956519
 20
146.2984896226838885
 30
0.0
 11
976.1133689248267729
 21
146.2919238941422861
 31
0.0
  0
LINE
  5
C33F
  8
0
 10
976.1133689248267729
 20
146.2919238941422861
 30
0.0
 11
976.09464436218218
 21
146.29032285031181
 31
0.0
  0
LINE
  5
C340
  8
0
 10
976.09464436218218
 20
146.29032285031181
 30
0.0
 11
976.0783402461404421
 21
146.2953719291980974
 31
0.0
  0
LINE
  5
C341
  8
0
 10
976.0783402461404421
 20
146.2953719291980974
 30
0.0
 11
976.0807528024852218
 21
146.3020003732428904
 31
0.0
  0
LINE
  5
C342
  8
0
 10
976.0746205494690457
 20
146.2851521465983922
 30
0.0
 11
976.0929474041951153
 21
146.2856604969597925
 31
0.0
  0
LINE
  5
C343
  8
0
 10
976.0929474041951153
 20
146.2856604969597925
 30
0.0
 11
976.109590070192553
 21
146.281541576444198
 31
0.0
  0
LINE
  5
C344
  8
0
 10
976.109590070192553
 20
146.281541576444198
 30
0.0
 11
976.1078927714917199
 21
146.2768782864690991
 31
0.0
  0
LINE
  5
C345
  8
0
 10
976.1078927714917199
 20
146.2768782864690991
 30
0.0
 11
976.0895788264116391
 21
146.2764054053293137
 31
0.0
  0
LINE
  5
C346
  8
0
 10
976.0895788264116391
 20
146.2764054053293137
 30
0.0
 11
976.0729490723533672
 21
146.2805598011117922
 31
0.0
  0
LINE
  5
C347
  8
0
 10
976.0729490723533672
 20
146.2805598011117922
 30
0.0
 11
976.0746205513273708
 21
146.285152146650006
 31
0.0
  0
LINE
  5
C348
  8
0
 10
976.0705299354095814
 20
146.2739132769912089
 30
0.0
 11
976.0884755408372939
 21
146.2733741530460065
 31
0.0
  0
LINE
  5
C349
  8
0
 10
976.0884755408372939
 20
146.2733741530460065
 30
0.0
 11
976.1054370645326799
 21
146.2701312871070911
 31
0.0
  0
LINE
  5
C34A
  8
0
 10
976.1054370645326799
 20
146.2701312871070911
 30
0.0
 11
976.1044387915640073
 21
146.267388554484711
 31
0.0
  0
LINE
  5
C34B
  8
0
 10
976.1044387915640073
 20
146.267388554484711
 30
0.0
 11
976.0864937428690382
 21
146.2679292079984918
 31
0.0
  0
LINE
  5
C34C
  8
0
 10
976.0864937428690382
 20
146.2679292079984918
 30
0.0
 11
976.0695462684690256
 21
146.271210674198386
 31
0.0
  0
LINE
  5
C34D
  8
0
 10
976.0695462684690256
 20
146.271210674198386
 30
0.0
 11
976.0705299354095814
 21
146.2739132769912089
 31
0.0
  0
LINE
  5
C34E
  8
0
 10
976.0680076142535881
 20
146.2669572522200099
 30
0.0
 11
976.0683538622128026
 21
146.2679345649069944
 31
0.0
  0
LINE
  5
C34F
  8
0
 10
976.0683538622128026
 20
146.2679345649069944
 30
0.0
 11
976.0859500221330336
 21
146.2664353475666985
 31
0.0
  0
LINE
  5
C350
  8
0
 10
976.0859500221330336
 20
146.2664353475666985
 30
0.0
 11
976.1032288793691123
 21
146.2640643481983886
 31
0.0
  0
LINE
  5
C351
  8
0
 10
976.1032288793691123
 20
146.2640643481983886
 30
0.0
 11
976.1029027536515059
 21
146.2631052018693083
 31
0.0
  0
LINE
  5
C352
  8
0
 10
976.0976377899804675
 20
146.2669961440296902
 30
0.0
 11
976.1157150597380223
 21
146.2668187650841958
 31
0.0
  0
LINE
  5
C353
  8
0
 10
976.1157150597380223
 20
146.2668187650841958
 30
0.0
 11
976.1331407803622824
 21
146.2648512694802037
 31
0.0
  0
LINE
  5
C354
  8
0
 10
976.1331407803622824
 20
146.2648512694802037
 30
0.0
 11
976.1324693147264497
 21
146.2630064329053141
 31
0.0
  0
LINE
  5
C355
  8
0
 10
976.1324693147264497
 20
146.2630064329053141
 30
0.0
 11
976.1143842266690172
 21
146.2631623311984868
 31
0.0
  0
LINE
  5
C356
  8
0
 10
976.1143842266690172
 20
146.2631623311984868
 30
0.0
 11
976.0969782676455679
 21
146.2651841213337889
 31
0.0
  0
LINE
  5
C357
  8
0
 10
976.0969782676455679
 20
146.2651841213337889
 30
0.0
 11
976.0976377899690988
 21
146.2669961439985116
 31
0.0
  0
LINE
  5
C358
  8
0
 10
976.125316076882882
 20
146.2617121295320999
 30
0.0
 11
976.1256914892389887
 21
146.2626776982897923
 31
0.0
  0
LINE
  5
C359
  8
0
 10
976.1256914892389887
 20
146.2626776982897923
 30
0.0
 11
976.1439127283998687
 21
146.2628958720407866
 31
0.0
  0
LINE
  5
C35A
  8
0
 10
976.1439127283998687
 20
146.2628958720407866
 30
0.0
 11
976.1618186470689125
 21
146.2622477095985118
 31
0.0
  0
LINE
  5
C35B
  8
0
 10
976.1618186470689125
 20
146.2622477095985118
 30
0.0
 11
976.1614570485019158
 21
146.2612299467319019
 31
0.0
  0
LINE
  5
C35C
  8
0
 10
976.099458234520057
 20
146.2719977743383879
 30
0.0
 11
976.1007966913690552
 21
146.2756751541984954
 31
0.0
  0
LINE
  5
C35D
  8
0
 10
976.1007966913690552
 20
146.2756751541984954
 30
0.0
 11
976.1187478411532084
 21
146.276493281590291
 31
0.0
  0
LINE
  5
C35E
  8
0
 10
976.1187478411532084
 20
146.276493281590291
 30
0.0
 11
976.136358062569002
 21
146.273690679798392
 31
0.0
  0
LINE
  5
C35F
  8
0
 10
976.136358062569002
 20
146.273690679798392
 30
0.0
 11
976.1349946284690304
 21
146.2699446753985058
 31
0.0
  0
LINE
  5
C360
  8
0
 10
976.1349946284690304
 20
146.2699446753985058
 30
0.0
 11
976.1165465996095918
 21
146.2691034019649976
 31
0.0
  0
LINE
  5
C361
  8
0
 10
976.1165465996095918
 20
146.2691034019649976
 30
0.0
 11
976.099458234569056
 21
146.2719977743984998
 31
0.0
  0
LINE
  5
C362
  8
0
 10
976.1059508010185937
 20
146.2898359542020046
 30
0.0
 11
976.12482083666157
 21
146.2918366815781042
 31
0.0
  0
LINE
  5
C363
  8
0
 10
976.12482083666157
 20
146.2918366815781042
 30
0.0
 11
976.1416118150689272
 21
146.288125246298506
 31
0.0
  0
LINE
  5
C364
  8
0
 10
976.1416118150689272
 20
146.288125246298506
 30
0.0
 11
976.1395121183395531
 21
146.2823563768488953
 31
0.0
  0
LINE
  5
C365
  8
0
 10
976.1395121183395531
 20
146.2823563768488953
 30
0.0
 11
976.120662322604403
 21
146.2804112581958123
 31
0.0
  0
LINE
  5
C366
  8
0
 10
976.120662322604403
 20
146.2804112581958123
 30
0.0
 11
976.1038915895898072
 21
146.284178317352314
 31
0.0
  0
LINE
  5
C367
  8
0
 10
976.1038915895898072
 20
146.284178317352314
 30
0.0
 11
976.1059508010185937
 21
146.2898359542020046
 31
0.0
  0
LINE
  5
C368
  8
0
 10
976.1321273932547911
 20
146.2803601992592917
 30
0.0
 11
976.1511260304193911
 21
146.2827142564441942
 31
0.0
  0
LINE
  5
C369
  8
0
 10
976.1511260304193911
 20
146.2827142564441942
 30
0.0
 11
976.1651418422349025
 21
146.2806530724270999
 31
0.0
  0
LINE
  5
C36A
  8
0
 10
976.1321273932692293
 20
146.2803601992985136
 30
0.0
 11
976.1305239377328462
 21
146.2759547412620122
 31
0.0
  0
LINE
  5
C36B
  8
0
 10
976.1305239377328462
 20
146.2759547412620122
 30
0.0
 11
976.1476514509140543
 21
146.2731679276286911
 31
0.0
  0
LINE
  5
C36C
  8
0
 10
976.1476514509140543
 20
146.2731679276286911
 30
0.0
 11
976.1666420320875659
 21
146.2754998510939117
 31
0.0
  0
LINE
  5
C36D
  8
0
 10
976.1666420320875659
 20
146.2754998510939117
 30
0.0
 11
976.1681227566308507
 21
146.2795681083156865
 31
0.0
  0
LINE
  5
C36E
  8
0
 10
976.1279250395543841
 20
146.2688143272580135
 30
0.0
 11
976.1465142889690014
 21
146.2700436008985037
 31
0.0
  0
LINE
  5
C36F
  8
0
 10
976.1465142889690014
 20
146.2700436008985037
 30
0.0
 11
976.1641013312689665
 21
146.2685193329984941
 31
0.0
  0
LINE
  5
C370
  8
0
 10
976.1641013312689665
 20
146.2685193329984941
 30
0.0
 11
976.1630691570690033
 21
146.2656834575984135
 31
0.0
  0
LINE
  5
C371
  8
0
 10
976.1630691570690033
 20
146.2656834575984135
 30
0.0
 11
976.1444726464159203
 21
146.2644342340011008
 31
0.0
  0
LINE
  5
C372
  8
0
 10
976.1444726464159203
 20
146.2644342340011008
 30
0.0
 11
976.1269152264691229
 21
146.2660398884985113
 31
0.0
  0
LINE
  5
C373
  8
0
 10
976.1269152264691229
 20
146.2660398884985113
 30
0.0
 11
976.127925039568936
 21
146.268814327298486
 31
0.0
  0
LINE
  5
C374
  8
0
 10
976.1560203075830486
 20
146.2646100905369906
 30
0.0
 11
976.1747629725531397
 21
146.2662608700549924
 31
0.0
  0
LINE
  5
C375
  8
0
 10
976.1747629725531397
 20
146.2662608700549924
 30
0.0
 11
976.1928451583689821
 21
146.2660969976984973
 31
0.0
  0
LINE
  5
C376
  8
0
 10
976.1928451583689821
 20
146.2660969976984973
 30
0.0
 11
976.1921467309776972
 21
146.264178084222408
 31
0.0
  0
LINE
  5
C377
  8
0
 10
976.1921467309776972
 20
146.264178084222408
 30
0.0
 11
976.1733841649869419
 21
146.2624726273473925
 31
0.0
  0
LINE
  5
C378
  8
0
 10
976.1733841649869419
 20
146.2624726273473925
 30
0.0
 11
976.1553395931689465
 21
146.262739843298391
 31
0.0
  0
LINE
  5
C379
  8
0
 10
976.1553395931689465
 20
146.262739843298391
 30
0.0
 11
976.1560203075830486
 21
146.2646100905369906
 31
0.0
  0
LINE
  5
C37A
  8
0
 10
976.1847211761181597
 20
146.2620695937719972
 30
0.0
 11
976.185112826005593
 21
146.2631457770249881
 31
0.0
  0
LINE
  5
C37B
  8
0
 10
976.185112826005593
 20
146.2631457770249881
 30
0.0
 11
976.2040280402127337
 21
146.2652706313492956
 31
0.0
  0
LINE
  5
C37C
  8
0
 10
976.2040280402127337
 20
146.2652706313492956
 30
0.0
 11
976.2069937217479492
 21
146.2654202340303868
 31
0.0
  0
LINE
  5
C37D
  8
0
 10
976.1932944808210095
 20
146.2704063499616893
 30
0.0
 11
976.1874331471689175
 21
146.2695208068984982
 31
0.0
  0
LINE
  5
C37E
  8
0
 10
976.1874331471689175
 20
146.2695208068984982
 30
0.0
 11
976.1863838376497142
 21
146.2666378527582935
 31
0.0
  0
LINE
  5
C37F
  8
0
 10
976.1863838376497142
 20
146.2666378527582935
 30
0.0
 11
976.2032155501992747
 21
146.2667953760144997
 31
0.0
  0
LINE
  5
C380
  8
0
 10
976.1592828435690308
 20
146.2735738344985066
 30
0.0
 11
976.1579000391400314
 21
146.2697746108187005
 31
0.0
  0
LINE
  5
C381
  8
0
 10
976.1579000391400314
 20
146.2697746108187005
 30
0.0
 11
976.1756248460012557
 21
146.268628847770799
 31
0.0
  0
LINE
  5
C382
  8
0
 10
976.1756248460012557
 20
146.268628847770799
 30
0.0
 11
976.1920489949237663
 21
146.2708596697555947
 31
0.0
  0
LINE
  5
C383
  8
0
 10
976.1592828435524325
 20
146.27357383446369
 30
0.0
 11
976.1775496007564925
 21
146.276137017649404
 31
0.0
  0
LINE
  5
C384
  8
0
 10
976.2040280402127337
 20
146.2652706313492956
 30
0.0
 11
976.2040280402127337
 21
146.2634529798586982
 31
0.0
  0
LINE
  5
C385
  8
0
 10
976.1747629725531397
 20
146.2662608700549924
 30
0.0
 11
976.1733841649869419
 21
146.2624726273473925
 31
0.0
  0
LINE
  5
C386
  8
0
 10
976.1756248460012557
 20
146.268628847770799
 30
0.0
 11
976.1756248460012557
 21
146.2770799924975051
 31
0.0
  0
LINE
  5
C387
  8
0
 10
976.1439127283998687
 20
146.2628958720407866
 30
0.0
 11
976.1433290490582522
 21
146.2612001493116907
 31
0.0
  0
LINE
  5
C388
  8
0
 10
976.1465142889690014
 20
146.2700436008985037
 30
0.0
 11
976.1444726464159203
 21
146.2644342340011008
 31
0.0
  0
LINE
  5
C389
  8
0
 10
976.1476514509140543
 20
146.2731679276286911
 30
0.0
 11
976.1511260304193911
 21
146.2827142564441942
 31
0.0
  0
LINE
  5
C38A
  8
0
 10
976.1143842266690172
 20
146.2631623311984868
 30
0.0
 11
976.1157150597380223
 21
146.2668187650841958
 31
0.0
  0
LINE
  5
C38B
  8
0
 10
976.1165465996095918
 20
146.2691034019649976
 30
0.0
 11
976.1187478411532084
 21
146.276493281590291
 31
0.0
  0
LINE
  5
C38C
  8
0
 10
976.120662322604403
 20
146.2804112581958123
 30
0.0
 11
976.12482083666157
 21
146.2918366815781042
 31
0.0
  0
LINE
  5
C38D
  8
0
 10
976.09464436218218
 20
146.29032285031181
 30
0.0
 11
976.0995089805199996
 21
146.3036882795846907
 31
0.0
  0
LINE
  5
C38E
  8
0
 10
976.0895788264116391
 20
146.2764054053293137
 30
0.0
 11
976.0929474041951153
 21
146.2856604969597925
 31
0.0
  0
LINE
  5
C38F
  8
0
 10
976.0864937428690382
 20
146.2679292079984918
 30
0.0
 11
976.0884755408372939
 21
146.2733741530460065
 31
0.0
  0
LINE
  5
C390
  8
0
 10
976.0859500221330336
 20
146.2664353475666985
 30
0.0
 11
976.085299573157954
 21
146.2647905950798872
 31
0.0
  0
LINE
  5
C391
  8
0
 10
976.0574308131876933
 20
146.2694748159605069
 30
0.0
 11
976.0587302906069453
 21
146.273045100833798
 31
0.0
  0
LINE
  5
C392
  8
0
 10
976.0595420247691436
 20
146.2752753221984108
 30
0.0
 11
976.0621781114506348
 21
146.2825179107910003
 31
0.0
  0
LINE
  5
C393
  8
0
 10
976.0635572216690434
 20
146.2863069848984878
 30
0.0
 11
976.0676097437834642
 21
146.2974411979380989
 31
0.0
  0
LINE
  5
C394
  8
0
 10
976.0695997961607873
 20
146.3029088218758034
 30
0.0
 11
976.0733608034360032
 21
146.3140586386327016
 31
0.0
  0
LINE
  5
C395
  8
0
 10
976.0455463547895079
 20
146.3182178858546933
 30
0.0
 11
976.0475892455295934
 21
146.3234387186049048
 31
0.0
  0
LINE
  5
C396
  8
0
 10
976.0432472392690215
 20
146.3119011180984899
 30
0.0
 11
976.0384200922025002
 21
146.2988393833961993
 31
0.0
  0
LINE
  5
C397
  8
0
 10
976.0368207525690423
 20
146.2942444909984943
 30
0.0
 11
976.0335176795663301
 21
146.2851693723063136
 31
0.0
  0
LINE
  5
C398
  8
0
 10
976.0324353654937113
 20
146.2821957389660952
 30
0.0
 11
976.0304906589507254
 21
146.2768527016669111
 31
0.0
  0
LINE
  5
C399
  8
0
 10
976.0299569867689797
 20
146.2753864492983951
 30
0.0
 11
976.0294456449479412
 21
146.273643763638006
 31
0.0
  0
ARC
  5
C39A
  8
0
 10
976.1573254706645457
 20
146.860303563926692
 30
0.0
 40
0.6013126047042316
 50
224.3419907257809882
 51
244.8159849969514994
  0
LINE
  5
C39B
  8
0
 10
975.9014508202309344
 20
146.3161482443335046
 30
0.0
 11
975.9208888817468051
 21
146.3695538795898017
 31
0.0
  0
LINE
  5
C39C
  8
0
 10
975.8869678251678579
 20
146.3684448693836089
 30
0.0
 11
975.882322198589236
 21
146.3556811156167896
 31
0.0
  0
LINE
  5
C39D
  8
0
 10
975.8805606286840657
 20
146.3508412422152105
 30
0.0
 11
975.8773396702074479
 21
146.3419917317795012
 31
0.0
  0
LINE
  5
C39E
  8
0
 10
975.8761932573371496
 20
146.3388419883924882
 30
0.0
 11
975.8742968767874117
 21
146.3336317257995915
 31
0.0
  0
LINE
  5
C39F
  8
0
 10
975.8737315955914937
 20
146.3320786285217991
 30
0.0
 11
975.8731187090535286
 21
146.3303947366453031
 31
0.0
  0
LINE
  5
C3A0
  8
0
 10
975.8894022533295356
 20
146.375133405599712
 30
0.0
 11
975.8912922641029581
 21
146.3803261673772056
 31
0.0
  0
LINE
  5
C3A1
  8
0
 10
975.8761932574142293
 20
146.3388419883407039
 30
0.0
 11
975.8754755958483429
 21
146.3393244229197876
 31
0.0
  0
LINE
  5
C3A2
  8
0
 10
975.8754755958483429
 20
146.3393244229197876
 30
0.0
 11
975.8598139463693997
 21
146.3461386641922104
 31
0.0
  0
LINE
  5
C3A3
  8
0
 10
975.8598139463693997
 20
146.3461386641922104
 30
0.0
 11
975.8588374354527559
 21
146.3434557224136938
 31
0.0
  0
LINE
  5
C3A4
  8
0
 10
975.8588374354527559
 20
146.3434557224136938
 30
0.0
 11
975.8735308893254796
 21
146.3339813856132139
 31
0.0
  0
LINE
  5
C3A5
  8
0
 10
975.8735308893254796
 20
146.3339813856132139
 30
0.0
 11
975.8742968767874117
 21
146.3336317257995915
 31
0.0
  0
LINE
  5
C3A6
  8
0
 10
975.8737315955914937
 20
146.3320786285217991
 30
0.0
 11
975.8729972170824567
 21
146.3325151332670941
 31
0.0
  0
LINE
  5
C3A7
  8
0
 10
975.8729972170824567
 20
146.3325151332670941
 30
0.0
 11
975.8576536091309208
 21
146.3402031862243859
 31
0.0
  0
LINE
  5
C3A8
  8
0
 10
975.8576536091309208
 20
146.3402031862243859
 30
0.0
 11
975.857286825375013
 21
146.3391954562283956
 31
0.0
  0
LINE
  5
C3A9
  8
0
 10
975.8805606286840657
 20
146.3508412422152105
 30
0.0
 11
975.8798609829431143
 21
146.351373174944996
 31
0.0
  0
LINE
  5
C3AA
  8
0
 10
975.8798609829431143
 20
146.351373174944996
 30
0.0
 11
975.8638413436069641
 21
146.3572038469696963
 31
0.0
  0
LINE
  5
C3AB
  8
0
 10
975.8638413436069641
 20
146.3572038469696963
 30
0.0
 11
975.8622151768719277
 21
146.3527359906942991
 31
0.0
  0
LINE
  5
C3AC
  8
0
 10
975.8622151768719277
 20
146.3527359906942991
 30
0.0
 11
975.8765579098281933
 21
146.3422980562937141
 31
0.0
  0
LINE
  5
C3AD
  8
0
 10
975.8765579098281933
 20
146.3422980562937141
 30
0.0
 11
975.8773396702074479
 21
146.3419917317795012
 31
0.0
  0
LINE
  5
C3AE
  8
0
 10
975.8869678251678579
 20
146.3684448693836089
 30
0.0
 11
975.8862874696118297
 21
146.3690298020563887
 31
0.0
  0
LINE
  5
C3AF
  8
0
 10
975.8862874696118297
 20
146.3690298020563887
 30
0.0
 11
975.8699564261146406
 21
146.3740048983667918
 31
0.0
  0
LINE
  5
C3B0
  8
0
 10
975.8699564261146406
 20
146.3740048983667918
 30
0.0
 11
975.867564799658453
 21
146.3674339585055009
 31
0.0
  0
LINE
  5
C3B1
  8
0
 10
975.867564799658453
 20
146.3674339585055009
 30
0.0
 11
975.881524074388949
 21
146.3559424810295866
 31
0.0
  0
LINE
  5
C3B2
  8
0
 10
975.881524074388949
 20
146.3559424810295866
 30
0.0
 11
975.882322198589236
 21
146.3556811156167896
 31
0.0
  0
LINE
  5
C3B3
  8
0
 10
975.8894022529660788
 20
146.3751334056946121
 30
0.0
 11
975.888586584978043
 21
146.3753465698688956
 31
0.0
  0
LINE
  5
C3B4
  8
0
 10
975.888586584978043
 20
146.3753465698688956
 30
0.0
 11
975.8779946361397606
 21
146.3851661081108091
 31
0.0
  0
LINE
  5
C3B5
  8
0
 10
975.8721559566233736
 20
146.3617548708400022
 30
0.0
 11
975.8701067173340107
 21
146.3562351490629965
 31
0.0
  0
LINE
  5
C3B6
  8
0
 10
975.8701067173340107
 20
146.3562351490629965
 30
0.0
 11
975.854277528765806
 21
146.3624785635188914
 31
0.0
  0
LINE
  5
C3B7
  8
0
 10
975.854277528765806
 20
146.3624785635188914
 30
0.0
 11
975.8404301237558229
 21
146.3742774002328133
 31
0.0
  0
LINE
  5
C3B8
  8
0
 10
975.8404301237558229
 20
146.3742774002328133
 30
0.0
 11
975.8424689012938416
 21
146.3798788955836017
 31
0.0
  0
LINE
  5
C3B9
  8
0
 10
975.8424689012938416
 20
146.3798788955836017
 30
0.0
 11
975.8583300508829552
 21
146.373612776557394
 31
0.0
  0
LINE
  5
C3BA
  8
0
 10
975.8583300508829552
 20
146.373612776557394
 30
0.0
 11
975.8721559551139535
 21
146.3617548667745893
 31
0.0
  0
LINE
  5
C3BB
  8
0
 10
975.8737302143678107
 20
146.3867182306919972
 30
0.0
 11
975.879308428893296
 21
146.3814061270340119
 31
0.0
  0
LINE
  5
C3BC
  8
0
 10
975.879308428893296
 20
146.3814061270340119
 30
0.0
 11
975.8765247250654511
 21
146.3737579636442092
 31
0.0
  0
LINE
  5
C3BD
  8
0
 10
975.8765247250654511
 20
146.3737579636442092
 30
0.0
 11
975.860320103228787
 21
146.3790804005066946
 31
0.0
  0
LINE
  5
C3BE
  8
0
 10
975.860320103228787
 20
146.3790804005066946
 30
0.0
 11
975.8468937507865348
 21
146.3920360697671015
 31
0.0
  0
LINE
  5
C3BF
  8
0
 10
975.8468937507865348
 20
146.3920360697671015
 30
0.0
 11
975.8483239001149059
 21
146.3959653727823991
 31
0.0
  0
LINE
  5
C3C0
  8
0
 10
975.8671137202511545
 20
146.347901440287302
 30
0.0
 11
975.8528984186041271
 21
146.3586894893907981
 31
0.0
  0
LINE
  5
C3C1
  8
0
 10
975.8528984186041271
 20
146.3586894893907981
 30
0.0
 11
975.8373651193734304
 21
146.3658563699933097
 31
0.0
  0
LINE
  5
C3C2
  8
0
 10
975.8373651193734304
 20
146.3658563699933097
 30
0.0
 11
975.8360392969666464
 21
146.3622137026655992
 31
0.0
  0
LINE
  5
C3C3
  8
0
 10
975.8360392969666464
 20
146.3622137026655992
 30
0.0
 11
975.8502623319629947
 21
146.3514469007834862
 31
0.0
  0
LINE
  5
C3C4
  8
0
 10
975.8502623319629947
 20
146.3514469007834862
 30
0.0
 11
975.8658033652900485
 21
146.3443012695381924
 31
0.0
  0
LINE
  5
C3C5
  8
0
 10
975.8658033652900485
 20
146.3443012695381924
 30
0.0
 11
975.8671137203023136
 21
146.3479014402485916
 31
0.0
  0
LINE
  5
C3C6
  8
0
 10
975.8640205392507596
 20
146.3394029950767106
 30
0.0
 11
975.8494505977515701
 21
146.3492166794368075
 31
0.0
  0
LINE
  5
C3C7
  8
0
 10
975.8494505977515701
 20
146.3492166794368075
 30
0.0
 11
975.8342357606798032
 21
146.3572585274523021
 31
0.0
  0
LINE
  5
C3C8
  8
0
 10
975.8342357606798032
 20
146.3572585274523021
 30
0.0
 11
975.8335822870576521
 21
146.3554631234603107
 31
0.0
  0
LINE
  5
C3C9
  8
0
 10
975.8335822870576521
 20
146.3554631234603107
 30
0.0
 11
975.8481511203347054
 21
146.3456463945626069
 31
0.0
  0
LINE
  5
C3CA
  8
0
 10
975.8481511203347054
 20
146.3456463945626069
 30
0.0
 11
975.8633208148048652
 21
146.3376548998699036
 31
0.0
  0
LINE
  5
C3CB
  8
0
 10
975.8633208148048652
 20
146.3376548998699036
 30
0.0
 11
975.8640205392495091
 21
146.3394029950734989
 31
0.0
  0
LINE
  5
C3CC
  8
0
 10
975.8511924652239031
 20
146.3855535026854966
 30
0.0
 11
975.8379093644705335
 21
146.3989027528311908
 31
0.0
  0
LINE
  5
C3CD
  8
0
 10
975.8379093644705335
 20
146.3989027528311908
 30
0.0
 11
975.8221197596870979
 21
146.4053654397270066
 31
0.0
  0
LINE
  5
C3CE
  8
0
 10
975.8221197596870979
 20
146.4053654397270066
 30
0.0
 11
975.8197300299547123
 21
146.3987997111719892
 31
0.0
  0
LINE
  5
C3CF
  8
0
 10
975.8197300299547123
 20
146.3987997111719892
 30
0.0
 11
975.8330447460077721
 21
146.3855373236038986
 31
0.0
  0
LINE
  5
C3D0
  8
0
 10
975.8330447460077721
 20
146.3855373236038986
 30
0.0
 11
975.8487799088629799
 21
146.3789250586798971
 31
0.0
  0
LINE
  5
C3D1
  8
0
 10
975.8487799088629799
 20
146.3789250586798971
 30
0.0
 11
975.8511924651719482
 21
146.3855535027377925
 31
0.0
  0
LINE
  5
C3D2
  8
0
 10
975.8450602122195505
 20
146.3687052760701022
 30
0.0
 11
975.8313477882865072
 21
146.3808749701551051
 31
0.0
  0
LINE
  5
C3D3
  8
0
 10
975.8313477882865072
 20
146.3808749701551051
 30
0.0
 11
975.815951175392911
 21
146.3884173934476109
 31
0.0
  0
LINE
  5
C3D4
  8
0
 10
975.815951175392911
 20
146.3884173934476109
 30
0.0
 11
975.8142538766238658
 21
146.3837541034972958
 31
0.0
  0
LINE
  5
C3D5
  8
0
 10
975.8142538766238658
 20
146.3837541034972958
 30
0.0
 11
975.8279792103702448
 21
146.3716198785728011
 31
0.0
  0
LINE
  5
C3D6
  8
0
 10
975.8279792103702448
 20
146.3716198785728011
 30
0.0
 11
975.8433887352066449
 21
146.364112930546014
 31
0.0
  0
LINE
  5
C3D7
  8
0
 10
975.8433887352066449
 20
146.364112930546014
 30
0.0
 11
975.8450602108290468
 21
146.3687052773040875
 31
0.0
  0
LINE
  5
C3D8
  8
0
 10
975.8409695982803669
 20
146.3574664064192064
 30
0.0
 11
975.8268759247500839
 21
146.3685886263062912
 31
0.0
  0
LINE
  5
C3D9
  8
0
 10
975.8268759247500839
 20
146.3685886263062912
 30
0.0
 11
975.8117981697145069
 21
146.3770071041172116
 31
0.0
  0
LINE
  5
C3DA
  8
0
 10
975.8117981697145069
 20
146.3770071041172116
 30
0.0
 11
975.8107998966338528
 21
146.3742643715355882
 31
0.0
  0
LINE
  5
C3DB
  8
0
 10
975.8107998966338528
 20
146.3742643715355882
 30
0.0
 11
975.8248941268700491
 21
146.3631436812268021
 31
0.0
  0
LINE
  5
C3DC
  8
0
 10
975.8248941268700491
 20
146.3631436812268021
 30
0.0
 11
975.8399859312903573
 21
146.3547638036444027
 31
0.0
  0
LINE
  5
C3DD
  8
0
 10
975.8399859312903573
 20
146.3547638036444027
 30
0.0
 11
975.8409695982803669
 21
146.3574664064192064
 31
0.0
  0
LINE
  5
C3DE
  8
0
 10
975.8384305618636745
 20
146.3505164655051942
 30
0.0
 11
975.8387935250227656
 21
146.3514876943569902
 31
0.0
  0
LINE
  5
C3DF
  8
0
 10
975.8387935250227656
 20
146.3514876943569902
 30
0.0
 11
975.8243504061449585
 21
146.3616498207910013
 31
0.0
  0
LINE
  5
C3E0
  8
0
 10
975.8243504061449585
 20
146.3616498207910013
 30
0.0
 11
975.809589984541276
 21
146.3709401652120903
 31
0.0
  0
LINE
  5
C3E1
  8
0
 10
975.809589984541276
 20
146.3709401652120903
 30
0.0
 11
975.8092232839603639
 21
146.3699957869253865
 31
0.0
  0
LINE
  5
C3E2
  8
0
 10
975.8157575295355173
 20
146.3695921681454024
 30
0.0
 11
975.801795520480141
 21
146.3810761329797003
 31
0.0
  0
LINE
  5
C3E3
  8
0
 10
975.801795520480141
 20
146.3810761329797003
 30
0.0
 11
975.7871819622129124
 21
146.3907699811838086
 31
0.0
  0
LINE
  5
C3E4
  8
0
 10
975.7871819622129124
 20
146.3907699811838086
 30
0.0
 11
975.7865104966435865
 21
146.38892514458459
 31
0.0
  0
LINE
  5
C3E5
  8
0
 10
975.7865104966435865
 20
146.38892514458459
 30
0.0
 11
975.8004646873670254
 21
146.3774196991099075
 31
0.0
  0
LINE
  5
C3E6
  8
0
 10
975.8004646873670254
 20
146.3774196991099075
 30
0.0
 11
975.8150980072214224
 21
146.3677801454419125
 31
0.0
  0
LINE
  5
C3E7
  8
0
 10
975.8150980072214224
 20
146.3677801454419125
 30
0.0
 11
975.8157575295241486
 21
146.3695921681141954
 31
0.0
  0
LINE
  5
C3E8
  8
0
 10
975.7911582325834843
 20
146.3833356380320936
 30
0.0
 11
975.7914913056659998
 21
146.3843166170250072
 31
0.0
  0
LINE
  5
C3E9
  8
0
 10
975.7914913056659998
 20
146.3843166170250072
 30
0.0
 11
975.7776732660206562
 21
146.3961961345534064
 31
0.0
  0
LINE
  5
C3EA
  8
0
 10
975.7776732660206562
 20
146.3961961345534064
 30
0.0
 11
975.7635399057163568
 21
146.4072093159489043
 31
0.0
  0
LINE
  5
C3EB
  8
0
 10
975.7635399057163568
 20
146.4072093159489043
 30
0.0
 11
975.7631627009312751
 21
146.406197233281091
 31
0.0
  0
LINE
  5
C3EC
  8
0
 10
975.8175779740927283
 20
146.3745937984477052
 30
0.0
 11
975.8189164308641921
 21
146.3782711783360071
 31
0.0
  0
LINE
  5
C3ED
  8
0
 10
975.8189164308641921
 20
146.3782711783360071
 30
0.0
 11
975.8056909344511496
 21
146.3904366769131968
 31
0.0
  0
LINE
  5
C3EE
  8
0
 10
975.8056909344511496
 20
146.3904366769131968
 30
0.0
 11
975.7903992444687447
 21
146.3996093914842049
 31
0.0
  0
LINE
  5
C3EF
  8
0
 10
975.7903992444687447
 20
146.3996093914842049
 30
0.0
 11
975.7890358103778681
 21
146.3958633870809081
 31
0.0
  0
LINE
  5
C3F0
  8
0
 10
975.7890358103778681
 20
146.3958633870809081
 30
0.0
 11
975.8026270602572367
 21
146.3833607698946935
 31
0.0
  0
LINE
  5
C3F1
  8
0
 10
975.8026270602572367
 20
146.3833607698946935
 30
0.0
 11
975.8175779740937514
 21
146.3745937985252112
 31
0.0
  0
LINE
  5
C3F2
  8
0
 10
975.8240705405655717
 20
146.3924319783207011
 30
0.0
 11
975.810901297360715
 21
146.4060940494890986
 31
0.0
  0
LINE
  5
C3F3
  8
0
 10
975.810901297360715
 20
146.4060940494890986
 30
0.0
 11
975.7956529970297197
 21
146.4140439579620079
 31
0.0
  0
LINE
  5
C3F4
  8
0
 10
975.7956529970297197
 20
146.4140439579620079
 30
0.0
 11
975.7935533002488455
 21
146.4082750885312123
 31
0.0
  0
LINE
  5
C3F5
  8
0
 10
975.7935533002488455
 20
146.4082750885312123
 30
0.0
 11
975.8067427833826741
 21
146.394668626077987
 31
0.0
  0
LINE
  5
C3F6
  8
0
 10
975.8067427833826741
 20
146.394668626077987
 30
0.0
 11
975.8220113291820326
 21
146.3867743414544975
 31
0.0
  0
LINE
  5
C3F7
  8
0
 10
975.8220113291820326
 20
146.3867743414544975
 30
0.0
 11
975.8240705405655717
 21
146.3924319783207011
 31
0.0
  0
LINE
  5
C3F8
  8
0
 10
975.7979272096549721
 20
146.4019991180043121
 30
0.0
 11
975.7848865679916344
 21
146.4160145189742934
 31
0.0
  0
LINE
  5
C3F9
  8
0
 10
975.7848865679916344
 20
146.4160145189742934
 30
0.0
 11
975.7728249296723106
 21
146.4234447505627941
 31
0.0
  0
LINE
  5
C3FA
  8
0
 10
975.797927209669183
 20
146.4019991180435056
 30
0.0
 11
975.7963237540402588
 21
146.3975936600407124
 31
0.0
  0
LINE
  5
C3FB
  8
0
 10
975.7963237540402588
 20
146.3975936600407124
 30
0.0
 11
975.7814119884518504
 21
146.4064681901714096
 31
0.0
  0
LINE
  5
C3FC
  8
0
 10
975.7814119884518504
 20
146.4064681901714096
 30
0.0
 11
975.7683632907552465
 21
146.4204614574371135
 31
0.0
  0
LINE
  5
C3FD
  8
0
 10
975.7683632907552465
 20
146.4204614574371135
 30
0.0
 11
975.7698440152742023
 21
146.4245297146676137
 31
0.0
  0
LINE
  5
C3FE
  8
0
 10
975.7937248559122736
 20
146.3904532460182963
 30
0.0
 11
975.7802748265362425
 21
146.4033438634303934
 31
0.0
  0
LINE
  5
C3FF
  8
0
 10
975.7802748265362425
 20
146.4033438634303934
 30
0.0
 11
975.765822589971549
 21
146.4134809393289061
 31
0.0
  0
LINE
  5
C400
  8
0
 10
975.765822589971549
 20
146.4134809393289061
 30
0.0
 11
975.7647904157175844
 21
146.4106450639484933
 31
0.0
  0
LINE
  5
C401
  8
0
 10
975.7647904157175844
 20
146.4106450639484933
 30
0.0
 11
975.7782331839398466
 21
146.3977344965487077
 31
0.0
  0
LINE
  5
C402
  8
0
 10
975.7782331839398466
 20
146.3977344965487077
 30
0.0
 11
975.7927150427618699
 21
146.3876788072824979
 31
0.0
  0
LINE
  5
C403
  8
0
 10
975.7927150427618699
 20
146.3876788072824979
 30
0.0
 11
975.7937248559270529
 21
146.3904532460587973
 31
0.0
  0
LINE
  5
C404
  8
0
 10
975.7695002006594223
 20
146.4052919039727954
 30
0.0
 11
975.756203586904121
 21
146.4186040272385014
 31
0.0
  0
LINE
  5
C405
  8
0
 10
975.756203586904121
 20
146.4186040272385014
 30
0.0
 11
975.7422464937975519
 21
146.4301014987015037
 31
0.0
  0
LINE
  5
C406
  8
0
 10
975.7422464937975519
 20
146.4301014987015037
 30
0.0
 11
975.7415480664169536
 21
146.4281825852216059
 31
0.0
  0
LINE
  5
C407
  8
0
 10
975.7415480664169536
 20
146.4281825852216059
 30
0.0
 11
975.7548247793109795
 21
146.414815784540707
 31
0.0
  0
LINE
  5
C408
  8
0
 10
975.7548247793109795
 20
146.414815784540707
 30
0.0
 11
975.7688194864052775
 21
146.4034216566759881
 31
0.0
  0
LINE
  5
C409
  8
0
 10
975.7688194864052775
 20
146.4034216566759881
 30
0.0
 11
975.7695002006594223
 21
146.4052919039727954
 31
0.0
  0
LINE
  5
C40A
  8
0
 10
975.7458810599300705
 20
146.4217943331784113
 30
0.0
 11
975.7462727959687072
 21
146.4228704850750091
 31
0.0
  0
LINE
  5
C40B
  8
0
 10
975.7462727959687072
 20
146.4228704850750091
 30
0.0
 11
975.7331487312400213
 21
146.4366566832235037
 31
0.0
  0
LINE
  5
C40C
  8
0
 10
975.7331487312400213
 20
146.4366566832235037
 30
0.0
 11
975.73097305012584
 21
146.4386775888669092
 31
0.0
  0
LINE
  5
C40D
  8
0
 10
975.7446722910636936
 20
146.4336914729659043
 30
0.0
 11
975.7485931170367621
 21
146.4292455149831085
 31
0.0
  0
LINE
  5
C40E
  8
0
 10
975.7485931170367621
 20
146.4292455149831085
 30
0.0
 11
975.7475438075682632
 21
146.4263625608244013
 31
0.0
  0
LINE
  5
C40F
  8
0
 10
975.7475438075682632
 20
146.4263625608244013
 30
0.0
 11
975.7347512216773566
 21
146.4373024468910955
 31
0.0
  0
LINE
  5
C410
  8
0
 10
975.7727627366341494
 20
146.4142556479384041
 30
0.0
 11
975.7713799323825015
 21
146.4104564241939954
 31
0.0
  0
LINE
  5
C411
  8
0
 10
975.7713799323825015
 20
146.4104564241939954
 30
0.0
 11
975.7570654602698141
 21
146.4209720049844066
 31
0.0
  0
LINE
  5
C412
  8
0
 10
975.7570654602698141
 20
146.4209720049844066
 30
0.0
 11
975.745917776961619
 21
146.4332381531746989
 31
0.0
  0
LINE
  5
C413
  8
0
 10
975.772762736624486
 20
146.4142556479010864
 30
0.0
 11
975.7604171711406025
 21
146.4279608053128925
 31
0.0
  0
LINE
  5
C414
  8
0
 10
975.7331487312400213
 20
146.4366566832235037
 30
0.0
 11
975.7319803673859724
 21
146.4352642813973091
 31
0.0
  0
LINE
  5
C415
  8
0
 10
975.756203586904121
 20
146.4186040272385014
 30
0.0
 11
975.7548247793109795
 21
146.414815784540707
 31
0.0
  0
LINE
  5
C416
  8
0
 10
975.7570654602698141
 20
146.4209720049844066
 30
0.0
 11
975.7624977513751219
 21
146.427445957450999
 31
0.0
  0
LINE
  5
C417
  8
0
 10
975.7776732660206562
 20
146.3961961345534064
 30
0.0
 11
975.7770304007804043
 21
146.3945219537295088
 31
0.0
  0
LINE
  5
C418
  8
0
 10
975.7802748265362425
 20
146.4033438634303934
 30
0.0
 11
975.7782331839398466
 21
146.3977344965487077
 31
0.0
  0
LINE
  5
C419
  8
0
 10
975.7814119884518504
 20
146.4064681901714096
 30
0.0
 11
975.7848865679916344
 21
146.4160145189742934
 31
0.0
  0
LINE
  5
C41A
  8
0
 10
975.8004646873670254
 20
146.3774196991099075
 30
0.0
 11
975.801795520480141
 21
146.3810761329797003
 31
0.0
  0
LINE
  5
C41B
  8
0
 10
975.8026270602572367
 20
146.3833607698946935
 30
0.0
 11
975.8056909344511496
 21
146.3904366769131968
 31
0.0
  0
LINE
  5
C41C
  8
0
 10
975.8067427833826741
 20
146.394668626077987
 30
0.0
 11
975.810901297360715
 21
146.4060940494890986
 31
0.0
  0
LINE
  5
C41D
  8
0
 10
975.8330447460077721
 20
146.3855373236038986
 30
0.0
 11
975.8379093644705335
 21
146.3989027528311908
 31
0.0
  0
LINE
  5
C41E
  8
0
 10
975.8279792103702448
 20
146.3716198785728011
 30
0.0
 11
975.8313477882865072
 21
146.3808749701551051
 31
0.0
  0
LINE
  5
C41F
  8
0
 10
975.8248941268700491
 20
146.3631436812268021
 30
0.0
 11
975.8268759247500839
 21
146.3685886263062912
 31
0.0
  0
LINE
  5
C420
  8
0
 10
975.8243504061449585
 20
146.3616498207910013
 30
0.0
 11
975.8237914524517009
 21
146.3599717667451046
 31
0.0
  0
LINE
  5
C421
  8
0
 10
975.8481511203347054
 20
146.3456463945626069
 30
0.0
 11
975.8494505977515701
 21
146.3492166794368075
 31
0.0
  0
LINE
  5
C422
  8
0
 10
975.8502623319629947
 20
146.3514469007834862
 30
0.0
 11
975.8528984186041271
 21
146.3586894893907981
 31
0.0
  0
LINE
  5
C423
  8
0
 10
975.854277528765806
 20
146.3624785635188914
 30
0.0
 11
975.8583300508829552
 21
146.373612776557394
 31
0.0
  0
LINE
  5
C424
  8
0
 10
975.860320103228787
 20
146.3790804005066946
 30
0.0
 11
975.8646059685451064
 21
146.3900391845600097
 31
0.0
  0
LINE
  5
C425
  8
0
 10
975.888586584978043
 20
146.3753465698688956
 30
0.0
 11
975.8903775264720935
 21
146.380659104644792
 31
0.0
  0
LINE
  5
C426
  8
0
 10
975.8862874696118297
 20
146.3690298020563887
 30
0.0
 11
975.8815893575964537
 21
146.3559211024366107
 31
0.0
  0
LINE
  5
C427
  8
0
 10
975.8798609829431143
 20
146.351373174944996
 30
0.0
 11
975.8765579098281933
 21
146.3422980562937141
 31
0.0
  0
LINE
  5
C428
  8
0
 10
975.8754755958483429
 20
146.3393244229197876
 30
0.0
 11
975.8735308893254796
 21
146.3339813856132139
 31
0.0
  0
LINE
  5
C429
  8
0
 10
975.8729972170824567
 20
146.3325151332670941
 30
0.0
 11
975.8722687508961826
 21
146.3308514744122988
 31
0.0
  0
LINE
  5
C42A
  8
0
 10
975.3447994883138108
 20
146.7084668787985038
 30
0.0
 11
981.3597869784689465
 21
146.7084668787985038
 31
0.0
  0
ENDSEC
  0
EOF
