  0
SECTION
  2
HEADER
  9
$ACADVER
  1
AC1009
  9
$INSBASE
 10
85.2371209992941488
 20
-34.3939069394792796
 30
0.0
  9
$EXTMIN
 10
80.5150589609616247
 20
-34.4022305165114517
 30
-0.0000000000000058
  9
$EXTMAX
 10
86.6146845360712803
 20
-30.2383083842336511
 30
0.0000000000000104
  9
$LIMMIN
 10
0.0
 20
0.0
  9
$LIMMAX
 10
11.6929133858000007
 20
8.2677165353999982
  9
$ORTHOMODE
 70
     0
  9
$REGENMODE
 70
     1
  9
$FILLMODE
 70
     1
  9
$QTEXTMODE
 70
     0
  9
$MIRRTEXT
 70
     0
  9
$DRAGMODE
 70
     2
  9
$LTSCALE
 40
0.6431102362
  9
$OSMODE
 70
  4095
  9
$ATTMODE
 70
     1
  9
$TEXTSIZE
 40
0.2
  9
$TRACEWID
 40
0.05
  9
$TEXTSTYLE
  7
STANDARD
  9
$CLAYER
  8
0
  9
$CELTYPE
  6
BYLAYER
  9
$CECOLOR
 62
   256
  9
$DIMSCALE
 40
1.0
  9
$DIMASZ
 40
0.1875
  9
$DIMEXO
 40
0.0625
  9
$DIMDLI
 40
0.4443307087
  9
$DIMRND
 40
0.0
  9
$DIMDLE
 40
0.0
  9
$DIMEXE
 40
0.125
  9
$DIMTP
 40
0.01
  9
$DIMTM
 40
0.01
  9
$DIMTXT
 40
1.0
  9
$DIMCEN
 40
0.1052362205
  9
$DIMTSZ
 40
0.0
  9
$DIMTOL
 70
     1
  9
$DIMLIM
 70
     0
  9
$DIMTIH
 70
     1
  9
$DIMTOH
 70
     1
  9
$DIMSE1
 70
     0
  9
$DIMSE2
 70
     0
  9
$DIMTAD
 70
     0
  9
$DIMZIN
 70
     0
  9
$DIMBLK
  1

  9
$DIMASO
 70
     1
  9
$DIMSHO
 70
     1
  9
$DIMPOST
  1
\X
  9
$DIMAPOST
  1

  9
$DIMALT
 70
     1
  9
$DIMALTD
 70
     2
  9
$DIMALTF
 40
25.3999999999999986
  9
$DIMLFAC
 40
1.0
  9
$DIMTOFL
 70
     0
  9
$DIMTVP
 40
0.0
  9
$DIMTIX
 70
     0
  9
$DIMSOXD
 70
     0
  9
$DIMSAH
 70
     0
  9
$DIMBLK1
  1

  9
$DIMBLK2
  1

  9
$DIMSTYLE
  2
STANDARD
  9
$DIMCLRD
 70
     0
  9
$DIMCLRE
 70
     0
  9
$DIMCLRT
 70
     0
  9
$DIMTFAC
 40
1.0
  9
$DIMGAP
 40
0.09
  9
$LUNITS
 70
     2
  9
$LUPREC
 70
     4
  9
$SKETCHINC
 40
0.1
  9
$FILLETRAD
 40
0.0
  9
$AUNITS
 70
     0
  9
$AUPREC
 70
     0
  9
$MENU
  1
.
  9
$ELEVATION
 40
0.0
  9
$PELEVATION
 40
0.0
  9
$THICKNESS
 40
0.0
  9
$LIMCHECK
 70
     0
  9
$BLIPMODE
 70
     0
  9
$CHAMFERA
 40
0.0
  9
$CHAMFERB
 40
0.0
  9
$SKPOLY
 70
     0
  9
$TDCREATE
 40
2458172.4620254631154239
  9
$TDUPDATE
 40
2459478.8880787040106952
  9
$TDINDWG
 40
0.116336956
  9
$TDUSRTIMER
 40
0.116336956
  9
$USRTIMER
 70
     1
  9
$ANGBASE
 50
0.0
  9
$ANGDIR
 70
     0
  9
$PDMODE
 70
     0
  9
$PDSIZE
 40
0.3125
  9
$PLINEWID
 40
0.0
  9
$COORDS
 70
     1
  9
$SPLFRAME
 70
     0
  9
$SPLINETYPE
 70
     6
  9
$SPLINESEGS
 70
     8
  9
$ATTDIA
 70
     1
  9
$ATTREQ
 70
     1
  9
$HANDLING
 70
     1
  9
$HANDSEED
  5
13518
  9
$SURFTAB1
 70
     6
  9
$SURFTAB2
 70
     6
  9
$SURFTYPE
 70
     6
  9
$SURFU
 70
     6
  9
$SURFV
 70
     6
  9
$UCSNAME
  2

  9
$UCSORG
 10
0.0
 20
0.0
 30
0.0
  9
$UCSXDIR
 10
1.0
 20
0.0
 30
0.0
  9
$UCSYDIR
 10
0.0
 20
1.0
 30
0.0
  9
$PUCSNAME
  2

  9
$PUCSORG
 10
0.0
 20
0.0
 30
0.0
  9
$PUCSXDIR
 10
1.0
 20
0.0
 30
0.0
  9
$PUCSYDIR
 10
0.0
 20
1.0
 30
0.0
  9
$USERI1
 70
     0
  9
$USERI2
 70
     0
  9
$USERI3
 70
     0
  9
$USERI4
 70
     0
  9
$USERI5
 70
     0
  9
$USERR1
 40
0.0
  9
$USERR2
 40
0.0
  9
$USERR3
 40
0.0
  9
$USERR4
 40
0.0
  9
$USERR5
 40
0.0
  9
$WORLDVIEW
 70
     1
  9
$SHADEDGE
 70
     3
  9
$SHADEDIF
 70
    70
  9
$TILEMODE
 70
     1
  9
$MAXACTVP
 70
    64
  9
$PLIMCHECK
 70
     0
  9
$PEXTMIN
 10
1.0000000000000000E+20
 20
1.0000000000000000E+20
 30
1.0000000000000000E+20
  9
$PEXTMAX
 10
-1.0000000000000000E+20
 20
-1.0000000000000000E+20
 30
-1.0000000000000000E+20
  9
$PLIMMIN
 10
0.0
 20
0.0
  9
$PLIMMAX
 10
12.0
 20
9.0
  9
$UNITMODE
 70
     0
  9
$VISRETAIN
 70
     1
  9
$PLINEGEN
 70
     0
  9
$PSLTSCALE
 70
     1
  0
ENDSEC
  0
SECTION
  2
TABLES
  0
TABLE
  2
VPORT
 70
     1
  0
VPORT
  2
*ACTIVE
 70
     0
 10
0.0
 20
0.0
 11
1.0
 21
1.0
 12
-41.0462868515561894
 22
-37.6325436207503827
 13
0.0
 23
0.0
 14
1.0
 24
1.0
 15
0.0
 25
0.0
 16
0.0
 26
0.0
 36
30.6214257250603907
 17
124.6111586000725993
 27
5.3122741703778242
 37
0.0
 40
4.1969254781082688
 41
2.0410052910052912
 42
50.0
 43
0.0
 44
0.0
 50
0.0
 51
0.0
 71
     0
 72
   100
 73
     1
 74
     1
 75
     0
 76
     0
 77
     0
 78
     1
  0
ENDTAB
  0
TABLE
  2
LTYPE
 70
     2
  0
LTYPE
  2
CONTINUOUS
 70
     0
  3
Solid line
 72
    65
 73
     0
 40
0.0
  0
LTYPE
  2
PHANTOM2
 70
     0
  3
___ _ _ ___ _ _ ___ _ _ ___ _ _
 72
    65
 73
     6
 40
1.25
 49
0.625
 49
-0.125
 49
0.125
 49
-0.125
 49
0.125
 49
-0.125
  0
ENDTAB
  0
TABLE
  2
LAYER
 70
     2
  0
LAYER
  2
0
 70
     0
 62
   255
  6
CONTINUOUS
  0
LAYER
  2
DEFPOINTS
 70
     0
 62
     7
  6
CONTINUOUS
  0
ENDTAB
  0
TABLE
  2
STYLE
 70
     1
  0
STYLE
  2
STANDARD
 70
     0
 40
0.0
 41
0.8
 50
0.0
 71
     0
 42
0.2
  3
txt
  4

  0
ENDTAB
  0
TABLE
  2
VIEW
 70
     0
  0
ENDTAB
  0
TABLE
  2
UCS
 70
     0
  0
ENDTAB
  0
TABLE
  2
APPID
 70
     9
  0
APPID
  2
ACAD
 70
     0
  0
APPID
  2
ACAD_MLEADERVER
 70
     0
  0
APPID
  2
ACAD_EXEMPT_FROM_CAD_STANDARDS
 70
     0
  0
APPID
  2
ACAD_DSTYLE_DIMJAG
 70
     0
  0
APPID
  2
ACAD_DSTYLE_DIMTALN
 70
     0
  0
APPID
  2
ACAD_NAV_VCDISPLAY
 70
     0
  0
APPID
  2
ACAECLAYERSTANDARD
 70
     0
  0
APPID
  2
ACCMTRANSPARENCY
 70
     0
  0
APPID
  2
ACDBATTR
 70
     0
  0
ENDTAB
  0
TABLE
  2
DIMSTYLE
 70
     1
  0
DIMSTYLE
  2
STANDARD
 70
     0
  3

  4

  5

  6

  7

 40
1.0
 41
0.1875
 42
0.0625
 43
0.38
 44
0.125
 45
0.0
 46
0.0
 47
0.01
 48
0.01
140
0.15625
141
0.09
142
0.0
143
25.3999999999999986
144
1.0
145
0.0
146
1.0
147
0.09
 71
     1
 72
     0
 73
     1
 74
     1
 75
     0
 76
     0
 77
     0
 78
     4
170
     0
171
     2
172
     0
173
     0
174
     0
175
     0
176
     0
177
     0
178
     0
  0
ENDTAB
  0
ENDSEC
  0
SECTION
  2
BLOCKS
  0
BLOCK
  8
0
  2
$MODEL_SPACE
 70
     0
 10
0.0
 20
0.0
 30
0.0
  3
$MODEL_SPACE
  1

  0
ENDBLK
  5
21
  8
0
  0
BLOCK
 67
     1
  8
0
  2
$PAPER_SPACE
 70
     0
 10
0.0
 20
0.0
 30
0.0
  3
$PAPER_SPACE
  1

  0
ENDBLK
  5
1D
 67
     1
  8
0
  0
ENDSEC
  0
SECTION
  2
ENTITIES
  0
ATTDEF
  5
10B73
  8
DEFPOINTS
 10
85.2318593968289235
 20
-34.3959745561119234
 30
0.0
 40
0.001
  1
K-98867BR-4
  3

  2
MODELNUMBER
 70
     0
1001
ACDBATTR
1070
     0
1070
     1
  0
ATTDEF
  5
10B74
  8
DEFPOINTS
 10
85.2318593968289235
 20
-34.3976412227785815
 30
0.0
 40
0.001
  1
ALEO
  3

  2
TRADENAME
 70
     0
1001
ACDBATTR
1070
     0
1070
     1
  0
ATTDEF
  5
10B75
  8
DEFPOINTS
 10
85.2318593968289235
 20
-34.3993078894452466
 30
0.0
 40
0.001
  1
BATHROOM SINK FAUCET
  3

  2
PRODUCT
 70
     0
1001
ACDBATTR
1070
     0
1070
     1
  0
LINE
  5
13312
  8
0
 10
84.2331842684941421
 20
-34.3939069394786685
 30
0.0
 11
86.2410577300941412
 21
-34.3939069394786685
 31
0.0
  0
LINE
  5
13313
  8
0
 10
86.2410577300941412
 20
-34.3939069394786685
 30
0.0
 11
86.2410577300941412
 21
-34.0002061520786683
 31
0.0
  0
LINE
  5
13314
  8
0
 10
86.2410577300941412
 20
-34.0002061520786683
 30
0.0
 11
84.2331837143941158
 21
-34.0002061520786683
 31
0.0
  0
LINE
  5
13315
  8
0
 10
84.2355397271941371
 20
-34.0002060835786679
 30
0.0
 11
84.2355354438941362
 21
-32.3754381725786686
 31
0.0
  0
ARC
  5
13316
  8
0
 10
-5.5005844576987917
 20
-32.2709107401686595
 30
0.0
 40
89.7361807799796338
 50
359.9332601184635791
 51
0.2943074649738801
  0
ARC
  5
13317
  8
0
 10
83.4390016329297737
 20
-31.758003862242191
 30
0.0
 40
0.7971066305933671
 50
356.2619795291971059
 51
76.7281818771742508
  0
ARC
  5
13318
  8
0
 10
83.2642588521228646
 20
-32.384634095257482
 30
0.0
 40
1.4473541575629849
 50
75.6901818216755231
 51
85.2085428092034647
  0
ARC
  5
13319
  8
0
 10
82.3323109544482747
 20
-32.0605808267984287
 30
0.0
 40
1.131069051241425
 50
98.6368077560299241
 51
120.1422081867672063
  0
LINE
  5
1331A
  8
0
 10
81.7643469674941343
 20
-31.0824529679786714
 30
0.0
 11
80.8095479244941401
 21
-30.77221978137867
 31
0.0
  0
ARC
  5
1331B
  8
0
 10
81.7469374218347298
 20
-29.8650255659596304
 30
0.0
 40
1.3044923971469611
 50
207.3652813753519979
 51
224.0621690439147073
  0
ARC
  5
1331C
  8
0
 10
81.4451684093030366
 20
-30.0405551965211615
 30
0.0
 40
0.9559631700689354
 50
194.4906784887149058
 51
206.3358304110120969
  0
ARC
  5
1331D
  8
0
 10
80.550124030389469
 20
-30.2718740629884486
 30
0.0
 40
0.0315104356316993
 50
90.0337360618032676
 51
194.4906789950817938
  0
LINE
  5
1331E
  8
0
 10
80.5501054768772917
 20
-30.2403636328189513
 30
0.0
 11
86.1898766277941348
 21
-30.2403636323786706
 31
0.0
  0
ARC
  5
1331F
  8
0
 10
86.1898765901791819
 20
-30.2718597328936205
 30
0.0
 40
0.0314961005149722
 50
0.0
 51
89.9999315731781451
  0
LINE
  5
13320
  8
0
 10
84.548144344294144
 20
-34.0002061520786683
 30
0.0
 11
84.5481450842941342
 21
-32.6025683567786686
 31
0.0
  0
LINE
  5
13321
  8
0
 10
84.5481450842941342
 20
-32.6025683567786686
 30
0.0
 11
85.9260971001941272
 21
-32.6025683567786686
 31
0.0
  0
LINE
  5
13322
  8
0
 10
85.9260971001941272
 20
-32.6025683567786686
 30
0.0
 11
85.9260971001941556
 21
-34.0002061520786683
 31
0.0
  0
LINE
  5
13323
  8
0
 10
84.5453888565941298
 20
-32.5671352858786705
 30
0.0
 11
85.9288525878941272
 21
-32.5671352858786705
 31
0.0
  0
LINE
  5
13324
  8
0
 10
85.9288525878941272
 20
-32.5671352858786705
 30
0.0
 11
85.9288525878941272
 21
-31.2447648754786691
 31
0.0
  0
ARC
  5
13325
  8
0
 10
85.9090467631794041
 20
-31.2447648754786691
 30
0.0
 40
0.019805824714723
 50
359.9999999999988063
 51
84.9138298883635372
  0
ARC
  5
13326
  8
0
 10
120.6313628743292981
 20
259.2784960462493018
 30
0.0
 40
292.5710512634519205
 50
263.1612002873786764
 51
263.1844217560569064
  0
ARC
  5
13327
  8
0
 10
85.0010387658218463
 20
-59.1591379203029391
 30
0.0
 40
27.9594171284826309
 50
88.3767205984634927
 51
89.5162833131100371
  0
ARC
  5
13328
  8
0
 10
85.2507660803065761
 20
-50.0053518349855466
 30
0.0
 40
18.8046396251603412
 50
90.0416942452237237
 51
91.3466399626483252
  0
ARC
  5
13329
  8
0
 10
84.3111550219894212
 20
-28.8322258344121103
 30
0.0
 40
2.4060721015804818
 50
276.0206234260015208
 51
278.0492552441551197
  0
ARC
  5
1332A
  8
0
 10
84.7184783417987148
 20
-31.7011415571090502
 30
0.0
 40
0.4916169984206783
 50
94.3635785906189142
 51
98.2348354402819268
  0
ARC
  5
1332B
  8
0
 10
84.8558139779929519
 20
-34.0165878680365381
 30
0.0
 40
2.81107458245766
 50
90.9575642654379237
 51
93.5638853584494257
  0
ARC
  5
1332C
  8
0
 10
84.5653391104487042
 20
-31.2448940385336904
 30
0.0
 40
0.0199506672860157
 50
95.2334283569962849
 51
179.6311401258361116
  0
LINE
  5
1332D
  8
0
 10
84.5453888565941298
 20
-31.2447656006303411
 30
0.0
 11
84.5453888565941298
 21
-32.5671352858786705
 31
0.0
  0
ARC
  5
1332E
  8
0
 10
59.7624481240495626
 20
-28.4336284118527409
 30
0.0
 40
24.9754931207537609
 50
352.8807463598083132
 51
353.2823967681994191
  0
ARC
  5
1332F
  8
0
 10
84.6739668601597089
 20
-31.3678188617587708
 30
0.0
 40
0.108231469822624
 50
151.7904539882781023
 51
173.2823967681989075
  0
ARC
  5
13330
  8
0
 10
84.6019891969084341
 20
-31.331906312984021
 30
0.0
 40
0.0279285059672386
 50
98.0805858305447771
 51
146.9088292325888006
  0
ARC
  5
13331
  8
0
 10
84.695556534507304
 20
-31.9892594667104611
 30
0.0
 40
0.6919074311692038
 50
92.693522118302937
 51
98.1002107728871806
  0
ARC
  5
13332
  8
0
 10
84.8533439998632559
 20
-27.8790542511520201
 30
0.0
 40
3.424354168215888
 50
266.8142437699693801
 51
270.3389728500596902
  0
LINE
  5
13333
  8
0
 10
84.8736030194719575
 20
-31.3033484910651083
 30
0.0
 11
85.6389063148416056
 21
-31.3030960776987186
 31
0.0
  0
ARC
  5
13334
  8
0
 10
85.6387914267727837
 20
-28.3236833010215996
 30
0.0
 40
2.9794127788921951
 50
270.0022093620285091
 51
273.3117750387129945
  0
ARC
  5
13335
  8
0
 10
85.7783369561349502
 20
-32.0332825459452977
 30
0.0
 40
0.7358834337397707
 50
83.4163812664933175
 51
87.4630608258364077
  0
ARC
  5
13336
  8
0
 10
85.8585700404782557
 20
-31.3748043436037314
 30
0.0
 40
0.0726704349576128
 50
69.0625574663911692
 51
86.735494846628157
  0
ARC
  5
13337
  8
0
 10
85.8710355407057051
 20
-31.3338916122781086
 30
0.0
 40
0.0301519893570795
 50
22.4285132499096811
 51
63.3950317815921522
  0
ARC
  5
13338
  8
0
 10
85.6461915254064365
 20
-31.4077868475285591
 30
0.0
 40
0.2667545366776834
 50
3.197717546503001
 51
18.6714686333869793
  0
ARC
  5
13339
  8
0
 10
121.0413833980479978
 20
-29.407264596393361
 30
0.0
 40
35.1849266786023165
 50
183.2351749973169035
 51
183.6761285575258
  0
LINE
  5
1333A
  8
0
 10
84.6564120607941248
 20
-32.5671352858786705
 30
0.0
 11
84.6564120607941248
 21
-32.6025683567786686
 31
0.0
  0
LINE
  5
1333B
  8
0
 10
85.817829383694118
 20
-32.5671352858786705
 30
0.0
 11
85.817829383694118
 21
-32.6025683567786686
 31
0.0
  0
ARC
  5
1333C
  8
0
 10
86.6255461097017161
 20
-32.7575290989664296
 30
0.0
 40
0.7816275323582516
 50
165.9016920406440079
 51
168.5650051644892073
  0
ARC
  5
1333D
  8
0
 10
85.933077963299155
 20
-32.4712123429584025
 30
0.0
 40
0.0198612248400503
 50
83.841885265816444
 51
102.2832623686472004
  0
ARC
  5
1333E
  8
0
 10
84.7217607300886471
 20
-31.2978966941067505
 30
0.0
 40
0.0586617026649221
 50
180.2124509697657118
 51
222.8692403407567042
  0
ARC
  5
1333F
  8
0
 10
84.8479986584892316
 20
-31.1680321784157215
 30
0.0
 40
0.2397132240255022
 50
225.0916229633158991
 51
251.7671912242869041
  0
ARC
  5
13340
  8
0
 10
85.1364219094686376
 20
-30.3540126739919991
 30
0.0
 40
1.103272822951888
 50
250.767287156922805
 51
264.6660856137742144
  0
ARC
  5
13341
  8
0
 10
85.2238726396801241
 20
-29.6308106580835791
 30
0.0
 40
1.83158017370985
 50
264.0453345482303007
 51
270.414432840163272
  0
ARC
  5
13342
  8
0
 10
85.6262428480990536
 20
-31.1680321784157215
 30
0.0
 40
0.2397132240255022
 50
288.2328087757131243
 51
314.908377036683703
  0
ARC
  5
13343
  8
0
 10
85.3378195971196334
 20
-30.3540126739919991
 30
0.0
 40
1.103272822951888
 50
275.3339143862249898
 51
289.2327128430762855
  0
ARC
  5
13344
  8
0
 10
85.2503688629131915
 20
-29.6308106057155491
 30
0.0
 40
1.8315802262097549
 50
269.5855665954293272
 51
275.9546654061182949
  0
ARC
  5
13345
  8
0
 10
85.7378391370972253
 20
-31.2896569909648399
 30
0.0
 40
0.0751008654874579
 50
320.1244095759041102
 51
337.8959478608311997
  0
ARC
  5
13346
  8
0
 10
85.7554768383119637
 20
-31.2979138162425983
 30
0.0
 40
0.0556617607167959
 50
338.9388240277399973
 51
359.7769387651237025
  0
LINE
  5
13347
  8
0
 10
80.8526077084941335
 20
-30.786210760978669
 30
0.0
 11
80.8551354223941274
 21
-30.7911716807786711
 31
0.0
  0
LINE
  5
13348
  8
0
 10
80.8551354223941274
 20
-30.7911716807786711
 30
0.0
 11
81.7163282852941251
 21
-31.0709903589786691
 31
0.0
  0
LINE
  5
13349
  8
0
 10
81.7163282852941251
 20
-31.0709903589786691
 30
0.0
 11
81.721289205115724
 21
-31.06846264516766
 31
0.0
  0
LINE
  5
1334A
  8
0
 10
81.6414419494026475
 20
-31.0466582999743288
 30
0.0
 11
81.6166373506941341
 21
-31.0592968692786684
 31
0.0
  0
LINE
  5
1334B
  8
0
 10
81.6166373506941341
 20
-31.0592968692786684
 30
0.0
 11
80.9426603274941243
 21
-30.8403083384786711
 31
0.0
  0
LINE
  5
1334C
  8
0
 10
80.9426603274941243
 20
-30.8403083384786711
 30
0.0
 11
80.9300217582773342
 21
-30.8155037397457114
 31
0.0
  0
LINE
  5
1334D
  8
0
 10
80.9426603274941243
 20
-30.8403083384786711
 30
0.0
 11
80.9245842058941349
 21
-30.8959408895786716
 31
0.0
  0
ARC
  5
1334E
  8
0
 10
80.9620273739425329
 20
-30.90810691909466
 30
0.0
 40
0.0393700788376702
 50
161.9999906882935079
 51
206.9999906296505117
  0
LINE
  5
1334F
  8
0
 10
80.9269483739172273
 20
-30.9259805551240099
 30
0.0
 11
80.93218344067283
 21
-30.9362549562895204
 31
0.0
  0
LINE
  5
13350
  8
0
 10
80.93218344067283
 20
-30.9362549562895204
 30
0.0
 11
81.5687172958941318
 21
-31.1430772532304587
 31
0.0
  0
LINE
  5
13351
  8
0
 10
81.5687172958941318
 20
-31.1430772532304587
 30
0.0
 11
81.5789916970770435
 21
-31.1378423907731197
 31
0.0
  0
ARC
  5
13352
  8
0
 10
81.5611180607471766
 20
-31.1027633904333491
 30
0.0
 40
0.0393700792542989
 50
296.9999908115623839
 51
341.9999902279795947
  0
LINE
  5
13353
  8
0
 10
81.5985612290940594
 20
-31.1149294203788997
 30
0.0
 11
81.6166373506941341
 21
-31.0592968692786684
 31
0.0
  0
LINE
  5
13354
  8
0
 10
81.2017742499829183
 20
-31.0238503686131786
 30
0.0
 11
81.1842118505310566
 21
-31.0779018463687606
 31
0.0
  0
ARC
  5
13355
  8
0
 10
81.4208788187840042
 20
-30.5249712839904603
 30
0.0
 40
0.6014511290820135
 50
227.0627322102425865
 51
246.8279640860781114
  0
ARC
  5
13356
  8
0
 10
81.3328341015483574
 20
-30.6265601564470309
 30
0.0
 40
0.4671261984588692
 50
225.5819931978284103
 51
226.480778765105299
  0
LINE
  5
13357
  8
0
 10
81.1718197155941397
 20
-31.0141175449786708
 30
0.0
 11
81.1701120800941283
 21
-31.0193731037786691
 31
0.0
  0
LINE
  5
13358
  8
0
 10
81.1701120800941283
 20
-31.0193731037786691
 30
0.0
 11
81.1692894697785761
 21
-31.0191885357265704
 31
0.0
  0
LINE
  5
13359
  8
0
 10
81.1692894697785761
 20
-31.0191885357265704
 30
0.0
 11
81.1710214143914044
 21
-31.0138581610870609
 31
0.0
  0
ARC
  5
1335A
  8
0
 10
81.4597606508621652
 20
-30.67281136357051
 30
0.0
 40
0.4520516037256479
 50
228.191024616659206
 51
230.0168724903707869
  0
LINE
  5
1335B
  8
0
 10
81.1540817315101179
 20
-31.0083687463834501
 30
0.0
 11
81.1598054910547688
 21
-31.013456471332141
 31
0.0
  0
LINE
  5
1335C
  8
0
 10
81.1598054910547688
 20
-31.013456471332141
 30
0.0
 11
81.1572903988013934
 21
-31.021197125056311
 31
0.0
  0
LINE
  5
1335D
  8
0
 10
81.1572903988013934
 20
-31.021197125056311
 30
0.0
 11
81.1409098987941348
 21
-31.0164434608786692
 31
0.0
  0
LINE
  5
1335E
  8
0
 10
81.1409098987941348
 20
-31.0164434608786692
 30
0.0
 11
81.1270395810887237
 21
-31.0039642545252185
 31
0.0
  0
LINE
  5
1335F
  8
0
 10
81.1270395810887237
 20
-31.0039642545252185
 30
0.0
 11
81.1283317291747466
 21
-30.99998743383345
 31
0.0
  0
LINE
  5
13360
  8
0
 10
81.1445450963941255
 20
-31.0052554791786683
 30
0.0
 11
81.1409098968303368
 21
-31.0164434591118301
 31
0.0
  0
LINE
  5
13361
  8
0
 10
81.1507188925855161
 20
-31.0211752324051702
 30
0.0
 11
81.1485566350014409
 21
-31.027829973215951
 31
0.0
  0
LINE
  5
13362
  8
0
 10
81.1485566350014409
 20
-31.027829973215951
 30
0.0
 11
81.1629084509861229
 21
-31.0388272811033303
 31
0.0
  0
LINE
  5
13363
  8
0
 10
81.1629084509861229
 20
-31.0388272811033303
 30
0.0
 11
81.1637067522244564
 21
-31.0390866650416584
 31
0.0
  0
LINE
  5
13364
  8
0
 10
81.1637067522244564
 20
-31.0390866650416584
 30
0.0
 11
81.1679125604726863
 21
-31.0261425253446106
 31
0.0
  0
LINE
  5
13365
  8
0
 10
81.1679125604726863
 20
-31.0261425253446106
 30
0.0
 11
81.1672128818331942
 21
-31.02557961230535
 31
0.0
  0
LINE
  5
13366
  8
0
 10
81.1672128818331942
 20
-31.02557961230535
 30
0.0
 11
81.1507188925855161
 21
-31.0211752324051702
 31
0.0
  0
LINE
  5
13367
  8
0
 10
81.1672128818941303
 20
-31.0255796122786691
 30
0.0
 11
81.1629084510618242
 21
-31.0388272810980794
 31
0.0
  0
LINE
  5
13368
  8
0
 10
81.145221994196234
 20
-31.0380929365721485
 30
0.0
 11
81.1437232203922605
 21
-31.04270568568203
 31
0.0
  0
LINE
  5
13369
  8
0
 10
81.1437232203922605
 20
-31.04270568568203
 30
0.0
 11
81.158415166555784
 21
-31.0526561809403496
 31
0.0
  0
LINE
  5
1336A
  8
0
 10
81.158415166555784
 20
-31.0526561809403496
 30
0.0
 11
81.1592134677941459
 21
-31.0529155648786706
 31
0.0
  0
LINE
  5
1336B
  8
0
 10
81.1592134677941459
 20
-31.0529155648786706
 30
0.0
 11
81.1621236220941285
 21
-31.0439590359786699
 31
0.0
  0
LINE
  5
1336C
  8
0
 10
81.1614058384264325
 20
-31.0434518443519707
 30
0.0
 11
81.145221994196234
 21
-31.0380929365721485
 31
0.0
  0
LINE
  5
1336D
  8
0
 10
81.1614058384873687
 20
-31.0434518443252898
 30
0.0
 11
81.1584151666314852
 21
-31.0526561809350916
 31
0.0
  0
LINE
  5
1336E
  8
0
 10
81.1614058384745078
 20
-31.0434518443648102
 30
0.0
 11
81.1621236220941285
 21
-31.0439590359786699
 31
0.0
  0
LINE
  5
1336F
  8
0
 10
81.1396018178941461
 20
-31.0553900512786711
 30
0.0
 11
81.1393104359950001
 21
-31.0562868320759797
 31
0.0
  0
LINE
  5
13370
  8
0
 10
81.1393104359941191
 20
-31.0562868320786691
 30
0.0
 11
81.1446583085983235
 21
-31.059242460853671
 31
0.0
  0
LINE
  5
13371
  8
0
 10
81.1396018178941461
 20
-31.0553900512786711
 30
0.0
 11
81.155204386786167
 21
-31.0625379392024996
 31
0.0
  0
LINE
  5
13372
  8
0
 10
81.155204386786167
 20
-31.0625379392024996
 30
0.0
 11
81.1559535518941146
 21
-31.0629485488786692
 31
0.0
  0
LINE
  5
13373
  8
0
 10
81.1559535518941146
 20
-31.0629485488786692
 30
0.0
 11
81.1553976743526704
 21
-31.0646593630004197
 31
0.0
  0
LINE
  5
13374
  8
0
 10
81.155204386786167
 20
-31.0625379392024996
 30
0.0
 11
81.1546369067301754
 21
-31.0642844628948502
 31
0.0
  0
LINE
  5
13375
  8
0
 10
81.1581776772941339
 20
-31.0561033985786707
 30
0.0
 11
81.156464286694117
 21
-31.0613766696786691
 31
0.0
  0
LINE
  5
13376
  8
0
 10
81.156464286694117
 20
-31.0613766696786691
 30
0.0
 11
81.1556659854667402
 21
-31.0611172857461604
 31
0.0
  0
LINE
  5
13377
  8
0
 10
81.1556659854667402
 20
-31.0611172857461604
 30
0.0
 11
81.1406714845417838
 21
-31.0520979574767715
 31
0.0
  0
LINE
  5
13378
  8
0
 10
81.1406714845417838
 20
-31.0520979574767715
 30
0.0
 11
81.1415536949094047
 21
-31.0493827948316792
 31
0.0
  0
LINE
  5
13379
  8
0
 10
81.1415536949094047
 20
-31.0493827948316792
 30
0.0
 11
81.1574436159716726
 21
-31.0556463037492101
 31
0.0
  0
LINE
  5
1337A
  8
0
 10
81.1574436159716726
 20
-31.0556463037492101
 30
0.0
 11
81.1581776772941339
 21
-31.0561033985786707
 31
0.0
  0
LINE
  5
1337B
  8
0
 10
81.1574436159716726
 20
-31.0556463037492101
 30
0.0
 11
81.155665985227472
 21
-31.0611172856684092
 31
0.0
  0
LINE
  5
1337C
  8
0
 10
81.1454090749257801
 20
-31.0577640597344207
 30
0.0
 11
81.1459927954977047
 21
-31.0559675533677115
 31
0.0
  0
LINE
  5
1337D
  8
0
 10
81.1459927954977047
 20
-31.0559675533677115
 30
0.0
 11
81.1310892386330238
 21
-31.0466683284049196
 31
0.0
  0
LINE
  5
1337E
  8
0
 10
81.1310892386330238
 20
-31.0466683284049196
 30
0.0
 11
81.115603014708995
 21
-31.0391623669247103
 31
0.0
  0
LINE
  5
1337F
  8
0
 10
81.115603014708995
 20
-31.0391623669247103
 30
0.0
 11
81.115012597616726
 21
-31.040979482877141
 31
0.0
  0
LINE
  5
13380
  8
0
 10
81.115012597616726
 20
-31.040979482877141
 30
0.0
 11
81.1299151533378051
 21
-31.0502817893048189
 31
0.0
  0
LINE
  5
13381
  8
0
 10
81.1299151533378051
 20
-31.0502817893048189
 30
0.0
 11
81.1454090749257801
 21
-31.0577640597344207
 31
0.0
  0
LINE
  5
13382
  8
0
 10
81.1310892385859006
 20
-31.04666832847305
 30
0.0
 11
81.1299151532944336
 21
-31.0502817892777507
 31
0.0
  0
LINE
  5
13383
  8
0
 10
81.1476035890941176
 20
-31.0510100433786711
 30
0.0
 11
81.1487875021992693
 21
-31.0473663351844387
 31
0.0
  0
LINE
  5
13384
  8
0
 10
81.1487875021992693
 20
-31.0473663351844387
 30
0.0
 11
81.1342043644559254
 21
-31.0370809622562085
 31
0.0
  0
LINE
  5
13385
  8
0
 10
81.1342043644559254
 20
-31.0370809622562085
 30
0.0
 11
81.1184304081806289
 21
-31.0304605494202015
 31
0.0
  0
LINE
  5
13386
  8
0
 10
81.1184304081806289
 20
-31.0304605494202015
 30
0.0
 11
81.1172071117850635
 21
-31.0342254665213915
 31
0.0
  0
LINE
  5
13387
  8
0
 10
81.1172071117850635
 20
-31.0342254665213915
 30
0.0
 11
81.131822645137504
 21
-31.0444111367057403
 31
0.0
  0
LINE
  5
13388
  8
0
 10
81.131822645137504
 20
-31.0444111367057403
 30
0.0
 11
81.1476035890941176
 21
-31.0510100433786711
 31
0.0
  0
LINE
  5
13389
  8
0
 10
81.1342043644088164
 20
-31.0370809623243389
 30
0.0
 11
81.1318226450941324
 21
-31.0444111366786686
 31
0.0
  0
LINE
  5
1338A
  8
0
 10
81.1515237097941338
 20
-31.0389451591786703
 30
0.0
 11
81.1533431915917163
 21
-31.0333453729860906
 31
0.0
  0
LINE
  5
1338B
  8
0
 10
81.1533431915917163
 20
-31.0333453729860906
 30
0.0
 11
81.13911187517391
 21
-31.0219772056170093
 31
0.0
  0
LINE
  5
1338C
  8
0
 10
81.13911187517391
 20
-31.0219772056170093
 30
0.0
 11
81.1230417042526568
 21
-31.0162684472510009
 31
0.0
  0
LINE
  5
1338D
  8
0
 10
81.1230417042526568
 20
-31.0162684472510009
 30
0.0
 11
81.1211996571009735
 21
-31.02193768239324
 31
0.0
  0
LINE
  5
1338E
  8
0
 10
81.1211996571009735
 20
-31.02193768239324
 30
0.0
 11
81.1354503983289845
 21
-31.0332460664319214
 31
0.0
  0
LINE
  5
1338F
  8
0
 10
81.1354503983289845
 20
-31.0332460664319214
 30
0.0
 11
81.1515237097941338
 21
-31.0389451591786703
 31
0.0
  0
LINE
  5
13390
  8
0
 10
81.1391118751267868
 20
-31.0219772056851397
 30
0.0
 11
81.1354503982856272
 21
-31.0332460664048604
 31
0.0
  0
LINE
  5
13391
  8
0
 10
81.1293821556254784
 20
-31.0170014532105682
 30
0.0
 11
81.1315619140338242
 21
-31.0102928504057793
 31
0.0
  0
LINE
  5
13392
  8
0
 10
81.1315619140338242
 20
-31.0102928504057793
 30
0.0
 11
81.1178210249958482
 21
-30.997415303473371
 31
0.0
  0
LINE
  5
13393
  8
0
 10
81.1178210249958482
 20
-30.997415303473371
 30
0.0
 11
81.1018554112026777
 21
-30.9913847518812489
 31
0.0
  0
LINE
  5
13394
  8
0
 10
81.1018554112026777
 20
-30.9913847518812489
 30
0.0
 11
81.0996563608638468
 21
-30.9981527290719008
 31
0.0
  0
LINE
  5
13395
  8
0
 10
81.0996563608638468
 20
-30.9981527290719008
 30
0.0
 11
81.1134258146523308
 21
-31.0109423629110594
 31
0.0
  0
LINE
  5
13396
  8
0
 10
81.1134258146523308
 20
-31.0109423629110594
 30
0.0
 11
81.1293821556254784
 21
-31.0170014532105682
 31
0.0
  0
LINE
  5
13397
  8
0
 10
81.1178210249487393
 20
-30.9974153035415014
 30
0.0
 11
81.1134258146089451
 21
-31.0109423628839984
 31
0.0
  0
LINE
  5
13398
  8
0
 10
81.124511199394135
 20
-31.03199270657867
 30
0.0
 11
81.1260213883268193
 21
-31.0273448251040413
 31
0.0
  0
LINE
  5
13399
  8
0
 10
81.1260213883268193
 20
-31.0273448251040413
 30
0.0
 11
81.1118926034774859
 21
-31.0156610989299786
 31
0.0
  0
LINE
  5
1339A
  8
0
 10
81.1118926034774859
 20
-31.0156610989299786
 30
0.0
 11
81.096242144218877
 21
-31.0086606017368105
 31
0.0
  0
LINE
  5
1339B
  8
0
 10
81.096242144218877
 20
-31.0086606017368105
 30
0.0
 11
81.0947086250941283
 21
-31.0133802854786715
 31
0.0
  0
LINE
  5
1339C
  8
0
 10
81.0947086250941283
 20
-31.0133802854786715
 30
0.0
 11
81.1088490742440342
 21
-31.025028113685611
 31
0.0
  0
LINE
  5
1339D
  8
0
 10
81.1088490742440342
 20
-31.025028113685611
 30
0.0
 11
81.124511199394135
 21
-31.03199270657867
 31
0.0
  0
LINE
  5
1339E
  8
0
 10
81.1118926034303485
 20
-31.015661098998109
 30
0.0
 11
81.1088490742006769
 21
-31.0250281136585393
 31
0.0
  0
LINE
  5
1339F
  8
0
 10
81.1214367467152044
 20
-31.0414548938138886
 30
0.0
 11
81.1223254953399646
 21
-31.0387196080630083
 31
0.0
  0
LINE
  5
133A0
  8
0
 10
81.1223254953399646
 20
-31.0387196080630083
 30
0.0
 11
81.1078522493064753
 21
-31.0280960232924592
 31
0.0
  0
LINE
  5
133A1
  8
0
 10
81.1078522493064753
 20
-31.0280960232924592
 30
0.0
 11
81.0924898799057559
 21
-31.0202088772974705
 31
0.0
  0
LINE
  5
133A2
  8
0
 10
81.0924898799057559
 20
-31.0202088772974705
 30
0.0
 11
81.0915879344588433
 21
-31.0229847782641102
 31
0.0
  0
LINE
  5
133A3
  8
0
 10
81.0915879344588433
 20
-31.0229847782641102
 30
0.0
 11
81.1060626481564952
 21
-31.0336038465230999
 31
0.0
  0
LINE
  5
133A4
  8
0
 10
81.1060626481564952
 20
-31.0336038465230999
 30
0.0
 11
81.1214367467152044
 21
-31.0414548938138886
 31
0.0
  0
LINE
  5
133A5
  8
0
 10
81.1078522492593663
 20
-31.0280960233605896
 30
0.0
 11
81.1060626481131379
 21
-31.0336038464960389
 31
0.0
  0
LINE
  5
133A6
  8
0
 10
81.0983503862009201
 20
-31.0224190015601415
 30
0.0
 11
81.0995596894714765
 21
-31.0186971506483893
 31
0.0
  0
LINE
  5
133A7
  8
0
 10
81.0995596894714765
 20
-31.0186971506483893
 30
0.0
 11
81.0855435258162629
 21
-31.0066668115104918
 31
0.0
  0
LINE
  5
133A8
  8
0
 10
81.0855435258162629
 20
-31.0066668115104918
 30
0.0
 11
81.070315185494124
 21
-30.9983671667786709
 31
0.0
  0
LINE
  5
133A9
  8
0
 10
81.070315185494124
 20
-30.9983671667786709
 30
0.0
 11
81.0690833149941312
 21
-31.0021584721786709
 31
0.0
  0
LINE
  5
133AA
  8
0
 10
81.0690833149941312
 20
-31.0021584721786709
 30
0.0
 11
81.0832410048219856
 21
-31.0142575310125217
 31
0.0
  0
LINE
  5
133AB
  8
0
 10
81.0832410048219856
 20
-31.0142575310125217
 30
0.0
 11
81.0983503862009201
 21
-31.0224190015601415
 31
0.0
  0
LINE
  5
133AC
  8
0
 10
81.0855435257691539
 20
-31.0066668115786186
 30
0.0
 11
81.0832410047785999
 21
-31.01425753098545
 31
0.0
  0
LINE
  5
133AD
  8
0
 10
81.0961097219447851
 20
-31.029315053112839
 30
0.0
 11
81.0967056041696139
 21
-31.0274811174215905
 31
0.0
  0
LINE
  5
133AE
  8
0
 10
81.0967056041696139
 20
-31.0274811174215905
 30
0.0
 11
81.0823513176112982
 21
-31.016491412870181
 31
0.0
  0
LINE
  5
133AF
  8
0
 10
81.0823513176112982
 20
-31.016491412870181
 30
0.0
 11
81.0674083525859146
 21
-31.007313473403979
 31
0.0
  0
LINE
  5
133B0
  8
0
 10
81.0674083525859146
 20
-31.007313473403979
 30
0.0
 11
81.0668016796669519
 21
-31.0091806199028497
 31
0.0
  0
LINE
  5
133B1
  8
0
 10
81.0668016796669519
 20
-31.0091806199028497
 30
0.0
 11
81.0811489023375032
 21
-31.0201920647057392
 31
0.0
  0
LINE
  5
133B2
  8
0
 10
81.0811489023375032
 20
-31.0201920647057392
 30
0.0
 11
81.0961097219447851
 21
-31.029315053112839
 31
0.0
  0
LINE
  5
133B3
  8
0
 10
81.082351317564175
 20
-31.0164914129383114
 30
0.0
 11
81.0811489022941458
 21
-31.0201920646786711
 31
0.0
  0
LINE
  5
133B4
  8
0
 10
81.0730459424446224
 20
-31.0102096635553117
 30
0.0
 11
81.073958314359416
 21
-31.0074016729379309
 31
0.0
  0
LINE
  5
133B5
  8
0
 10
81.073958314359416
 20
-31.0074016729379309
 30
0.0
 11
81.0600666043554554
 21
-30.99498830513825
 31
0.0
  0
LINE
  5
133B6
  8
0
 10
81.0600666043554554
 20
-30.99498830513825
 30
0.0
 11
81.0452693944941132
 21
-30.9853617778786692
 31
0.0
  0
LINE
  5
133B7
  8
0
 10
81.0452693944941132
 20
-30.9853617778786692
 30
0.0
 11
81.0443368191941289
 21
-30.9882319479786688
 31
0.0
  0
LINE
  5
133B8
  8
0
 10
81.0443368191941289
 20
-30.9882319479786688
 30
0.0
 11
81.0582219686431387
 21
-31.0006655070069002
 31
0.0
  0
LINE
  5
133B9
  8
0
 10
81.0582219686431387
 20
-31.0006655070069002
 30
0.0
 11
81.0730459424446224
 21
-31.0102096635553117
 31
0.0
  0
LINE
  5
133BA
  8
0
 10
81.0600666043083464
 20
-30.9949883052063804
 30
0.0
 11
81.0582219685997956
 21
-31.0006655069798285
 31
0.0
  0
LINE
  5
133BB
  8
0
 10
81.1023559476941358
 20
-31.0100911574786693
 30
0.0
 11
81.1042164569941377
 21
-31.0043651019786708
 31
0.0
  0
LINE
  5
133BC
  8
0
 10
81.1042164569941377
 20
-31.0043651019786708
 30
0.0
 11
81.0905784389142639
 21
-30.9911709510997113
 31
0.0
  0
LINE
  5
133BD
  8
0
 10
81.0905784389142639
 20
-30.9911709510997113
 30
0.0
 11
81.075061980794132
 21
-30.9837580408786692
 31
0.0
  0
LINE
  5
133BE
  8
0
 10
81.075061980794132
 20
-30.9837580408786692
 30
0.0
 11
81.0731648927941393
 21
-30.9895966741786708
 31
0.0
  0
LINE
  5
133BF
  8
0
 10
81.0731648927941393
 20
-30.9895966741786708
 30
0.0
 11
81.0868211977484492
 21
-31.0027345437403312
 31
0.0
  0
LINE
  5
133C0
  8
0
 10
81.0868211977484492
 20
-31.0027345437403312
 30
0.0
 11
81.1023559476941358
 21
-31.0100911574786693
 31
0.0
  0
LINE
  5
133C1
  8
0
 10
81.0905784388671549
 20
-30.991170951167831
 30
0.0
 11
81.0868211977050777
 21
-31.0027345437132595
 31
0.0
  0
LINE
  5
133C2
  8
0
 10
81.076203183730513
 20
-31.0004926793667188
 30
0.0
 11
81.0777551649710375
 21
-30.9957161750509584
 31
0.0
  0
LINE
  5
133C3
  8
0
 10
81.0777551649710375
 20
-30.9957161750509584
 30
0.0
 11
81.06423333908036
 21
-30.9821644215210412
 31
0.0
  0
LINE
  5
133C4
  8
0
 10
81.06423333908036
 20
-30.9821644215210412
 30
0.0
 11
81.0489027751921327
 21
-30.9741793879848295
 31
0.0
  0
LINE
  5
133C5
  8
0
 10
81.0489027751921327
 20
-30.9741793879848295
 30
0.0
 11
81.0475649321941347
 21
-30.9782968432786703
 31
0.0
  0
LINE
  5
133C6
  8
0
 10
81.0475649321941347
 20
-30.9782968432786703
 30
0.0
 11
81.0610940367375008
 21
-30.991826195505741
 31
0.0
  0
LINE
  5
133C7
  8
0
 10
81.0610940367375008
 20
-30.991826195505741
 30
0.0
 11
81.076203183730513
 21
-31.0004926793667188
 31
0.0
  0
LINE
  5
133C8
  8
0
 10
81.064233339033251
 20
-30.9821644215891716
 30
0.0
 11
81.0610940366941151
 21
-30.9918261954786693
 31
0.0
  0
LINE
  5
133C9
  8
0
 10
81.0486155274787734
 20
-30.9953103430450092
 30
0.0
 11
81.0492305567883449
 21
-30.9934174786964611
 31
0.0
  0
LINE
  5
133CA
  8
0
 10
81.0492305567883449
 20
-30.9934174786964611
 30
0.0
 11
81.0354774585619566
 21
-30.9805775075308887
 31
0.0
  0
LINE
  5
133CB
  8
0
 10
81.0354774585619566
 20
-30.9805775075308887
 30
0.0
 11
81.0211276136857634
 21
-30.9695741332044214
 31
0.0
  0
LINE
  5
133CC
  8
0
 10
81.0211276136857634
 20
-30.9695741332044214
 30
0.0
 11
81.0204965805941271
 21
-30.9715162524786685
 31
0.0
  0
LINE
  5
133CD
  8
0
 10
81.0204965805941271
 20
-30.9715162524786685
 30
0.0
 11
81.0342316981571855
 21
-30.9844115621535394
 31
0.0
  0
LINE
  5
133CE
  8
0
 10
81.0342316981571855
 20
-30.9844115621535394
 30
0.0
 11
81.0486155274787734
 21
-30.9953103430450092
 31
0.0
  0
LINE
  5
133CF
  8
0
 10
81.0354774585148334
 20
-30.9805775075990191
 30
0.0
 11
81.0342316981138282
 21
-30.9844115621264713
 31
0.0
  0
LINE
  5
133D0
  8
0
 10
81.0509289050846462
 20
-30.9881905030078784
 30
0.0
 11
81.0521782765941339
 21
-30.9843453346786717
 31
0.0
  0
LINE
  5
133D1
  8
0
 10
81.0521782765941339
 20
-30.9843453346786717
 30
0.0
 11
81.0386398246281914
 21
-30.9708447513307092
 31
0.0
  0
LINE
  5
133D2
  8
0
 10
81.0211228448678753
 20
-30.9695888101981609
 30
0.0
 11
81.0205324277755636
 21
-30.9714059261505987
 31
0.0
  0
LINE
  5
133D3
  8
0
 10
81.0248746819941346
 20
-30.9663732646786691
 30
0.0
 11
81.0362561661558658
 21
-30.9781808935492684
 31
0.0
  0
LINE
  5
133D4
  8
0
 10
81.0362561661558658
 20
-30.9781808935492684
 30
0.0
 11
81.0509289050846462
 21
-30.9881905030078784
 31
0.0
  0
LINE
  5
133D5
  8
0
 10
81.0386398246142363
 20
-30.9708447513167897
 30
0.0
 11
81.0362561661124801
 21
-30.9781808935222003
 31
0.0
  0
LINE
  5
133D6
  8
0
 10
81.0265521868941363
 20
-30.9731259206786689
 30
0.0
 11
81.0275002440449441
 21
-30.9702081026734213
 31
0.0
  0
LINE
  5
133D7
  8
0
 10
81.0275002440449441
 20
-30.9702081026734213
 30
0.0
 11
81.0234350236516292
 21
-30.965905363840541
 31
0.0
  0
LINE
  5
133D8
  8
0
 10
81.0135081554653738
 20
-30.9626956170371308
 30
0.0
 11
81.0265521868941363
 21
-30.9731259206786689
 31
0.0
  0
LINE
  5
133D9
  8
0
 10
81.0095643260976459
 20
-30.9613975439537583
 30
0.0
 11
81.0118066216798667
 21
-30.9633404477225689
 31
0.0
  0
LINE
  5
133DA
  8
0
 10
81.0118066216798667
 20
-30.9633404477225689
 30
0.0
 11
81.0254038206941232
 21
-30.9766602267786695
 31
0.0
  0
LINE
  5
133DB
  8
0
 10
81.0254038206941232
 20
-30.9766602267786695
 30
0.0
 11
81.025091160122372
 21
-30.9776224963917599
 31
0.0
  0
LINE
  5
133DC
  8
0
 10
81.025091160122372
 20
-30.9776224963917599
 30
0.0
 11
81.0146972555427851
 21
-30.968547656622011
 31
0.0
  0
LINE
  5
133DD
  8
0
 10
81.0118066216941344
 20
-30.9633404476786716
 30
0.0
 11
81.0111719911561607
 21
-30.9652936387138595
 31
0.0
  0
LINE
  5
133DE
  8
0
 10
81.2991264866915344
 20
-31.0554820452865883
 30
0.0
 11
81.2815640872405538
 21
-31.109533523042451
 31
0.0
  0
ARC
  5
133DF
  8
0
 10
81.4151011087635936
 20
-30.5230939911580599
 30
0.0
 40
0.6014511290820135
 50
257.1720172785035743
 51
276.9372491543383035
  0
ARC
  5
133E0
  8
0
 10
81.4266182966817667
 20
-30.6570325054941613
 30
0.0
 40
0.4671261984588692
 50
277.5192025994762162
 51
278.417988166752707
  0
LINE
  5
133E1
  8
0
 10
81.3290810211006061
 20
-31.0652148688587317
 30
0.0
 11
81.3273733855757257
 21
-31.0704704276506511
 31
0.0
  0
LINE
  5
133E2
  8
0
 10
81.3273733855757257
 20
-31.0704704276506511
 30
0.0
 11
81.3281473775711277
 21
-31.0708046274234988
 31
0.0
  0
LINE
  5
133E3
  8
0
 10
81.3281473775711277
 20
-31.0708046274234988
 30
0.0
 11
81.3298793222820251
 21
-31.0654742528158501
 31
0.0
  0
ARC
  5
133E4
  8
0
 10
81.2967467958968371
 20
-30.6198449220157407
 30
0.0
 40
0.4520516037256479
 50
273.9831088742100746
 51
275.808956747922025
  0
LINE
  5
133E5
  8
0
 10
81.3468104088247941
 20
-31.0709901243144202
 30
0.0
 11
81.3391893001444117
 21
-31.0717418363338389
 31
0.0
  0
LINE
  5
133E6
  8
0
 10
81.3391893001444117
 20
-31.0717418363338389
 30
0.0
 11
81.3366742078999891
 21
-31.0794824900609186
 31
0.0
  0
LINE
  5
133E7
  8
0
 10
81.3366742078999891
 20
-31.0794824900609186
 30
0.0
 11
81.3527204425994768
 21
-31.0852649165041299
 31
0.0
  0
LINE
  5
133E8
  8
0
 10
81.3527204425994768
 20
-31.0852649165041299
 30
0.0
 11
81.3712768594273825
 21
-31.0833218007151793
 31
0.0
  0
LINE
  5
133E9
  8
0
 10
81.3712768594273825
 20
-31.0833218007151793
 30
0.0
 11
81.372569007513647
 21
-31.0793449800234995
 31
0.0
  0
LINE
  5
133EA
  8
0
 10
81.3563556402482249
 20
-31.0740769348199706
 30
0.0
 11
81.352720445226737
 21
-31.0852649162290184
 31
0.0
  0
LINE
  5
133EB
  8
0
 10
81.3420035350341806
 20
-31.0833274147064884
 30
0.0
 11
81.3398412774950543
 21
-31.0899821555318709
 31
0.0
  0
LINE
  5
133EC
  8
0
 10
81.3398412774950543
 20
-31.0899821555318709
 30
0.0
 11
81.3217663589221758
 21
-31.090443372846881
 31
0.0
  0
LINE
  5
133ED
  8
0
 10
81.3217663589221758
 20
-31.090443372846881
 30
0.0
 11
81.3209680576844534
 21
-31.0901839889066203
 31
0.0
  0
LINE
  5
133EE
  8
0
 10
81.3209680576844534
 20
-31.0901839889066203
 30
0.0
 11
81.3251738659641745
 21
-31.0772398492198008
 31
0.0
  0
LINE
  5
133EF
  8
0
 10
81.3251738659641745
 20
-31.0772398492198008
 30
0.0
 11
81.3260707898712951
 21
-31.077195704082051
 31
0.0
  0
LINE
  5
133F0
  8
0
 10
81.3260707898712951
 20
-31.077195704082051
 30
0.0
 11
81.3420035350341806
 21
-31.0833274147064884
 31
0.0
  0
LINE
  5
133F1
  8
0
 10
81.3260707898376864
 20
-31.0771957040246498
 30
0.0
 11
81.3217663588640249
 21
-31.0904433727981306
 31
0.0
  0
LINE
  5
133F2
  8
0
 10
81.3365066367329774
 20
-31.100245118902091
 30
0.0
 11
81.3350078628115369
 21
-31.1048578679737986
 31
0.0
  0
LINE
  5
133F3
  8
0
 10
81.3350078628115369
 20
-31.1048578679737986
 30
0.0
 11
81.3172730745094157
 21
-31.1042722726896095
 31
0.0
  0
LINE
  5
133F4
  8
0
 10
81.3172730745094157
 20
-31.1042722726896095
 30
0.0
 11
81.3164747732716933
 21
-31.1040128887493417
 31
0.0
  0
LINE
  5
133F5
  8
0
 10
81.3164747732716933
 20
-31.1040128887493417
 30
0.0
 11
81.3193849274990157
 21
-31.095056359825719
 31
0.0
  0
LINE
  5
133F6
  8
0
 10
81.3202637464389682
 20
-31.0950679361203584
 30
0.0
 11
81.3365066367329774
 21
-31.100245118902091
 31
0.0
  0
LINE
  5
133F7
  8
0
 10
81.3202637464053453
 20
-31.0950679360629501
 30
0.0
 11
81.3172730744512648
 21
-31.1042722726408591
 31
0.0
  0
LINE
  5
133F8
  8
0
 10
81.3202637463924987
 20
-31.0950679361024811
 30
0.0
 11
81.3193849274990157
 21
-31.095056359825719
 31
0.0
  0
LINE
  5
133F9
  8
0
 10
81.3308864603151989
 20
-31.1175422335710188
 30
0.0
 11
81.3305950784045706
 21
-31.1184390143646006
 31
0.0
  0
LINE
  5
133FA
  8
0
 10
81.3305950784037037
 20
-31.11843901436729
 30
0.0
 11
81.3245312838226369
 21
-31.1176867656551899
 31
0.0
  0
LINE
  5
133FB
  8
0
 10
81.3308864603151989
 20
-31.1175422335710188
 30
0.0
 11
81.314062294920987
 21
-31.1141540310106315
 31
0.0
  0
LINE
  5
133FC
  8
0
 10
81.314062294920987
 20
-31.1141540310106315
 30
0.0
 11
81.3132148573401139
 21
-31.1140458727390801
 31
0.0
  0
LINE
  5
133FD
  8
0
 10
81.3132148573401139
 20
-31.1140458727390801
 30
0.0
 11
81.3126589798513493
 21
-31.1157566868779512
 31
0.0
  0
LINE
  5
133FE
  8
0
 10
81.314062294920987
 20
-31.1141540310106315
 30
0.0
 11
81.3134948144930547
 21
-31.1159005545821188
 31
0.0
  0
LINE
  5
133FF
  8
0
 10
81.3154389827163442
 20
-31.1072007224313616
 30
0.0
 11
81.3137255921307087
 21
-31.1124739935360211
 31
0.0
  0
LINE
  5
13400
  8
0
 10
81.3137255921307087
 20
-31.1124739935360211
 30
0.0
 11
81.3145238933561245
 21
-31.1127333774745409
 31
0.0
  0
LINE
  5
13401
  8
0
 10
81.3145238933561245
 20
-31.1127333774745409
 30
0.0
 11
81.3319561270755855
 21
-31.1142501398057583
 31
0.0
  0
LINE
  5
13402
  8
0
 10
81.3319561270755855
 20
-31.1142501398057583
 30
0.0
 11
81.3328383373390551
 21
-31.1115349771268193
 31
0.0
  0
LINE
  5
13403
  8
0
 10
81.3328383373390551
 20
-31.1115349771268193
 30
0.0
 11
81.3163015243807337
 21
-31.1072623956464405
 31
0.0
  0
LINE
  5
13404
  8
0
 10
81.3163015243807337
 20
-31.1072623956464405
 30
0.0
 11
81.3154389827163442
 21
-31.1072007224313616
 31
0.0
  0
LINE
  5
13405
  8
0
 10
81.3163015243807337
 20
-31.1072623956464405
 30
0.0
 11
81.3145238935954069
 21
-31.1127333775522814
 31
0.0
  0
LINE
  5
13406
  8
0
 10
81.3247928840123251
 20
-31.1160494247351096
 30
0.0
 11
81.3253766046820061
 21
-31.1142529184001688
 31
0.0
  0
LINE
  5
13407
  8
0
 10
81.3253766046820061
 20
-31.1142529184001688
 30
0.0
 11
81.3428997823507416
 21
-31.1154897840019089
 31
0.0
  0
LINE
  5
13408
  8
0
 10
81.3428997823507416
 20
-31.1154897840019089
 30
0.0
 11
81.3598402931607438
 21
-31.1185199131514203
 31
0.0
  0
LINE
  5
13409
  8
0
 10
81.3598402931607438
 20
-31.1185199131514203
 30
0.0
 11
81.3592498760726244
 21
-31.1203370291052011
 31
0.0
  0
LINE
  5
1340A
  8
0
 10
81.3592498760726244
 20
-31.1203370291052011
 30
0.0
 11
81.3417256971054456
 21
-31.1191032449180298
 31
0.0
  0
LINE
  5
1340B
  8
0
 10
81.3417256971054456
 20
-31.1191032449180298
 30
0.0
 11
81.3247928840123251
 21
-31.1160494247351096
 31
0.0
  0
LINE
  5
1340C
  8
0
 10
81.3428997823487947
 20
-31.1154897840847298
 30
0.0
 11
81.3417256971564342
 21
-31.1191032449216216
 31
0.0
  0
LINE
  5
1340D
  8
0
 10
81.3269873981601137
 20
-31.1092954083726809
 30
0.0
 11
81.3281713114635494
 21
-31.1056517002428805
 31
0.0
  0
LINE
  5
1340E
  8
0
 10
81.3281713114635494
 20
-31.1056517002428805
 30
0.0
 11
81.3460149081692094
 21
-31.1059024178517589
 31
0.0
  0
LINE
  5
1340F
  8
0
 10
81.3460149081692094
 20
-31.1059024178517589
 30
0.0
 11
81.3626676866199716
 21
-31.1098180956428791
 31
0.0
  0
LINE
  5
13410
  8
0
 10
81.3626676866199716
 20
-31.1098180956428791
 30
0.0
 11
81.3614443902204272
 21
-31.1135830127427795
 31
0.0
  0
LINE
  5
13411
  8
0
 10
81.3614443902204272
 20
-31.1135830127427795
 30
0.0
 11
81.3436331887513546
 21
-31.1132325922689787
 31
0.0
  0
LINE
  5
13412
  8
0
 10
81.3436331887513546
 20
-31.1132325922689787
 30
0.0
 11
81.3269873981601137
 21
-31.1092954083726809
 31
0.0
  0
LINE
  5
13413
  8
0
 10
81.346014908167291
 20
-31.1059024179345798
 30
0.0
 11
81.3436331888023574
 21
-31.1132325922725705
 31
0.0
  0
LINE
  5
13414
  8
0
 10
81.3309075188212915
 20
-31.0972305241600608
 30
0.0
 11
81.332727000687413
 21
-31.0916307379897496
 31
0.0
  0
LINE
  5
13415
  8
0
 10
81.332727000687413
 20
-31.0916307379897496
 30
0.0
 11
81.3509224189175342
 21
-31.0907986612224114
 31
0.0
  0
LINE
  5
13416
  8
0
 10
81.3509224189175342
 20
-31.0907986612224114
 30
0.0
 11
81.3672789827016771
 21
-31.0956259934768298
 31
0.0
  0
LINE
  5
13417
  8
0
 10
81.3672789827016771
 20
-31.0956259934768298
 30
0.0
 11
81.3654369354995168
 21
-31.1012952286026589
 31
0.0
  0
LINE
  5
13418
  8
0
 10
81.3654369354995168
 20
-31.1012952286026589
 30
0.0
 11
81.3472609420472139
 21
-31.1020675220290812
 31
0.0
  0
LINE
  5
13419
  8
0
 10
81.3472609420472139
 20
-31.1020675220290812
 30
0.0
 11
81.3309075188212915
 21
-31.0972305241600608
 31
0.0
  0
LINE
  5
1341A
  8
0
 10
81.3509224189156157
 20
-31.0907986613052216
 30
0.0
 11
81.3472609420982167
 21
-31.1020675220326694
 31
0.0
  0
LINE
  5
1341B
  8
0
 10
81.3617186007154487
 20
-31.0924921821367697
 30
0.0
 11
81.363898359093568
 21
-31.0857835793221504
 31
0.0
  0
LINE
  5
1341C
  8
0
 10
81.363898359093568
 20
-31.0857835793221504
 30
0.0
 11
81.3825842047772454
 21
-31.0834421230154412
 31
0.0
  0
LINE
  5
1341D
  8
0
 10
81.3825842047772454
 20
-31.0834421230154412
 30
0.0
 11
81.3990453254851758
 21
-31.0879476619773598
 31
0.0
  0
LINE
  5
1341E
  8
0
 10
81.3990453254851758
 20
-31.0879476619773598
 30
0.0
 11
81.3968462751989819
 21
-31.0947156391851109
 31
0.0
  0
LINE
  5
1341F
  8
0
 10
81.3968462751989819
 20
-31.0947156391851109
 30
0.0
 11
81.3781889941949856
 21
-31.0969691823755596
 31
0.0
  0
LINE
  5
13420
  8
0
 10
81.3781889941949856
 20
-31.0969691823755596
 30
0.0
 11
81.3617186007154487
 21
-31.0924921821367697
 31
0.0
  0
LINE
  5
13421
  8
0
 10
81.382584204775327
 20
-31.0834421230982514
 30
0.0
 11
81.3781889942459742
 21
-31.0969691823791514
 31
0.0
  0
LINE
  5
13422
  8
0
 10
81.3568476445664146
 20
-31.1074834355316092
 30
0.0
 11
81.3583578337520379
 21
-31.1028355541391583
 31
0.0
  0
LINE
  5
13423
  8
0
 10
81.3583578337520379
 20
-31.1028355541391583
 30
0.0
 11
81.3766557831152539
 21
-31.1016879184253909
 31
0.0
  0
LINE
  5
13424
  8
0
 10
81.3766557831152539
 20
-31.1016879184253909
 30
0.0
 11
81.3934320584841515
 21
-31.1052235118273295
 31
0.0
  0
LINE
  5
13425
  8
0
 10
81.3934320584841515
 20
-31.1052235118273295
 30
0.0
 11
81.3918985394832362
 21
-31.1099431956094215
 31
0.0
  0
LINE
  5
13426
  8
0
 10
81.3918985394832362
 20
-31.1099431956094215
 30
0.0
 11
81.3736122538100091
 21
-31.1110549331576784
 31
0.0
  0
LINE
  5
13427
  8
0
 10
81.3736122538100091
 20
-31.1110549331576784
 30
0.0
 11
81.3568476445664146
 21
-31.1074834355316092
 31
0.0
  0
LINE
  5
13428
  8
0
 10
81.3766557831133355
 20
-31.1016879185082082
 30
0.0
 11
81.3736122538609834
 21
-31.1110549331612702
 31
0.0
  0
LINE
  5
13429
  8
0
 10
81.353773191843203
 20
-31.1169456227524499
 30
0.0
 11
81.3546619406168645
 21
-31.1142103370499292
 31
0.0
  0
LINE
  5
1342A
  8
0
 10
81.3546619406168645
 20
-31.1142103370499292
 30
0.0
 11
81.3726154291047834
 21
-31.1141228428400183
 31
0.0
  0
LINE
  5
1342B
  8
0
 10
81.3726154291047834
 20
-31.1141228428400183
 30
0.0
 11
81.3896797942608146
 21
-31.1167717874171501
 31
0.0
  0
LINE
  5
1342C
  8
0
 10
81.3896797942608146
 20
-31.1167717874171501
 30
0.0
 11
81.388777848902464
 21
-31.1195476884125597
 31
0.0
  0
LINE
  5
1342D
  8
0
 10
81.388777848902464
 20
-31.1195476884125597
 30
0.0
 11
81.3708258277896448
 21
-31.1196306660170094
 31
0.0
  0
LINE
  5
1342E
  8
0
 10
81.3708258277896448
 20
-31.1196306660170094
 30
0.0
 11
81.353773191843203
 21
-31.1169456227524499
 31
0.0
  0
LINE
  5
1342F
  8
0
 10
81.3726154291028649
 20
-31.1141228429228391
 30
0.0
 11
81.3708258278406475
 21
-31.1196306660206012
 31
0.0
  0
LINE
  5
13430
  8
0
 10
81.3836394671638743
 20
-31.115115094369461
 30
0.0
 11
81.384848770554342
 21
-31.1113932434966713
 31
0.0
  0
LINE
  5
13431
  8
0
 10
81.384848770554342
 20
-31.1113932434966713
 30
0.0
 11
81.4032593415586803
 21
-31.1098989949642792
 31
0.0
  0
LINE
  5
13432
  8
0
 10
81.4032593415586803
 20
-31.1098989949642792
 30
0.0
 11
81.4204577357206603
 21
-31.1121354407809783
 31
0.0
  0
LINE
  5
13433
  8
0
 10
81.4204577357206603
 20
-31.1121354407809783
 30
0.0
 11
81.4192258652558536
 21
-31.1159267461924216
 31
0.0
  0
LINE
  5
13434
  8
0
 10
81.4192258652558536
 20
-31.1159267461924216
 30
0.0
 11
81.4006604047578435
 21
-31.1173934030791983
 31
0.0
  0
LINE
  5
13435
  8
0
 10
81.4006604047578435
 20
-31.1173934030791983
 30
0.0
 11
81.3836394671638743
 21
-31.115115094369461
 31
0.0
  0
LINE
  5
13436
  8
0
 10
81.4032593415567618
 20
-31.1098989950470894
 30
0.0
 11
81.4006604048088462
 21
-31.1173934030827901
 31
0.0
  0
LINE
  5
13437
  8
0
 10
81.3813988029811384
 20
-31.1220111459460007
 30
0.0
 11
81.3819946850840523
 21
-31.1201772102151395
 31
0.0
  0
LINE
  5
13438
  8
0
 10
81.3819946850840523
 20
-31.1201772102151395
 30
0.0
 11
81.4000671332617856
 21
-31.1197235962941008
 31
0.0
  0
LINE
  5
13439
  8
0
 10
81.4000671332617856
 20
-31.1197235962941008
 30
0.0
 11
81.4175509029365969
 21
-31.1210817474466204
 31
0.0
  0
LINE
  5
1343A
  8
0
 10
81.4175509029365969
 20
-31.1210817474466204
 30
0.0
 11
81.4169442298548489
 21
-31.1229488938926195
 31
0.0
  0
LINE
  5
1343B
  8
0
 10
81.4169442298548489
 20
-31.1229488938926195
 30
0.0
 11
81.3988647178761227
 21
-31.1234242480933183
 31
0.0
  0
LINE
  5
1343C
  8
0
 10
81.3988647178761227
 20
-31.1234242480933183
 30
0.0
 11
81.3813988029811384
 21
-31.1220111459460007
 31
0.0
  0
LINE
  5
1343D
  8
0
 10
81.4000671332598387
 20
-31.119723596376911
 30
0.0
 11
81.3988647179271254
 21
-31.1234242480969101
 31
0.0
  0
LINE
  5
1343E
  8
0
 10
81.4112876593904957
 20
-31.120111120283461
 30
0.0
 11
81.4122000313929703
 21
-31.1173031296945695
 31
0.0
  0
LINE
  5
1343F
  8
0
 10
81.4122000313929703
 20
-31.1173031296945695
 30
0.0
 11
81.4307350560016232
 21
-31.1154258524851599
 31
0.0
  0
LINE
  5
13440
  8
0
 10
81.4307350560016232
 20
-31.1154258524851599
 30
0.0
 11
81.4483645807069223
 21
-31.1163354158009113
 31
0.0
  0
LINE
  5
13441
  8
0
 10
81.4483645807069223
 20
-31.1163354158009113
 30
0.0
 11
81.4474320053832912
 21
-31.1192055858932299
 31
0.0
  0
LINE
  5
13442
  8
0
 10
81.4474320053832912
 20
-31.1192055858932299
 30
0.0
 11
81.4288904202621353
 21
-31.1211030543449816
 31
0.0
  0
LINE
  5
13443
  8
0
 10
81.4288904202621353
 20
-31.1211030543449816
 30
0.0
 11
81.4112876593904957
 21
-31.120111120283461
 31
0.0
  0
LINE
  5
13444
  8
0
 10
81.4307350559997047
 20
-31.1154258525679808
 30
0.0
 11
81.4288904203131239
 21
-31.1211030543485698
 31
0.0
  0
LINE
  5
13445
  8
0
 10
81.387645028797138
 20
-31.1027872503334883
 30
0.0
 11
81.389505537994367
 21
-31.0970611948000908
 31
0.0
  0
LINE
  5
13446
  8
0
 10
81.389505537994367
 20
-31.0970611948000908
 30
0.0
 11
81.4082942545582853
 21
-31.0944031345215315
 31
0.0
  0
LINE
  5
13447
  8
0
 10
81.4082942545582853
 20
-31.0944031345215315
 30
0.0
 11
81.4252045311586556
 21
-31.097526314925819
 31
0.0
  0
LINE
  5
13448
  8
0
 10
81.4252045311586556
 20
-31.097526314925819
 30
0.0
 11
81.4233074431441963
 21
-31.1033649482211096
 31
0.0
  0
LINE
  5
13449
  8
0
 10
81.4233074431441963
 20
-31.1033649482211096
 30
0.0
 11
81.4045370135346502
 21
-31.1059667272083509
 31
0.0
  0
LINE
  5
1344A
  8
0
 10
81.4045370135346502
 20
-31.1059667272083509
 30
0.0
 11
81.387645028797138
 21
-31.1027872503334883
 31
0.0
  0
LINE
  5
1344B
  8
0
 10
81.4082942545563526
 20
-31.0944031346043417
 30
0.0
 11
81.4045370135856388
 21
-31.1059667272119391
 31
0.0
  0
LINE
  5
1344C
  8
0
 10
81.4144449006981148
 20
-31.1103941361019309
 30
0.0
 11
81.4159968818474482
 21
-31.1056176317565409
 31
0.0
  0
LINE
  5
1344D
  8
0
 10
81.4159968818474482
 20
-31.1056176317565409
 30
0.0
 11
81.4349017906364026
 21
-31.1026019688386697
 31
0.0
  0
LINE
  5
1344E
  8
0
 10
81.4349017906364026
 20
-31.1026019688386697
 30
0.0
 11
81.4519979614772751
 21
-31.1051530259305693
 31
0.0
  0
LINE
  5
1344F
  8
0
 10
81.4519979614772751
 20
-31.1051530259305693
 30
0.0
 11
81.4506601183605454
 21
-31.1092704811858383
 31
0.0
  0
LINE
  5
13450
  8
0
 10
81.4506601183605454
 20
-31.1092704811858383
 30
0.0
 11
81.4317624881805955
 21
-31.11226374278667
 31
0.0
  0
LINE
  5
13451
  8
0
 10
81.4317624881805955
 20
-31.11226374278667
 30
0.0
 11
81.4144449006981148
 21
-31.1103941361019309
 31
0.0
  0
LINE
  5
13452
  8
0
 10
81.4349017906344841
 20
-31.1026019689214905
 30
0.0
 11
81.431762488231584
 21
-31.1122637427902617
 31
0.0
  0
LINE
  5
13453
  8
0
 10
81.4398098803925734
 20
-31.122417163687139
 30
0.0
 11
81.4404249095934034
 21
-31.1205242993032414
 31
0.0
  0
LINE
  5
13454
  8
0
 10
81.4404249095934034
 20
-31.1205242993032414
 30
0.0
 11
81.4590985462241974
 21
-31.118220418807411
 31
0.0
  0
LINE
  5
13455
  8
0
 10
81.4590985462241974
 20
-31.118220418807411
 30
0.0
 11
81.4771754359022111
 21
-31.1177531350522401
 31
0.0
  0
LINE
  5
13456
  8
0
 10
81.4771754359022111
 20
-31.1177531350522401
 30
0.0
 11
81.4765444026980958
 21
-31.1196952542899297
 31
0.0
  0
LINE
  5
13457
  8
0
 10
81.4765444026980958
 20
-31.1196952542899297
 30
0.0
 11
81.4578527855518644
 21
-31.1220544733431197
 31
0.0
  0
LINE
  5
13458
  8
0
 10
81.4578527855518644
 20
-31.1220544733431197
 30
0.0
 11
81.4398098803925734
 21
-31.122417163687139
 31
0.0
  0
LINE
  5
13459
  8
0
 10
81.4590985462222648
 20
-31.1182204188902212
 30
0.0
 11
81.4578527856028671
 21
-31.1220544733467115
 31
0.0
  0
LINE
  5
1345A
  8
0
 10
81.4421232578832672
 20
-31.1152973236125696
 30
0.0
 11
81.443372629586932
 21
-31.1114521553464485
 31
0.0
  0
LINE
  5
1345B
  8
0
 10
81.443372629586932
 20
-31.1114521553464485
 30
0.0
 11
81.4622609120583689
 21
-31.1084876625318287
 31
0.0
  0
LINE
  5
1345C
  8
0
 10
81.477170667031686
 20
-31.1177678120288803
 30
0.0
 11
81.4765802499435665
 21
-31.1195849279826717
 31
0.0
  0
LINE
  5
1345D
  8
0
 10
81.4760279205701892
 20
-31.1129606626528101
 30
0.0
 11
81.4598772536804177
 21
-31.1158238047810585
 31
0.0
  0
LINE
  5
1345E
  8
0
 10
81.4598772536804177
 20
-31.1158238047810585
 30
0.0
 11
81.4421232578832672
 21
-31.1152973236125696
 31
0.0
  0
LINE
  5
1345F
  8
0
 10
81.4622609120778378
 20
-31.1084876625287805
 30
0.0
 11
81.4598772537314204
 21
-31.1158238047846503
 31
0.0
  0
LINE
  5
13460
  8
0
 10
81.4706991757952466
 20
-31.1174381052410496
 30
0.0
 11
81.4716472327899766
 21
-31.1145202871850906
 31
0.0
  0
LINE
  5
13461
  8
0
 10
81.4716472327899766
 20
-31.1145202871850906
 30
0.0
 11
81.4774651519594926
 21
-31.1134287768337217
 31
0.0
  0
LINE
  5
13462
  8
0
 10
81.4873827978045142
 20
-31.1166669070691491
 30
0.0
 11
81.4706991757952466
 21
-31.1174381052410496
 31
0.0
  0
LINE
  5
13463
  8
0
 10
81.4913364105883318
 20
-31.1179348699105915
 30
0.0
 11
81.4883803450914002
 21
-31.1181887228420209
 31
0.0
  0
LINE
  5
13464
  8
0
 10
81.4883803450914002
 20
-31.1181887228420209
 30
0.0
 11
81.4695508094146135
 21
-31.1209724112823594
 31
0.0
  0
LINE
  5
13465
  8
0
 10
81.4695508094146135
 20
-31.1209724112823594
 30
0.0
 11
81.4692381489303443
 21
-31.1219346809238893
 31
0.0
  0
LINE
  5
13466
  8
0
 10
81.4692381489303443
 20
-31.1219346809238893
 30
0.0
 11
81.4829810517575055
 21
-31.1207023696244001
 31
0.0
  0
LINE
  5
13467
  8
0
 10
81.4883803451056536
 20
-31.11818872279812
 30
0.0
 11
81.4877457144753663
 21
-31.1201419138033089
 31
0.0
  0
LINE
  5
13468
  8
0
 10
82.1624577427139968
 20
-30.9423379707337283
 30
0.0
 11
83.3851552813448365
 21
-30.9423379707337283
 31
0.0
  0
LINE
  5
13469
  8
0
 10
84.2331837143941158
 20
-34.0002061520786683
 30
0.0
 11
84.2331837143941158
 21
-34.3939069394786685
 31
0.0
  0
ARC
  5
1346A
  8
0
 10
86.2190327053384635
 20
-32.5888819356184314
 30
0.0
 40
0.314991706640483
 50
137.3421701114019982
 51
157.1067109066900969
  0
ARC
  5
1346B
  8
0
 10
86.1549092357945199
 20
-32.5434203221117286
 30
0.0
 40
0.2372404232044504
 50
88.7840427933232661
 51
134.9219689934519124
  0
ARC
  5
1346C
  8
0
 10
86.3165214459640424
 20
-32.3837712349695721
 30
0.0
 40
0.2978185501545403
 50
358.9924334726687789
 51
9.1697979120194724
  0
ARC
  5
1346D
  8
0
 10
86.5815041157565872
 20
-32.3409967385890269
 30
0.0
 40
0.0294056726113828
 50
9.1697979120133155
 51
67.7799818470802222
  0
ARC
  5
1346E
  8
0
 10
86.5320486255433678
 20
-32.5520766954990677
 30
0.0
 40
0.2458804923042515
 50
75.7376489348098403
 51
89.5377095542825714
  0
ARC
  5
1346F
  8
0
 10
86.7529917327120188
 20
-32.3837712349695721
 30
0.0
 40
0.2978185501545403
 50
170.8302020879804957
 51
181.0075665273311927
  0
ARC
  5
13470
  8
0
 10
86.4880090629194456
 20
-32.3409967385890269
 30
0.0
 40
0.0294056726113828
 50
112.2200181529199057
 51
170.8302020879866916
  0
ARC
  5
13471
  8
0
 10
86.533815752812103
 20
-32.5240170760753173
 30
0.0
 40
0.2178129772796797
 50
89.942987617551637
 51
105.1505745146403967
  0
LINE
  5
13472
  8
0
 10
86.1599436824990477
 20
-32.3062333225762401
 30
0.0
 11
86.5302478706268943
 21
-32.3062333225762401
 31
0.0
  0
LINE
  5
13473
  8
0
 10
85.9506415582941372
 20
-33.1928267329762505
 30
0.0
 11
86.1258937840941456
 21
-32.540857831876238
 31
0.0
  0
ARC
  5
13474
  8
0
 10
86.2230282470980285
 20
-32.574597031813262
 30
0.0
 40
0.1028272216654816
 50
89.0789374790750657
 51
160.845569271865088
  0
ARC
  5
13475
  8
0
 10
85.9334014483926723
 20
-33.1722560666657316
 30
0.0
 40
0.0268397783499316
 50
254.2079717349078862
 51
309.9661024790702868
  0
ARC
  5
13476
  8
0
 10
85.5638904908883262
 20
-32.9625266559520824
 30
0.0
 40
0.4501272193689985
 50
329.2273152510210252
 51
0.6812503708991156
  0
ARC
  5
13477
  8
0
 10
86.3165214459640424
 20
-32.3942451839829104
 30
0.0
 40
0.2978185501545403
 50
350.830202087980922
 51
1.00756652733124
  0
ARC
  5
13478
  8
0
 10
86.5815041157565872
 20
-32.4370196803634485
 30
0.0
 40
0.0294056726113828
 50
292.2200181529198062
 51
350.8302020879863221
  0
ARC
  5
13479
  8
0
 10
86.5320486255433678
 20
-32.2259397234534077
 30
0.0
 40
0.2458804923042515
 50
270.4622904457173718
 51
284.2623510651902166
  0
ARC
  5
1347A
  8
0
 10
86.7529917327120188
 20
-32.3942451839829104
 30
0.0
 40
0.2978185501545403
 50
178.9924334726686936
 51
189.1697979120191064
  0
ARC
  5
1347B
  8
0
 10
86.4880090629194456
 20
-32.4370196803634485
 30
0.0
 40
0.0294056726113828
 50
189.1697979120133084
 51
247.7799818470801085
  0
ARC
  5
1347C
  8
0
 10
86.533815752812103
 20
-32.253999342877151
 30
0.0
 40
0.2178129772796797
 50
254.8494254853596033
 51
270.0570123824476241
  0
LINE
  5
1347D
  8
0
 10
86.2246811824734891
 20
-32.4717830963762424
 30
0.0
 11
86.5302478706268943
 21
-32.4717830963762424
 31
0.0
  0
LINE
  5
1347E
  8
0
 10
86.2213726906941389
 20
-30.2718597328936205
 30
0.0
 11
86.2213726906941389
 21
-32.3062333225762401
 31
0.0
  0
LINE
  5
1347F
  8
0
 10
86.2213726906941389
 20
-32.471783138547643
 30
0.0
 11
86.2213726906941389
 21
-34.0002061520786683
 31
0.0
  0
LINE
  5
13480
  8
0
 10
81.3526958459133027
 20
-31.1202613283336511
 30
0.0
 11
81.3523698173301142
 21
-31.1212647408183187
 31
0.0
  0
LINE
  5
13481
  8
0
 10
81.3526958459133027
 20
-31.1202613283336511
 30
0.0
 11
81.3703336084941355
 21
-31.1211455382762416
 31
0.0
  0
LINE
  5
13482
  8
0
 10
81.3703336084941355
 20
-31.1211455382762416
 30
0.0
 11
81.3876846862941363
 21
-31.1229120726762396
 31
0.0
  0
LINE
  5
13483
  8
0
 10
81.3876846862941363
 20
-31.1229120726762396
 30
0.0
 11
81.387362027835394
 21
-31.1239051129453408
 31
0.0
  0
LINE
  5
13484
  8
0
 10
81.4101820059211434
 20
-31.12351394768924
 30
0.0
 11
81.4283845311783239
 21
-31.1226599978249396
 31
0.0
  0
LINE
  5
13485
  8
0
 10
81.4283845311783239
 20
-31.1226599978249396
 30
0.0
 11
81.4463021624941348
 21
-31.1226828606762389
 31
0.0
  0
LINE
  5
13486
  8
0
 10
81.4463021624941348
 20
-31.1226828606762389
 30
0.0
 11
81.4459543740707659
 21
-31.1237532428922812
 31
0.0
  0
LINE
  5
13487
  8
0
 10
81.4101820059224224
 20
-31.1235139476891796
 30
0.0
 11
81.4098543932865226
 21
-31.1245222351329609
 31
0.0
  0
LINE
  5
13488
  8
0
 10
81.4283845311783665
 20
-31.1226599978249396
 30
0.0
 11
81.4278156889439941
 21
-31.1244107131314891
 31
0.0
  0
LINE
  5
13489
  8
0
 10
81.0904947719941447
 20
-31.0263491625762384
 30
0.0
 11
81.0901721146544645
 21
-31.0273421992690217
 31
0.0
  0
LINE
  5
1348A
  8
0
 10
81.0904947720263038
 20
-31.0263491624860102
 30
0.0
 11
81.1055704288142181
 21
-31.0351187186727984
 31
0.0
  0
LINE
  5
1348B
  8
0
 10
81.1055704288142181
 20
-31.0351187186727984
 30
0.0
 11
81.1203594008975699
 21
-31.0351187186727984
 31
0.0
  0
LINE
  5
1348C
  8
0
 10
81.1203594008975699
 20
-31.0447705994725602
 30
0.0
 11
81.1200333730981953
 21
-31.0457740091025087
 31
0.0
  0
LINE
  5
1348D
  8
0
 10
81.1203594008975699
 20
-31.0447705994725602
 30
0.0
 11
81.1055704288277468
 21
-31.0351187186727984
 31
0.0
  0
LINE
  5
1348E
  8
0
 10
81.0432069762941438
 20
-30.9917092227762403
 30
0.0
 11
81.0428591894368822
 21
-30.9927795999728701
 31
0.0
  0
LINE
  5
1348F
  8
0
 10
81.0432070086233551
 20
-30.9917091232771895
 30
0.0
 11
81.0577160795941438
 21
-31.0022224504762391
 31
0.0
  0
LINE
  5
13490
  8
0
 10
81.0577160795941438
 20
-31.0022224504762391
 30
0.0
 11
81.0719402889941421
 21
-31.0136124909762394
 31
0.0
  0
LINE
  5
13491
  8
0
 10
81.0719402889941421
 20
-31.0136124909762394
 30
0.0
 11
81.0716126777245876
 21
-31.0146207743235998
 31
0.0
  0
LINE
  5
13492
  8
0
 10
81.0571472388320871
 20
-31.0039731612516185
 30
0.0
 11
81.0577160795718186
 21
-31.0022224505449415
 31
0.0
  0
ENDSEC
  0
EOF
