  0
SECTION
  2
HEADER
  9
$ACADVER
  1
AC1009
  9
$INSBASE
 10
70.143753191934195
 20
-34.3964358151200074
 30
0.0
  9
$EXTMIN
 10
62.8893255527818766
 20
-34.4022305165114517
 30
-0.0000000000000058
  9
$EXTMAX
 10
77.3973412026814742
 20
-30.2415639918817796
 30
0.0000000000000104
  9
$LIMMIN
 10
0.0
 20
0.0
  9
$LIMMAX
 10
11.6929133858000007
 20
8.2677165353999982
  9
$ORTHOMODE
 70
     0
  9
$REGENMODE
 70
     1
  9
$FILLMODE
 70
     1
  9
$QTEXTMODE
 70
     0
  9
$MIRRTEXT
 70
     0
  9
$DRAGMODE
 70
     2
  9
$LTSCALE
 40
0.6431102362
  9
$OSMODE
 70
  4095
  9
$ATTMODE
 70
     1
  9
$TEXTSIZE
 40
0.2
  9
$TRACEWID
 40
0.05
  9
$TEXTSTYLE
  7
STANDARD
  9
$CLAYER
  8
0
  9
$CELTYPE
  6
BYLAYER
  9
$CECOLOR
 62
   256
  9
$DIMSCALE
 40
1.0
  9
$DIMASZ
 40
0.1875
  9
$DIMEXO
 40
0.0625
  9
$DIMDLI
 40
0.4443307087
  9
$DIMRND
 40
0.0
  9
$DIMDLE
 40
0.0
  9
$DIMEXE
 40
0.125
  9
$DIMTP
 40
0.01
  9
$DIMTM
 40
0.01
  9
$DIMTXT
 40
1.0
  9
$DIMCEN
 40
0.1052362205
  9
$DIMTSZ
 40
0.0
  9
$DIMTOL
 70
     1
  9
$DIMLIM
 70
     0
  9
$DIMTIH
 70
     1
  9
$DIMTOH
 70
     1
  9
$DIMSE1
 70
     0
  9
$DIMSE2
 70
     0
  9
$DIMTAD
 70
     0
  9
$DIMZIN
 70
     0
  9
$DIMBLK
  1

  9
$DIMASO
 70
     1
  9
$DIMSHO
 70
     1
  9
$DIMPOST
  1
\X
  9
$DIMAPOST
  1

  9
$DIMALT
 70
     1
  9
$DIMALTD
 70
     2
  9
$DIMALTF
 40
25.3999999999999986
  9
$DIMLFAC
 40
1.0
  9
$DIMTOFL
 70
     0
  9
$DIMTVP
 40
0.0
  9
$DIMTIX
 70
     0
  9
$DIMSOXD
 70
     0
  9
$DIMSAH
 70
     0
  9
$DIMBLK1
  1

  9
$DIMBLK2
  1

  9
$DIMSTYLE
  2
STANDARD
  9
$DIMCLRD
 70
     0
  9
$DIMCLRE
 70
     0
  9
$DIMCLRT
 70
     0
  9
$DIMTFAC
 40
1.0
  9
$DIMGAP
 40
0.09
  9
$LUNITS
 70
     2
  9
$LUPREC
 70
     4
  9
$SKETCHINC
 40
0.1
  9
$FILLETRAD
 40
0.0
  9
$AUNITS
 70
     0
  9
$AUPREC
 70
     0
  9
$MENU
  1
.
  9
$ELEVATION
 40
0.0
  9
$PELEVATION
 40
0.0
  9
$THICKNESS
 40
0.0
  9
$LIMCHECK
 70
     0
  9
$BLIPMODE
 70
     0
  9
$CHAMFERA
 40
0.0
  9
$CHAMFERB
 40
0.0
  9
$SKPOLY
 70
     0
  9
$TDCREATE
 40
2458172.4620254631154239
  9
$TDUPDATE
 40
2459478.8883564821444452
  9
$TDINDWG
 40
0.1166378819
  9
$TDUSRTIMER
 40
0.1166378819
  9
$USRTIMER
 70
     1
  9
$ANGBASE
 50
0.0
  9
$ANGDIR
 70
     0
  9
$PDMODE
 70
     0
  9
$PDSIZE
 40
0.3125
  9
$PLINEWID
 40
0.0
  9
$COORDS
 70
     1
  9
$SPLFRAME
 70
     0
  9
$SPLINETYPE
 70
     6
  9
$SPLINESEGS
 70
     8
  9
$ATTDIA
 70
     1
  9
$ATTREQ
 70
     1
  9
$HANDLING
 70
     1
  9
$HANDSEED
  5
1320A
  9
$SURFTAB1
 70
     6
  9
$SURFTAB2
 70
     6
  9
$SURFTYPE
 70
     6
  9
$SURFU
 70
     6
  9
$SURFV
 70
     6
  9
$UCSNAME
  2

  9
$UCSORG
 10
0.0
 20
0.0
 30
0.0
  9
$UCSXDIR
 10
1.0
 20
0.0
 30
0.0
  9
$UCSYDIR
 10
0.0
 20
1.0
 30
0.0
  9
$PUCSNAME
  2

  9
$PUCSORG
 10
0.0
 20
0.0
 30
0.0
  9
$PUCSXDIR
 10
1.0
 20
0.0
 30
0.0
  9
$PUCSYDIR
 10
0.0
 20
1.0
 30
0.0
  9
$USERI1
 70
     0
  9
$USERI2
 70
     0
  9
$USERI3
 70
     0
  9
$USERI4
 70
     0
  9
$USERI5
 70
     0
  9
$USERR1
 40
0.0
  9
$USERR2
 40
0.0
  9
$USERR3
 40
0.0
  9
$USERR4
 40
0.0
  9
$USERR5
 40
0.0
  9
$WORLDVIEW
 70
     1
  9
$SHADEDGE
 70
     3
  9
$SHADEDIF
 70
    70
  9
$TILEMODE
 70
     1
  9
$MAXACTVP
 70
    64
  9
$PLIMCHECK
 70
     0
  9
$PEXTMIN
 10
1.0000000000000000E+20
 20
1.0000000000000000E+20
 30
1.0000000000000000E+20
  9
$PEXTMAX
 10
-1.0000000000000000E+20
 20
-1.0000000000000000E+20
 30
-1.0000000000000000E+20
  9
$PLIMMIN
 10
0.0
 20
0.0
  9
$PLIMMAX
 10
12.0
 20
9.0
  9
$UNITMODE
 70
     0
  9
$VISRETAIN
 70
     1
  9
$PLINEGEN
 70
     0
  9
$PSLTSCALE
 70
     1
  0
ENDSEC
  0
SECTION
  2
TABLES
  0
TABLE
  2
VPORT
 70
     1
  0
VPORT
  2
*ACTIVE
 70
     0
 10
0.0
 20
0.0
 11
1.0
 21
1.0
 12
-54.4678252223409629
 22
-37.6341714245744399
 13
0.0
 23
0.0
 14
1.0
 24
1.0
 15
0.0
 25
0.0
 16
0.0
 26
0.0
 36
30.6214257250603907
 17
124.6111586000725993
 27
5.3122741703778242
 37
0.0
 40
7.1358736927952959
 41
2.0410052910052912
 42
50.0
 43
0.0
 44
0.0
 50
0.0
 51
0.0
 71
     0
 72
   100
 73
     1
 74
     1
 75
     0
 76
     0
 77
     0
 78
     1
  0
ENDTAB
  0
TABLE
  2
LTYPE
 70
     2
  0
LTYPE
  2
CONTINUOUS
 70
     0
  3
Solid line
 72
    65
 73
     0
 40
0.0
  0
LTYPE
  2
PHANTOM2
 70
     0
  3
___ _ _ ___ _ _ ___ _ _ ___ _ _
 72
    65
 73
     6
 40
1.25
 49
0.625
 49
-0.125
 49
0.125
 49
-0.125
 49
0.125
 49
-0.125
  0
ENDTAB
  0
TABLE
  2
LAYER
 70
     2
  0
LAYER
  2
0
 70
     0
 62
   255
  6
CONTINUOUS
  0
LAYER
  2
DEFPOINTS
 70
     0
 62
     7
  6
CONTINUOUS
  0
ENDTAB
  0
TABLE
  2
STYLE
 70
     1
  0
STYLE
  2
STANDARD
 70
     0
 40
0.0
 41
0.8
 50
0.0
 71
     0
 42
0.2
  3
txt
  4

  0
ENDTAB
  0
TABLE
  2
VIEW
 70
     0
  0
ENDTAB
  0
TABLE
  2
UCS
 70
     0
  0
ENDTAB
  0
TABLE
  2
APPID
 70
     9
  0
APPID
  2
ACAD
 70
     0
  0
APPID
  2
ACAD_MLEADERVER
 70
     0
  0
APPID
  2
ACAD_EXEMPT_FROM_CAD_STANDARDS
 70
     0
  0
APPID
  2
ACAD_DSTYLE_DIMJAG
 70
     0
  0
APPID
  2
ACAD_DSTYLE_DIMTALN
 70
     0
  0
APPID
  2
ACAD_NAV_VCDISPLAY
 70
     0
  0
APPID
  2
ACAECLAYERSTANDARD
 70
     0
  0
APPID
  2
ACCMTRANSPARENCY
 70
     0
  0
APPID
  2
ACDBATTR
 70
     0
  0
ENDTAB
  0
TABLE
  2
DIMSTYLE
 70
     1
  0
DIMSTYLE
  2
STANDARD
 70
     0
  3

  4

  5

  6

  7

 40
1.0
 41
0.1875
 42
0.0625
 43
0.38
 44
0.125
 45
0.0
 46
0.0
 47
0.01
 48
0.01
140
0.15625
141
0.09
142
0.0
143
25.3999999999999986
144
1.0
145
0.0
146
1.0
147
0.09
 71
     1
 72
     0
 73
     1
 74
     1
 75
     0
 76
     0
 77
     0
 78
     4
170
     0
171
     2
172
     0
173
     0
174
     0
175
     0
176
     0
177
     0
178
     0
  0
ENDTAB
  0
ENDSEC
  0
SECTION
  2
BLOCKS
  0
BLOCK
  8
0
  2
$MODEL_SPACE
 70
     0
 10
0.0
 20
0.0
 30
0.0
  3
$MODEL_SPACE
  1

  0
ENDBLK
  5
21
  8
0
  0
BLOCK
 67
     1
  8
0
  2
$PAPER_SPACE
 70
     0
 10
0.0
 20
0.0
 30
0.0
  3
$PAPER_SPACE
  1

  0
ENDBLK
  5
1D
 67
     1
  8
0
  0
BLOCK
  8
0
  2
A$C3371FE45
 70
     2
 10
0.0
 20
0.0
 30
0.0
  3
A$C3371FE45
  1

  0
LINE
  5
11B89
  8
0
 10
6.256676716583029
 20
0.0000000251709968
 30
0.0
 11
8.2424159359803681
 21
0.0000000251706416
 31
0.0
  0
LINE
  5
11B8A
  8
0
 10
10.9700131766817002
 20
0.0000000251706416
 30
0.0
 11
12.9778871924817008
 21
0.0000000251706416
 31
0.0
  0
LINE
  5
11B8B
  8
0
 10
12.9778871924817008
 20
0.3937008125706418
 30
0.0
 11
10.9700131766817002
 21
0.3937008125706418
 31
0.0
  0
LINE
  5
11B8C
  8
0
 10
12.9778871924817008
 20
0.0000000251706416
 30
0.0
 11
12.9778871924817008
 21
0.3937008125706418
 31
0.0
  0
LINE
  5
11B8D
  8
0
 10
10.9700131766817002
 20
0.0000000251706416
 30
0.0
 11
10.9700131766817002
 21
0.3937008125706418
 31
0.0
  0
LINE
  5
11B8E
  8
0
 10
11.2849738065790905
 20
0.3937008125706418
 30
0.0
 11
11.2849738065790905
 21
1.7913386078706419
 31
0.0
  0
LINE
  5
11B8F
  8
0
 10
11.2849738065790905
 20
1.8267716787706401
 30
0.0
 11
11.2849738065790905
 21
3.1571876611999441
 31
0.0
  0
ARC
  5
11B90
  8
0
 10
11.3046588883520602
 20
3.1571876609104268
 30
0.0
 40
0.0196850817729775
 50
90.2945585117478373
 51
179.9999991573162106
  0
ARC
  5
11B91
  8
0
 10
4793.4381191049806148
 20
-930163.6267838309286162
 30
0.0
 40
930179.0964247698429972
 50
90.2943684399197082
 51
90.2945640019149636
  0
ARC
  5
11B92
  8
0
 10
14.4794274831826399
 20
3.173519920489162
 30
0.0
 40
0.0196651953035639
 50
349.7800791426112141
 51
359.9928908110014163
  0
ARC
  5
11B93
  8
0
 10
14.4794237080654593
 20
3.1735204853637842
 30
0.0
 40
0.0196689704989077
 50
359.9912466937627187
 51
90.0582556628204145
  0
ARC
  5
11B94
  8
0
 10
14.2232019972939394
 20
3.2166004833330741
 30
0.0
 40
0.2794858523332843
 50
333.0618368879182185
 51
350.4082765006779141
  0
ARC
  5
11B95
  8
0
 10
14.27478188367391
 20
3.198519295117829
 30
0.0
 40
0.2254278406323066
 50
298.8049737528679088
 51
331.2193704317857055
  0
ARC
  5
11B96
  8
0
 10
14.1188379726788291
 20
3.541074899954324
 30
0.0
 40
0.6014068794297983
 50
276.1566551248844803
 51
296.0978046693427927
  0
ARC
  5
11B97
  8
0
 10
13.7656391697629896
 20
7.5905950885674036
 30
0.0
 40
4.6661912804915611
 50
271.1664175152747021
 51
275.1357543185737882
  0
ARC
  5
11B98
  8
0
 10
15.07349534961015
 20
-40.006943886725189
 30
0.0
 40
42.9494433957522403
 50
91.6182171907740752
 51
92.2553280030393381
  0
ARC
  5
11B99
  8
0
 10
13.3716056994254995
 20
1.8001829210362561
 30
0.0
 40
1.109108973189725
 50
89.3949767783051215
 51
109.0296269050094935
  0
ARC
  5
11B9A
  8
0
 10
13.1394174790232103
 20
2.4879019769798658
 30
0.0
 40
0.3832963586318566
 50
109.7376607333707028
 51
143.7676379876386079
  0
ARC
  5
11B9B
  8
0
 10
13.4124142393776395
 20
2.2608820512908632
 30
0.0
 40
0.7380064505552242
 50
142.0778443671354978
 51
174.3276424678138881
  0
ARC
  5
11B9C
  8
0
 10
14.5484700812559407
 20
2.0947107655640549
 30
0.0
 40
1.885670714683658
 50
172.7149000228301077
 51
180.7040492148537112
  0
ARC
  5
11B9D
  8
0
 10
501.344466654022483
 20
1.9491559746366169
 30
0.0
 40
488.6815402512277728
 50
179.9856509748628923
 51
180.014349025136994
  0
LINE
  5
11B9E
  8
0
 10
12.6629417276175804
 20
1.8267716787706401
 30
0.0
 11
11.2849738065790905
 21
1.8267716787706401
 31
0.0
  0
LINE
  5
11B9F
  8
0
 10
11.2849738065790905
 20
1.7913386078706419
 30
0.0
 11
12.6629265625816991
 21
1.7913386078706419
 31
0.0
  0
LINE
  5
11BA0
  8
0
 10
12.6629265625816991
 20
1.7913386078706419
 30
0.0
 11
12.6629265625816991
 21
0.3937008125706418
 31
0.0
  0
LINE
  5
11BA1
  8
0
 10
11.3932415231817004
 20
1.7913386078706419
 30
0.0
 11
11.3932415231817004
 21
1.8267716787706401
 31
0.0
  0
LINE
  5
11BA2
  8
0
 10
12.5546588459817006
 20
1.8267716787706401
 30
0.0
 11
12.5546588459817006
 21
1.7913386078706419
 31
0.0
  0
LINE
  5
11BA3
  8
0
 10
8.2424159359803681
 20
0.3937008125706418
 30
0.0
 11
8.2425387740789802
 21
4.1220468345459969
 31
0.0
  0
ARC
  5
11BA4
  8
0
 10
8.2108857618436275
 20
4.1218903215337219
 30
0.0
 40
0.0316533991820561
 50
0.2833044999573057
 51
89.7158622342073357
  0
LINE
  5
11BA5
  8
0
 10
8.2110409479817008
 20
4.1535433322706403
 30
0.0
 11
6.2880387353427727
 21
4.1535433313900709
 31
0.0
  0
ARC
  5
11BA6
  8
0
 10
6.2880387353571621
 20
4.1221117189602232
 30
0.0
 40
0.0314316124298477
 50
90.0000000262362647
 51
180.1192291472648037
  0
ARC
  5
11BA7
  8
0
 10
-795.2331819529860013
 20
2.242927505776084
 30
0.0
 40
801.4919919684340357
 50
359.867805318145372
 51
0.1343315672477743
  0
ARC
  5
11BA8
  8
0
 10
12.8768784177939803
 20
3.193524024317405
 30
0.0
 40
6.6194031038593524
 50
175.0825261059098921
 51
179.2617738301422037
  0
ARC
  5
11BA9
  8
0
 10
6.9379116554392786
 20
3.7044976887927339
 30
0.0
 40
0.6584954305145299
 50
163.7819935831840041
 51
175.0825261059098921
  0
ARC
  5
11BAA
  8
0
 10
6.3620421841864783
 20
3.875483616441961
 30
0.0
 40
0.0578837377240333
 50
119.2746391932196985
 51
167.0953189237355048
  0
ARC
  5
11BAB
  8
0
 10
6.350189724835225
 20
3.8863204295417582
 30
0.0
 40
0.0429319407035314
 50
92.2414177879008719
 51
112.5334270098472018
  0
ARC
  5
11BAC
  8
0
 10
6.444194896655361
 20
-43.6981519161304774
 30
0.0
 40
47.6274675549806403
 50
89.9665879908433368
 51
90.1151080970722518
  0
LINE
  5
11BAD
  8
0
 10
6.4719688322817026
 20
3.9293075406706421
 30
0.0
 11
8.1223650599817034
 21
3.92931576927064
 31
0.0
  0
ARC
  5
11BAE
  8
0
 10
8.1343125646864323
 20
3.3124195203430911
 30
0.0
 40
0.6170155623581652
 50
88.4934147503726649
 51
91.1093127924954587
  0
ARC
  5
11BAF
  8
0
 10
8.1494781404489274
 20
3.8890368821994592
 30
0.0
 40
0.0401988005677269
 50
65.4788468250836218
 51
88.4934147503730628
  0
ARC
  5
11BB0
  8
0
 10
8.1500455359638764
 20
3.8902807009058149
 30
0.0
 40
0.0388316785378169
 50
30.3523301629094995
 51
65.4788468250822859
  0
ARC
  5
11BB1
  8
0
 10
8.0641038660658211
 20
3.839955091157861
 30
0.0
 40
0.1384240357815832
 50
11.5939096877570904
 51
30.3523301629089701
  0
ARC
  5
11BB2
  8
0
 10
6.5623048638694073
 20
3.531846386596857
 30
0.0
 40
1.671503034667287
 50
8.8318020916505624
 51
11.5939096877570904
  0
ARC
  5
11BB3
  8
0
 10
0.4979434625475037
 20
3.1191148901890311
 30
0.0
 40
7.745025116816536
 50
0.6087884600886162
 51
4.9579788737543486
  0
ARC
  5
11BB4
  8
0
 10
7.2490364628872612
 20
2.489858559641803
 30
0.0
 40
0.9617105694291453
 50
89.9696238942081976
 51
92.1462900020122362
  0
ARC
  5
11BB5
  8
0
 10
7.2440291504824472
 20
2.5439099628408779
 30
0.0
 40
0.9075144472437681
 50
91.9581783431937652
 51
95.5549351569532632
  0
ARC
  5
11BB6
  8
0
 10
7.2239476816029997
 20
2.704554711451546
 30
0.0
 40
0.7456934223594988
 50
95.2140339675792546
 51
102.1723343287423944
  0
ARC
  5
11BB7
  8
0
 10
7.1615803418254549
 20
2.990215027413746
 30
0.0
 40
0.4533056360671263
 50
102.0796986774159052
 51
109.6833064590713036
  0
ARC
  5
11BB8
  8
0
 10
7.0811238580722451
 20
3.210481549976393
 30
0.0
 40
0.2188157360114574
 50
109.2735337279303991
 51
122.3812121732915017
  0
ARC
  5
11BB9
  8
0
 10
7.0022871726354969
 20
3.3320208802912918
 30
0.0
 40
0.073969314695926
 50
121.2289444051971969
 51
149.6471440764813963
  0
ARC
  5
11BBA
  8
0
 10
6.9660438226550161
 20
3.3543030992736962
 30
0.0
 40
0.0314473785149762
 50
151.3114786943797014
 51
196.1492670360819943
  0
ARC
  5
11BBB
  8
0
 10
6.9847698553755251
 20
3.3622677773606919
 30
0.0
 40
0.0517074825056866
 50
198.8561079781943022
 51
231.6239687944056982
  0
ARC
  5
11BBC
  8
0
 10
7.080462060903101
 20
3.4896267850979319
 30
0.0
 40
0.2109974616367204
 50
232.7234739666270968
 51
254.3388601336986028
  0
ARC
  5
11BBD
  8
0
 10
7.1900175368610491
 20
3.8257328058012829
 30
0.0
 40
0.5643927500662295
 50
252.8405670354285917
 51
261.0949247921842016
  0
ARC
  5
11BBE
  8
0
 10
7.2424948274813872
 20
4.1473887167287273
 30
0.0
 40
0.8902972129565309
 50
260.9627971781811766
 51
267.8430333538742047
  0
ARC
  5
11BBF
  8
0
 10
7.2494321330842411
 20
4.2676002659529004
 30
0.0
 40
1.0106875580584671
 50
267.7065265028525118
 51
270.0064736012877233
  0
LINE
  5
11BC0
  8
0
 10
7.2118593663817023
 20
3.4430228055706422
 30
0.0
 11
7.231544405761781
 21
3.442031227561948
 31
0.0
  0
LINE
  5
11BC1
  8
0
 10
7.231544405761781
 20
3.442031227561948
 30
0.0
 11
7.2413869254558838
 21
3.4286133260195539
 31
0.0
  0
LINE
  5
11BC2
  8
0
 10
7.2413869254558838
 20
3.4286133260195539
 30
0.0
 11
7.2315444057817038
 21
3.4162844681414231
 31
0.0
  0
LINE
  5
11BC3
  8
0
 10
7.2315444057817038
 20
3.4162844681414231
 30
0.0
 11
7.2118593663817023
 21
3.417246737870641
 31
0.0
  0
LINE
  5
11BC4
  8
0
 10
7.2118593663817023
 20
3.417246737870641
 30
0.0
 11
7.2020168467817021
 21
3.430566516970639
 31
0.0
  0
LINE
  5
11BC5
  8
0
 10
7.2020168467817021
 20
3.430566516970639
 30
0.0
 11
7.2118593663817023
 21
3.4430228055706422
 31
0.0
  0
LINE
  5
11BC6
  8
0
 10
7.2118593663817023
 20
3.4430228055706422
 30
0.0
 11
7.2118593663817023
 21
3.417246737870641
 31
0.0
  0
LINE
  5
11BC7
  8
0
 10
7.2315444057817038
 20
3.4162844681414231
 30
0.0
 11
7.231544405761781
 21
3.442031227561948
 31
0.0
  0
LINE
  5
11BC8
  8
0
 10
7.1840205167817004
 20
3.424332831365418
 30
0.0
 11
7.2037055561817018
 21
3.422390712140682
 31
0.0
  0
LINE
  5
11BC9
  8
0
 10
7.2037055561817018
 20
3.422390712140682
 30
0.0
 11
7.213548075823268
 21
3.4094954025530688
 31
0.0
  0
LINE
  5
11BCA
  8
0
 10
7.213548075823268
 20
3.4094954025530688
 30
0.0
 11
7.2037055561817018
 21
3.398596621539141
 31
0.0
  0
LINE
  5
11BCB
  8
0
 10
7.2037055561817018
 20
3.398596621539141
 30
0.0
 11
7.1840205167490856
 21
3.400489485947364
 31
0.0
  0
LINE
  5
11BCC
  8
0
 10
7.1840205167490856
 20
3.400489485947364
 30
0.0
 11
7.1741779970793678
 21
3.4133294572266411
 31
0.0
  0
LINE
  5
11BCD
  8
0
 10
7.1741779970793678
 20
3.4133294572266411
 30
0.0
 11
7.1840205167817004
 21
3.424332831365418
 31
0.0
  0
LINE
  5
11BCE
  8
0
 10
7.1840205167817004
 20
3.424332831365418
 30
0.0
 11
7.1840205167490856
 21
3.400489485947364
 31
0.0
  0
LINE
  5
11BCF
  8
0
 10
7.2037055561817018
 20
3.398596621539141
 30
0.0
 11
7.2037055561817018
 21
3.422390712140682
 31
0.0
  0
LINE
  5
11BD0
  8
0
 10
7.1660803226069438
 20
3.4480705969037611
 30
0.0
 11
7.1758667065035624
 21
3.446665748707328
 31
0.0
  0
LINE
  5
11BD1
  8
0
 10
7.1758667065035624
 20
3.446665748707328
 30
0.0
 11
7.1857092261311797
 21
3.432190315185081
 31
0.0
  0
LINE
  5
11BD2
  8
0
 10
7.1857092261311797
 20
3.432190315185081
 30
0.0
 11
7.1758667064817061
 21
3.4207810439627009
 31
0.0
  0
LINE
  5
11BD3
  8
0
 10
7.1758667064817061
 20
3.4207810439627009
 30
0.0
 11
7.1561816670569982
 21
3.42369886205854
 31
0.0
  0
LINE
  5
11BD4
  8
0
 10
7.1561816670569982
 20
3.42369886205854
 30
0.0
 11
7.146339147446148
 21
3.4381148186513029
 31
0.0
  0
LINE
  5
11BD5
  8
0
 10
7.146339147446148
 20
3.4381148186513029
 30
0.0
 11
7.1561816670817029
 21
3.4471625806706392
 31
0.0
  0
LINE
  5
11BD6
  8
0
 10
7.1561816670817029
 20
3.4471625806706392
 30
0.0
 11
7.1561816670569982
 21
3.42369886205854
 31
0.0
  0
LINE
  5
11BD7
  8
0
 10
7.1758667064817061
 20
3.4207810439627009
 30
0.0
 11
7.1758667065035624
 21
3.446665748707328
 31
0.0
  0
LINE
  5
11BD8
  8
0
 10
7.128342817481701
 20
3.4336462872342919
 30
0.0
 11
7.1480278568817042
 21
3.429697766045158
 31
0.0
  0
LINE
  5
11BD9
  8
0
 10
7.1480278568817042
 20
3.429697766045158
 30
0.0
 11
7.1577487292329058
 21
3.4158936782560612
 31
0.0
  0
LINE
  5
11BDA
  8
0
 10
7.1577487292329058
 20
3.4158936782560612
 30
0.0
 11
7.1479062095913397
 21
3.4057380556444161
 31
0.0
  0
LINE
  5
11BDB
  8
0
 10
7.1479062095913397
 20
3.4057380556444161
 30
0.0
 11
7.1283428174543308
 21
3.4095616299176612
 31
0.0
  0
LINE
  5
11BDC
  8
0
 10
7.1283428174543308
 20
3.4095616299176612
 30
0.0
 11
7.118500297802818
 21
3.423517876150437
 31
0.0
  0
LINE
  5
11BDD
  8
0
 10
7.118500297802818
 20
3.423517876150437
 30
0.0
 11
7.128342817481701
 21
3.4336462872342919
 31
0.0
  0
LINE
  5
11BDE
  8
0
 10
7.128342817481701
 20
3.4336462872342919
 30
0.0
 11
7.1283428174543308
 21
3.4095616299176612
 31
0.0
  0
LINE
  5
11BDF
  8
0
 10
7.1479062095913397
 20
3.4057380556444161
 30
0.0
 11
7.1480278568817042
 21
3.429697766045158
 31
0.0
  0
LINE
  5
11BE0
  8
0
 10
7.1561816670817029
 20
3.40854518669531
 30
0.0
 11
7.1758667065873922
 21
3.4056750167229728
 31
0.0
  0
LINE
  5
11BE1
  8
0
 10
7.1758667065873922
 20
3.4056750167229728
 30
0.0
 11
7.1857092262289513
 21
3.3932414576978149
 31
0.0
  0
LINE
  5
11BE2
  8
0
 10
7.1857092262289513
 20
3.3932414576978149
 30
0.0
 11
7.1758667065873922
 21
3.383697301110419
 31
0.0
  0
LINE
  5
11BE3
  8
0
 10
7.1758667065873922
 20
3.383697301110419
 30
0.0
 11
7.1565341786917989
 21
3.3864490430476151
 31
0.0
  0
LINE
  5
11BE4
  8
0
 10
7.1565341786917989
 20
3.3864490430476151
 30
0.0
 11
7.1463391474287539
 21
3.3989186594711032
 31
0.0
  0
LINE
  5
11BE5
  8
0
 10
7.1463391474287539
 20
3.3989186594711032
 30
0.0
 11
7.1561816670817029
 21
3.40854518669531
 31
0.0
  0
LINE
  5
11BE6
  8
0
 10
7.1561816670817029
 20
3.40854518669531
 30
0.0
 11
7.1565341786917989
 21
3.3864490430476151
 31
0.0
  0
LINE
  5
11BE7
  8
0
 10
7.1758667065873922
 20
3.383697301110419
 30
0.0
 11
7.1758667065873922
 21
3.4056750167229728
 31
0.0
  0
LINE
  5
11BE8
  8
0
 10
7.1005039677817052
 20
3.420496959122985
 30
0.0
 11
7.1201890071816996
 21
3.415610121434582
 31
0.0
  0
LINE
  5
11BE9
  8
0
 10
7.1201890071816996
 20
3.415610121434582
 30
0.0
 11
7.1300315268444621
 21
3.402080769253323
 31
0.0
  0
LINE
  5
11BEA
  8
0
 10
7.1300315268444621
 20
3.402080769253323
 30
0.0
 11
7.1201890071816996
 21
3.3934142852154241
 31
0.0
  0
LINE
  5
11BEB
  8
0
 10
7.1201890071816996
 20
3.3934142852154241
 30
0.0
 11
7.1005039678193782
 21
3.398190789646172
 31
0.0
  0
LINE
  5
11BEC
  8
0
 10
7.1005039678193782
 20
3.398190789646172
 30
0.0
 11
7.0906614481750116
 21
3.4117425431810382
 31
0.0
  0
LINE
  5
11BED
  8
0
 10
7.0906614481750116
 20
3.4117425431810382
 30
0.0
 11
7.1005039677817052
 21
3.420496959122985
 31
0.0
  0
LINE
  5
11BEE
  8
0
 10
7.1005039677817052
 20
3.420496959122985
 30
0.0
 11
7.1005039678193782
 21
3.398190789646172
 31
0.0
  0
LINE
  5
11BEF
  8
0
 10
7.1201890071816996
 20
3.3934142852154241
 30
0.0
 11
7.1201890071816996
 21
3.415610121434582
 31
0.0
  0
LINE
  5
11BF0
  8
0
 10
7.1283428175051418
 20
3.3955397979087638
 30
0.0
 11
7.1480278568817042
 21
3.39174849247064
 31
0.0
  0
LINE
  5
11BF1
  8
0
 10
7.1480278568817042
 20
3.39174849247064
 30
0.0
 11
7.1578703765356693
 21
3.3797278170077472
 31
0.0
  0
LINE
  5
11BF2
  8
0
 10
7.1578703765356693
 20
3.3797278170077472
 30
0.0
 11
7.1480278568729139
 21
3.3710613329698478
 31
0.0
  0
LINE
  5
11BF3
  8
0
 10
7.1480278568729139
 20
3.3710613329698478
 30
0.0
 11
7.128342817481701
 21
3.3752098139736009
 31
0.0
  0
LINE
  5
11BF4
  8
0
 10
7.128342817481701
 20
3.3752098139736009
 30
0.0
 11
7.1185002978019716
 21
3.3872401530193841
 31
0.0
  0
LINE
  5
11BF5
  8
0
 10
7.1185002978019716
 20
3.3872401530193841
 30
0.0
 11
7.1283428175051418
 21
3.3955397979087638
 31
0.0
  0
LINE
  5
11BF6
  8
0
 10
7.1283428175051418
 20
3.3955397979087638
 30
0.0
 11
7.128342817481701
 21
3.3752098139736009
 31
0.0
  0
LINE
  5
11BF7
  8
0
 10
7.1480278568729139
 20
3.3710613329698478
 30
0.0
 11
7.1480278568817042
 21
3.39174849247064
 31
0.0
  0
LINE
  5
11BF8
  8
0
 10
7.1005039678485806
 20
3.3852463630008631
 30
0.0
 11
7.119790043150906
 21
3.380615314916692
 31
0.0
  0
LINE
  5
11BF9
  8
0
 10
7.119790043150906
 20
3.380615314916692
 30
0.0
 11
7.1300315269069543
 21
3.3688788510006971
 31
0.0
  0
LINE
  5
11BFA
  8
0
 10
7.1300315269069543
 20
3.3688788510006971
 30
0.0
 11
7.1201555852699983
 21
3.3619215603751078
 31
0.0
  0
LINE
  5
11BFB
  8
0
 10
7.1201555852699983
 20
3.3619215603751078
 30
0.0
 11
7.1005039677611492
 21
3.3665621395173408
 31
0.0
  0
LINE
  5
11BFC
  8
0
 10
7.1005039677611492
 20
3.3665621395173408
 30
0.0
 11
7.0906614482374968
 21
3.3785406249284118
 31
0.0
  0
LINE
  5
11BFD
  8
0
 10
7.0906614482374968
 20
3.3785406249284118
 30
0.0
 11
7.1005039678485806
 21
3.3852463630008631
 31
0.0
  0
LINE
  5
11BFE
  8
0
 10
7.1005039678485806
 20
3.3852463630008631
 30
0.0
 11
7.1005039677611492
 21
3.3665621395173408
 31
0.0
  0
LINE
  5
11BFF
  8
0
 10
7.1201555852699983
 20
3.3619215603751078
 30
0.0
 11
7.119790043150906
 21
3.380615314916692
 31
0.0
  0
LINE
  5
11C00
  8
0
 10
7.0726651181391338
 20
3.377638517387854
 30
0.0
 11
7.0917900911501226
 21
3.3721205463358821
 31
0.0
  0
LINE
  5
11C01
  8
0
 10
7.0917900911501226
 20
3.3721205463358821
 30
0.0
 11
7.1021926772450001
 21
3.3606608982722861
 31
0.0
  0
LINE
  5
11C02
  8
0
 10
7.1021926772450001
 20
3.3606608982722861
 30
0.0
 11
7.0923501575817047
 21
3.3549618054706398
 31
0.0
  0
LINE
  5
11C03
  8
0
 10
7.0923501575817047
 20
3.3549618054706398
 30
0.0
 11
7.0726651182135072
 21
3.3605615914874489
 31
0.0
  0
LINE
  5
11C04
  8
0
 10
7.0726651182135072
 20
3.3605615914874489
 30
0.0
 11
7.0628225984993156
 21
3.371929758999936
 31
0.0
  0
LINE
  5
11C05
  8
0
 10
7.0628225984993156
 20
3.371929758999936
 30
0.0
 11
7.0726651181391338
 21
3.377638517387854
 31
0.0
  0
LINE
  5
11C06
  8
0
 10
7.0726651181391338
 20
3.377638517387854
 30
0.0
 11
7.0726651182135072
 21
3.3605615914874489
 31
0.0
  0
LINE
  5
11C07
  8
0
 10
7.0923501575817047
 20
3.3549618054706398
 30
0.0
 11
7.0917900911501226
 21
3.3721205463358821
 31
0.0
  0
LINE
  5
11C08
  8
0
 10
7.0726651181817033
 20
3.4101489237520819
 30
0.0
 11
7.0922492154648529
 21
3.404338315050313
 31
0.0
  0
LINE
  5
11C09
  8
0
 10
7.0922492154648529
 20
3.404338315050313
 30
0.0
 11
7.1021926772308879
 21
3.3911724207620391
 31
0.0
  0
LINE
  5
11C0A
  8
0
 10
7.1021926772308879
 20
3.3911724207620391
 30
0.0
 11
7.0923501575054431
 21
3.38381580719604
 31
0.0
  0
LINE
  5
11C0B
  8
0
 10
7.0923501575054431
 20
3.38381580719604
 30
0.0
 11
7.0726651181817033
 21
3.3895418626706402
 31
0.0
  0
LINE
  5
11C0C
  8
0
 10
7.0726651181817033
 20
3.3895418626706402
 30
0.0
 11
7.0628225985035584
 21
3.40273601361995
 31
0.0
  0
LINE
  5
11C0D
  8
0
 10
7.0628225985035584
 20
3.40273601361995
 30
0.0
 11
7.0726651181817033
 21
3.4101489237520819
 31
0.0
  0
LINE
  5
11C0E
  8
0
 10
7.0726651181817033
 20
3.4101489237520819
 30
0.0
 11
7.0726651181817033
 21
3.3895418626706402
 31
0.0
  0
LINE
  5
11C0F
  8
0
 10
7.0923501575054431
 20
3.38381580719604
 30
0.0
 11
7.0922492154648529
 21
3.404338315050313
 31
0.0
  0
LINE
  5
11C10
  8
0
 10
7.044857067222118
 20
3.4025618779234641
 30
0.0
 11
7.064511307881701
 21
3.395754235579346
 31
0.0
  0
LINE
  5
11C11
  8
0
 10
7.064511307881701
 20
3.395754235579346
 30
0.0
 11
7.0740790227317021
 21
3.383311359670639
 31
0.0
  0
LINE
  5
11C12
  8
0
 10
7.0740790227317021
 20
3.383311359670639
 30
0.0
 11
7.064511307934068
 21
3.3769055115180491
 31
0.0
  0
LINE
  5
11C13
  8
0
 10
7.064511307934068
 20
3.3769055115180491
 30
0.0
 11
7.0448262684816987
 21
3.3836141143707219
 31
0.0
  0
LINE
  5
11C14
  8
0
 10
7.0448262684816987
 20
3.3836141143707219
 30
0.0
 11
7.034983748819144
 21
3.3964916611358862
 31
0.0
  0
LINE
  5
11C15
  8
0
 10
7.034983748819144
 20
3.3964916611358862
 30
0.0
 11
7.044857067222118
 21
3.4025618779234641
 31
0.0
  0
LINE
  5
11C16
  8
0
 10
7.044857067222118
 20
3.4025618779234641
 30
0.0
 11
7.0448262684816987
 21
3.3836141143707219
 31
0.0
  0
LINE
  5
11C17
  8
0
 10
7.064511307934068
 20
3.3769055115180491
 30
0.0
 11
7.064511307881701
 21
3.395754235579346
 31
0.0
  0
LINE
  5
11C18
  8
0
 10
7.0169874188817039
 20
3.3977866941706401
 30
0.0
 11
7.0366724582515232
 21
3.3899427100719168
 31
0.0
  0
LINE
  5
11C19
  8
0
 10
7.0366724582515232
 20
3.3899427100719168
 30
0.0
 11
7.0465149778869849
 21
3.3774635037931091
 31
0.0
  0
LINE
  5
11C1A
  8
0
 10
7.0465149778869849
 20
3.3774635037931091
 30
0.0
 11
7.0366724581817053
 21
3.3727098395695019
 31
0.0
  0
LINE
  5
11C1B
  8
0
 10
7.0366724581817053
 20
3.3727098395695019
 30
0.0
 11
7.0169874188502774
 21
3.3804504933444011
 31
0.0
  0
LINE
  5
11C1C
  8
0
 10
7.0169874188502774
 20
3.3804504933444011
 30
0.0
 11
7.0071448992312417
 21
3.393048484402033
 31
0.0
  0
LINE
  5
11C1D
  8
0
 10
7.0071448992312417
 20
3.393048484402033
 30
0.0
 11
7.0169874188817039
 21
3.3977866941706401
 31
0.0
  0
LINE
  5
11C1E
  8
0
 10
7.0169874188817039
 20
3.3977866941706401
 30
0.0
 11
7.0169874188502774
 21
3.3804504933444011
 31
0.0
  0
LINE
  5
11C1F
  8
0
 10
7.0366724581817053
 20
3.3727098395695019
 30
0.0
 11
7.0366724582515232
 21
3.3899427100719168
 31
0.0
  0
LINE
  5
11C20
  8
0
 10
7.128342817535497
 20
3.3634464152119641
 30
0.0
 11
7.1480278568817042
 21
3.3597596967706411
 31
0.0
  0
LINE
  5
11C21
  8
0
 10
7.1480278568817042
 20
3.3597596967706411
 30
0.0
 11
7.1578703765027143
 21
3.3494958280246752
 31
0.0
  0
LINE
  5
11C22
  8
0
 10
7.1578703765027143
 20
3.3494958280246752
 30
0.0
 11
7.1480278568399589
 21
3.3428969211897051
 31
0.0
  0
LINE
  5
11C23
  8
0
 10
7.1480278568399589
 20
3.3428969211897051
 30
0.0
 11
7.128342817481701
 21
3.346540629470641
 31
0.0
  0
LINE
  5
11C24
  8
0
 10
7.128342817481701
 20
3.346540629470641
 30
0.0
 11
7.1185002978195859
 21
3.3568260022899841
 31
0.0
  0
LINE
  5
11C25
  8
0
 10
7.1185002978195859
 20
3.3568260022899841
 30
0.0
 11
7.128342817535497
 21
3.3634464152119641
 31
0.0
  0
LINE
  5
11C26
  8
0
 10
7.128342817535497
 20
3.3634464152119641
 30
0.0
 11
7.128342817481701
 21
3.346540629470641
 31
0.0
  0
LINE
  5
11C27
  8
0
 10
7.1480278568399589
 20
3.3428969211897051
 30
0.0
 11
7.1480278568817042
 21
3.3597596967706411
 31
0.0
  0
LINE
  5
11C28
  8
0
 10
7.1561816671428033
 20
3.3736980873663991
 30
0.0
 11
7.1758667065715747
 21
3.370564018448778
 31
0.0
  0
LINE
  5
11C29
  8
0
 10
7.1758667065715747
 20
3.370564018448778
 30
0.0
 11
7.1857092261925848
 21
3.3603001497028151
 31
0.0
  0
LINE
  5
11C2A
  8
0
 10
7.1857092261925848
 20
3.3603001497028151
 30
0.0
 11
7.1758667065404751
 21
3.3524520708453198
 31
0.0
  0
LINE
  5
11C2B
  8
0
 10
7.1758667065404751
 20
3.3524520708453198
 30
0.0
 11
7.1561816670817029
 21
3.3551873565706418
 31
0.0
  0
LINE
  5
11C2C
  8
0
 10
7.1561816670817029
 20
3.3551873565706418
 30
0.0
 11
7.146339147451612
 21
3.3658109413655311
 31
0.0
  0
LINE
  5
11C2D
  8
0
 10
7.146339147451612
 20
3.3658109413655311
 30
0.0
 11
7.1561816671428033
 21
3.3736980873663991
 31
0.0
  0
LINE
  5
11C2E
  8
0
 10
7.1561816671428033
 20
3.3736980873663991
 30
0.0
 11
7.1561816670817029
 21
3.3551873565706418
 31
0.0
  0
LINE
  5
11C2F
  8
0
 10
7.1758667065404751
 20
3.3524520708453198
 30
0.0
 11
7.1758667065715747
 21
3.370564018448778
 31
0.0
  0
LINE
  5
11C30
  8
0
 10
7.184020516910933
 20
3.3865934912379632
 30
0.0
 11
7.2037055561817018
 21
3.384726344723457
 31
0.0
  0
LINE
  5
11C31
  8
0
 10
7.2037055561817018
 20
3.384726344723457
 30
0.0
 11
7.2135480758815609
 21
3.373714899947486
 31
0.0
  0
LINE
  5
11C32
  8
0
 10
7.2135480758815609
 20
3.373714899947486
 30
0.0
 11
7.2037055561817018
 21
3.3645919115319312
 31
0.0
  0
LINE
  5
11C33
  8
0
 10
7.2037055561817018
 20
3.3645919115319312
 30
0.0
 11
7.1840205167817004
 21
3.366425847271489
 31
0.0
  0
LINE
  5
11C34
  8
0
 10
7.1840205167817004
 20
3.366425847271489
 30
0.0
 11
7.174177997117539
 21
3.3774155516998681
 31
0.0
  0
LINE
  5
11C35
  8
0
 10
7.174177997117539
 20
3.3774155516998681
 30
0.0
 11
7.184020516910933
 21
3.3865934912379632
 31
0.0
  0
LINE
  5
11C36
  8
0
 10
7.184020516910933
 20
3.3865934912379632
 30
0.0
 11
7.1840205167817004
 21
3.366425847271489
 31
0.0
  0
LINE
  5
11C37
  8
0
 10
7.2037055561817018
 20
3.3645919115319312
 30
0.0
 11
7.2037055561817018
 21
3.384726344723457
 31
0.0
  0
LINE
  5
11C38
  8
0
 10
7.2118593665058688
 20
3.4021977197498501
 30
0.0
 11
7.2315444057817038
 21
3.4012508395859942
 31
0.0
  0
LINE
  5
11C39
  8
0
 10
7.2315444057817038
 20
3.4012508395859942
 30
0.0
 11
7.2413869254780669
 21
3.3898111595037612
 31
0.0
  0
LINE
  5
11C3A
  8
0
 10
7.2413869254780669
 20
3.3898111595037612
 30
0.0
 11
7.2315444057817038
 21
3.379367677878093
 31
0.0
  0
LINE
  5
11C3B
  8
0
 10
7.2315444057817038
 20
3.379367677878093
 30
0.0
 11
7.2118593663817023
 21
3.3802944516011202
 31
0.0
  0
LINE
  5
11C3C
  8
0
 10
7.2118593663817023
 20
3.3802944516011202
 30
0.0
 11
7.2020168467733612
 21
3.391684491987351
 31
0.0
  0
LINE
  5
11C3D
  8
0
 10
7.2020168467733612
 20
3.391684491987351
 30
0.0
 11
7.2118593665058688
 21
3.4021977197498501
 31
0.0
  0
LINE
  5
11C3E
  8
0
 10
7.2118593665058688
 20
3.4021977197498501
 30
0.0
 11
7.2118593663817023
 21
3.3802944516011202
 31
0.0
  0
LINE
  5
11C3F
  8
0
 10
7.2315444057817038
 20
3.379367677878093
 30
0.0
 11
7.2315444057817038
 21
3.4012508395859942
 31
0.0
  0
LINE
  5
11C40
  8
0
 10
7.2118593663817023
 20
3.3675577798987391
 30
0.0
 11
7.2315266274362813
 21
3.366641927859539
 31
0.0
  0
LINE
  5
11C41
  8
0
 10
7.2315266274362813
 20
3.366641927859539
 30
0.0
 11
7.2413869254250613
 21
3.356968747105781
 31
0.0
  0
LINE
  5
11C42
  8
0
 10
7.2413869254250613
 20
3.356968747105781
 30
0.0
 11
7.2315444059001521
 21
3.348233112533431
 31
0.0
  0
LINE
  5
11C43
  8
0
 10
7.2315444059001521
 20
3.348233112533431
 30
0.0
 11
7.2118593664495299
 21
3.349136343067574
 31
0.0
  0
LINE
  5
11C44
  8
0
 10
7.2118593664495299
 20
3.349136343067574
 30
0.0
 11
7.2020168467200634
 21
3.358788223768193
 31
0.0
  0
LINE
  5
11C45
  8
0
 10
7.2020168467200634
 20
3.358788223768193
 30
0.0
 11
7.2118593663817023
 21
3.3675577798987391
 31
0.0
  0
LINE
  5
11C46
  8
0
 10
7.2118593663817023
 20
3.3675577798987391
 30
0.0
 11
7.2118593664495299
 21
3.349136343067574
 31
0.0
  0
LINE
  5
11C47
  8
0
 10
7.2315444059001521
 20
3.348233112533431
 30
0.0
 11
7.2315266274362813
 21
3.366641927859539
 31
0.0
  0
LINE
  5
11C48
  8
0
 10
7.1840205168340461
 20
3.3547445977948338
 30
0.0
 11
7.2037055561866898
 21
3.352927481720005
 31
0.0
  0
LINE
  5
11C49
  8
0
 10
7.2037055561866898
 20
3.352927481720005
 30
0.0
 11
7.2135480758100812
 21
3.3436251754036048
 31
0.0
  0
LINE
  5
11C4A
  8
0
 10
7.2135480758100812
 20
3.3436251754036048
 30
0.0
 11
7.2036395746673199
 21
3.3361478575420089
 31
0.0
  0
LINE
  5
11C4B
  8
0
 10
7.2036395746673199
 20
3.3361478575420089
 30
0.0
 11
7.1840205167817004
 21
3.3379394113607499
 31
0.0
  0
LINE
  5
11C4C
  8
0
 10
7.1840205167817004
 20
3.3379394113607499
 30
0.0
 11
7.1741779971506432
 21
3.3472386361720292
 31
0.0
  0
LINE
  5
11C4D
  8
0
 10
7.1741779971506432
 20
3.3472386361720292
 30
0.0
 11
7.1840205168340461
 21
3.3547445977948338
 31
0.0
  0
LINE
  5
11C4E
  8
0
 10
7.1840205168340461
 20
3.3547445977948338
 30
0.0
 11
7.1840205167817004
 21
3.3379394113607499
 31
0.0
  0
LINE
  5
11C4F
  8
0
 10
7.2036395746673199
 20
3.3361478575420089
 30
0.0
 11
7.2037055561866898
 21
3.352927481720005
 31
0.0
  0
LINE
  5
11C50
  8
0
 10
7.178445738881706
 20
3.449047896470641
 30
0.0
 11
7.1840205167805493
 21
3.4406943808386852
 31
0.0
  0
LINE
  5
11C51
  8
0
 10
7.1840205167805493
 20
3.4406943808386852
 30
0.0
 11
7.2037055561862919
 21
3.4387147456605258
 31
0.0
  0
LINE
  5
11C52
  8
0
 10
7.2037055561862919
 20
3.4387147456605258
 30
0.0
 11
7.2131510768558149
 21
3.4508993800137091
 31
0.0
  0
LINE
  5
11C53
  8
0
 10
7.2037028416778384
 20
3.4505279975028631
 30
0.0
 11
7.203705556139063
 21
3.4387147456644271
 31
0.0
  0
LINE
  5
11C54
  8
0
 10
7.1840205167873563
 20
3.4406943808286519
 30
0.0
 11
7.1840205167873563
 21
3.4494385313771359
 31
0.0
  0
LINE
  5
11C55
  8
0
 10
7.0981272275062253
 20
3.4395566798034021
 30
0.0
 11
7.1005039677817052
 21
3.4358550250099782
 31
0.0
  0
LINE
  5
11C56
  8
0
 10
7.1005039677817052
 20
3.4358550250099782
 30
0.0
 11
7.1201890071816996
 21
3.4308834273293121
 31
0.0
  0
LINE
  5
11C57
  8
0
 10
7.1201890071816996
 20
3.4308834273293121
 30
0.0
 11
7.1300315268977741
 21
3.4414171808364351
 31
0.0
  0
LINE
  5
11C58
  8
0
 10
7.1300315268977741
 20
3.4414171808364351
 30
0.0
 11
7.1283079280347499
 21
3.4440895096102468
 31
0.0
  0
LINE
  5
11C59
  8
0
 10
7.1201890071816996
 20
3.430883427329309
 30
0.0
 11
7.1201890071816996
 21
3.4429941589572688
 31
0.0
  0
LINE
  5
11C5A
  8
0
 10
7.100503967767807
 20
3.4358550249691291
 30
0.0
 11
7.100503967767807
 21
3.4399595861054979
 31
0.0
  0
LINE
  5
11C5B
  8
0
 10
7.0667161208816998
 20
3.4334833200706392
 30
0.0
 11
7.072665118184843
 21
3.4243860158793562
 31
0.0
  0
LINE
  5
11C5C
  8
0
 10
7.072665118184843
 20
3.4243860158793562
 30
0.0
 11
7.0923501575848462
 21
3.4184598467917371
 31
0.0
  0
LINE
  5
11C5D
  8
0
 10
7.0923501575848462
 20
3.4184598467917371
 30
0.0
 11
7.1021926771946928
 21
3.4275998337076352
 31
0.0
  0
LINE
  5
11C5E
  8
0
 10
7.1021926771946928
 20
3.4275998337076352
 30
0.0
 11
7.0946657367762924
 21
3.4389557319383419
 31
0.0
  0
LINE
  5
11C5F
  8
0
 10
7.0923501575848391
 20
3.4184598467917331
 30
0.0
 11
7.0923501575848391
 21
3.4385443379603369
 31
0.0
  0
LINE
  5
11C60
  8
0
 10
7.0726651181709448
 20
3.4243860158385111
 30
0.0
 11
7.0726651181709448
 21
3.4347411713038549
 31
0.0
  0
LINE
  5
11C61
  8
0
 10
7.0376803384061679
 20
3.426259507762853
 30
0.0
 11
7.044826268495604
 21
3.4157354582814778
 31
0.0
  0
LINE
  5
11C62
  8
0
 10
7.044826268495604
 20
3.4157354582814778
 30
0.0
 11
7.0645113078546009
 21
3.40882899867217
 31
0.0
  0
LINE
  5
11C63
  8
0
 10
7.0645113078546009
 20
3.40882899867217
 30
0.0
 11
7.074353827593562
 21
3.4166139881535349
 31
0.0
  0
LINE
  5
11C64
  8
0
 10
7.074353827593562
 20
3.4166139881535349
 30
0.0
 11
7.0645113079640387
 21
3.4313886613584819
 31
0.0
  0
LINE
  5
11C65
  8
0
 10
7.0645113078546009
 20
3.408828998672166
 30
0.0
 11
7.0645113078546009
 21
3.4313886614039748
 31
0.0
  0
LINE
  5
11C66
  8
0
 10
7.0645113078546009
 20
3.4330031784816439
 30
0.0
 11
7.0645113078546009
 21
3.433005725525379
 31
0.0
  0
LINE
  5
11C67
  8
0
 10
7.0448262684816987
 20
3.4157354582406292
 30
0.0
 11
7.0448262682456706
 21
3.4282269975615369
 31
0.0
  0
LINE
  5
11C68
  8
0
 10
7.0645113078546009
 20
3.4313886615227558
 30
0.0
 11
7.0616461941575324
 21
3.4323679034872931
 31
0.0
  0
LINE
  5
11C69
  8
0
 10
7.0114528396032076
 20
3.4179389252342101
 30
0.0
 11
7.0169874188956021
 21
3.4099025365114879
 31
0.0
  0
LINE
  5
11C6A
  8
0
 10
7.0169874188956021
 20
3.4099025365114879
 30
0.0
 11
7.0366724581762901
 21
3.401973794258442
 31
0.0
  0
LINE
  5
11C6B
  8
0
 10
7.0366724581762901
 20
3.401973794258442
 30
0.0
 11
7.0465149778597569
 21
3.4084193898453838
 31
0.0
  0
LINE
  5
11C6C
  8
0
 10
7.0465149778597569
 20
3.4084193898453838
 30
0.0
 11
7.0366724581681046
 21
3.422834351226494
 31
0.0
  0
LINE
  5
11C6D
  8
0
 10
7.036672458176283
 20
3.401973794258438
 30
0.0
 11
7.0366724580586668
 21
3.422834351271987
 31
0.0
  0
LINE
  5
11C6E
  8
0
 10
7.0169874188817039
 20
3.4099025364706388
 30
0.0
 11
7.0169874186093031
 21
3.4198414770720862
 31
0.0
  0
LINE
  5
11C6F
  8
0
 10
7.0366724580586668
 20
3.422834351390772
 30
0.0
 11
7.0321126346058938
 21
3.42463891312623
 31
0.0
  0
LINE
  5
11C70
  8
0
 10
6.9878761590986889
 20
3.4084340517599641
 30
0.0
 11
6.9891485691972264
 21
3.4069349766951511
 31
0.0
  0
LINE
  5
11C71
  8
0
 10
6.9891485691972264
 20
3.4069349766951511
 30
0.0
 11
7.0088336085817096
 21
3.397923361470645
 31
0.0
  0
LINE
  5
11C72
  8
0
 10
7.0088336085817096
 20
3.397923361470645
 30
0.0
 11
7.0186761282628183
 21
3.40302287725472
 31
0.0
  0
LINE
  5
11C73
  8
0
 10
7.0186761282628183
 20
3.40302287725472
 30
0.0
 11
7.0088975115566461
 21
3.4170334348882561
 31
0.0
  0
LINE
  5
11C74
  8
0
 10
7.0088336085817033
 20
3.3979233614706419
 30
0.0
 11
7.0088975114472163
 21
3.417033434933749
 31
0.0
  0
LINE
  5
11C75
  8
0
 10
6.9891485691833211
 20
3.406934976654302
 30
0.0
 11
6.9891485691408803
 21
3.4090284526271999
 31
0.0
  0
LINE
  5
11C76
  8
0
 10
6.9557218767460176
 20
3.389493767249494
 30
0.0
 11
6.9613097195817062
 21
3.382831415215179
 31
0.0
  0
LINE
  5
11C77
  8
0
 10
6.9613097195817062
 20
3.382831415215179
 30
0.0
 11
6.980994759025406
 21
3.3727943461117351
 31
0.0
  0
LINE
  5
11C78
  8
0
 10
6.980994759025406
 20
3.3727943461117351
 30
0.0
 11
6.9908372785636743
 21
3.3748258244111389
 31
0.0
  0
LINE
  5
11C79
  8
0
 10
6.9908372785636743
 20
3.3748258244111389
 30
0.0
 11
6.9809947589446599
 21
3.3867843584512189
 31
0.0
  0
LINE
  5
11C7A
  8
0
 10
6.9809947589446599
 20
3.3867843584512189
 30
0.0
 11
6.9641178611290684
 21
3.3953867229856121
 31
0.0
  0
LINE
  5
11C7B
  8
0
 10
6.9612463773320243
 20
3.3935604012306291
 30
0.0
 11
6.9613097195817062
 21
3.38283141507064
 31
0.0
  0
LINE
  5
11C7C
  8
0
 10
6.9809947584964851
 20
3.386784358679662
 30
0.0
 11
6.9809947584964851
 21
3.3727943463692638
 31
0.0
  0
LINE
  5
11C7D
  8
0
 10
7.0349837488751064
 20
3.3683273523555961
 30
0.0
 11
7.0448262684730869
 21
3.372731732299858
 31
0.0
  0
LINE
  5
11C7E
  8
0
 10
7.0448262684730869
 20
3.372731732299858
 30
0.0
 11
7.0645113078433113
 21
3.3660769915000941
 31
0.0
  0
LINE
  5
11C7F
  8
0
 10
7.0645113078433113
 20
3.3660769915000941
 30
0.0
 11
7.0743538276290669
 21
3.355079683580235
 31
0.0
  0
LINE
  5
11C80
  8
0
 10
7.0743538276290669
 20
3.355079683580235
 30
0.0
 11
7.0349837488751197
 21
3.3683273523555992
 31
0.0
  0
LINE
  5
11C81
  8
0
 10
7.0906614481068573
 20
3.3504551202608752
 30
0.0
 11
7.1005039678538528
 21
3.3558140280903319
 31
0.0
  0
LINE
  5
11C82
  8
0
 10
7.1005039678538528
 20
3.3558140280903319
 30
0.0
 11
7.1201890072295271
 21
3.3512012789012529
 31
0.0
  0
LINE
  5
11C83
  8
0
 10
7.1201890072295271
 20
3.3512012789012529
 30
0.0
 11
7.1295469084817
 21
3.3411500200162401
 31
0.0
  0
LINE
  5
11C84
  8
0
 10
7.1295469084817
 20
3.3411500200162401
 30
0.0
 11
7.0906614481068644
 21
3.3504551202608819
 31
0.0
  0
LINE
  5
11C85
  8
0
 10
7.1463391474817044
 20
3.3382606607706391
 30
0.0
 11
7.1562032557320521
 21
3.3445208331963299
 31
0.0
  0
LINE
  5
11C86
  8
0
 10
7.1562032557320521
 20
3.3445208331963299
 30
0.0
 11
7.1758667064745856
 21
3.3418087830370871
 31
0.0
  0
LINE
  5
11C87
  8
0
 10
7.1758667064745856
 20
3.3418087830370871
 30
0.0
 11
7.1857092261580533
 21
3.3328530093217519
 31
0.0
  0
LINE
  5
11C88
  8
0
 10
7.1857092261580533
 20
3.3328530093217519
 30
0.0
 11
7.1463391474817106
 21
3.3382606607706431
 31
0.0
  0
LINE
  5
11C89
  8
0
 10
7.202016846781695
 20
3.3313690253706372
 30
0.0
 11
7.211859366382007
 21
3.3385169133370241
 31
0.0
  0
LINE
  5
11C8A
  8
0
 10
7.211859366382007
 20
3.3385169133370241
 30
0.0
 11
7.2315444058404799
 21
3.337620132570847
 31
0.0
  0
LINE
  5
11C8B
  8
0
 10
7.2315444058404799
 20
3.337620132570847
 30
0.0
 11
7.2413869255273147
 21
3.3295829749602852
 31
0.0
  0
LINE
  5
11C8C
  8
0
 10
7.2413869255273147
 20
3.3295829749602852
 30
0.0
 11
7.2020168467817021
 21
3.3313690253706412
 31
0.0
  0
LINE
  5
11C8D
  8
0
 10
6.9793060495000168
 20
3.3924944161003689
 30
0.0
 11
6.989148569181701
 21
3.3958540414706411
 31
0.0
  0
LINE
  5
11C8E
  8
0
 10
6.989148569181701
 20
3.3958540414706411
 30
0.0
 11
7.0088336085811909
 21
3.3869213205199449
 31
0.0
  0
LINE
  5
11C8F
  8
0
 10
7.0088336085811909
 20
3.3869213205199449
 30
0.0
 11
7.0186761282817036
 21
3.3747184289706409
 31
0.0
  0
LINE
  5
11C90
  8
0
 10
7.0186761282817036
 20
3.3747184289706409
 30
0.0
 11
7.0057639549817017
 21
3.3797894196706402
 31
0.0
  0
LINE
  5
11C91
  8
0
 10
7.0057639549817017
 20
3.3797894196706402
 30
0.0
 11
7.0008551299817006
 21
3.3747807582706382
 31
0.0
  0
LINE
  5
11C92
  8
0
 10
7.0008551299817006
 20
3.3747807582706382
 30
0.0
 11
6.9891485691454909
 21
3.3801411753981441
 31
0.0
  0
LINE
  5
11C93
  8
0
 10
6.9891485691454909
 20
3.3801411753981441
 30
0.0
 11
6.9793060495000239
 21
3.3924944161003689
 31
0.0
  0
LINE
  5
11C94
  8
0
 10
6.9891485678269509
 20
3.3958540410082132
 30
0.0
 11
6.9891485678269509
 21
3.3801411760973319
 31
0.0
  0
LINE
  5
11C95
  8
0
 10
7.2020168467817021
 20
3.2797529336706388
 30
0.0
 11
7.2025014651248043
 21
3.279861091870643
 31
0.0
  0
ARC
  5
11C96
  8
0
 10
7.2495415147816544
 20
3.8928045018695658
 30
0.0
 40
0.6147457930989239
 50
265.61146498839679
 51
269.1947786681243997
  0
LINE
  5
11C97
  8
0
 10
7.240902307165114
 20
3.27811941646031
 30
0.0
 11
7.2413869254817049
 21
3.277966883270639
 31
0.0
  0
LINE
  5
11C98
  8
0
 10
7.2413869254817049
 20
3.277966883270639
 30
0.0
 11
7.2315444058404799
 21
3.2754679502708468
 31
0.0
  0
LINE
  5
11C99
  8
0
 10
7.2315444058404799
 20
3.2754679502708468
 30
0.0
 11
7.2118593663817023
 21
3.2763647310706392
 31
0.0
  0
LINE
  5
11C9A
  8
0
 10
7.2118593663817023
 20
3.2763647310706392
 30
0.0
 11
7.2020168467291859
 21
3.2797529335923912
 31
0.0
  0
LINE
  5
11C9B
  8
0
 10
7.2118593664168449
 20
3.2763647309721051
 30
0.0
 11
7.2118593664168449
 21
3.2792146992917841
 31
0.0
  0
LINE
  5
11C9C
  8
0
 10
7.2315444057817038
 20
3.275467950273526
 30
0.0
 11
7.2315444057817038
 21
3.2783222041583389
 31
0.0
  0
LINE
  5
11C9D
  8
0
 10
7.1463391474662208
 20
3.2866445691045421
 30
0.0
 11
7.1468237659560501
 21
3.2867062421928281
 31
0.0
  0
ARC
  5
11C9E
  8
0
 10
7.2515294944021838
 20
3.9067335502700469
 30
0.0
 40
0.6288061325487529
 50
260.4147378281281817
 51
263.9471556447260809
  0
LINE
  5
11C9F
  8
0
 10
7.1852246077817048
 20
3.2814329710706391
 30
0.0
 11
7.185709226178524
 21
3.2812369175719271
 31
0.0
  0
LINE
  5
11CA0
  8
0
 10
7.185709226178524
 20
3.2812369175719271
 30
0.0
 11
7.1758667064817061
 21
3.2796566006065109
 31
0.0
  0
LINE
  5
11CA1
  8
0
 10
7.1758667064817061
 20
3.2796566006065109
 30
0.0
 11
7.1561816670698297
 21
3.282371987693363
 31
0.0
  0
LINE
  5
11CA2
  8
0
 10
7.1561816671049661
 20
3.2823719875948241
 30
0.0
 11
7.1463391474137046
 21
3.2866445690262931
 31
0.0
  0
LINE
  5
11CA3
  8
0
 10
7.1561816671049661
 20
3.2823719875948241
 30
0.0
 11
7.1561816670817029
 21
3.285195052670641
 31
0.0
  0
LINE
  5
11CA4
  8
0
 10
7.17586670642293
 20
3.2796566006091901
 30
0.0
 11
7.17586670642293
 21
3.282510854494002
 31
0.0
  0
LINE
  5
11CA5
  8
0
 10
6.951467199858171
 20
3.374868572847276
 30
0.0
 11
6.9613097195382201
 21
3.3750516650775531
 31
0.0
  0
LINE
  5
11CA6
  8
0
 10
6.9613097195382201
 20
3.3750516650775531
 30
0.0
 11
6.9809947588817058
 21
3.3650368894326692
 31
0.0
  0
LINE
  5
11CA7
  8
0
 10
6.9809947588817058
 20
3.3650368894326692
 30
0.0
 11
6.9908372786071586
 21
3.3548359444243161
 31
0.0
  0
LINE
  5
11CA8
  8
0
 10
6.9908372786071586
 20
3.3548359444243161
 30
0.0
 11
6.9809947588817058
 21
3.3545007987706401
 31
0.0
  0
LINE
  5
11CA9
  8
0
 10
6.9809947588817058
 20
3.3545007987706401
 30
0.0
 11
6.9613097195817062
 21
3.3645155743691388
 31
0.0
  0
LINE
  5
11CAA
  8
0
 10
6.9613097195817062
 20
3.3645155743691388
 30
0.0
 11
6.951467199858171
 21
3.374868572847276
 31
0.0
  0
LINE
  5
11CAB
  8
0
 10
6.9613097195382201
 20
3.3750516650775562
 30
0.0
 11
6.9613097195382201
 21
3.3645155744775539
 31
0.0
  0
LINE
  5
11CAC
  8
0
 10
6.9809947601922238
 20
3.365036890697144
 30
0.0
 11
6.9809947601922238
 21
3.3545007981959709
 31
0.0
  0
ARC
  5
11CAD
  8
0
 10
6.9762085366516677
 20
3.481178430737589
 30
0.0
 40
0.123126386987943
 50
258.4079146266830094
 51
263.0499352843482939
  0
LINE
  5
11CAE
  8
0
 10
6.961309719505187
 20
3.358956777908229
 30
0.0
 11
6.9809947589063688
 21
3.3489197088066862
 31
0.0
  0
ARC
  5
11CAF
  8
0
 10
7.1871032683813061
 20
3.5775045269701731
 30
0.0
 40
0.3077852120993902
 50
227.9599069713605957
 51
230.3815606204153141
  0
LINE
  5
11CB0
  8
0
 10
6.9908372785467767
 20
3.3404150965407728
 30
0.0
 11
6.9809947588923427
 21
3.3418375400218951
 31
0.0
  0
LINE
  5
11CB1
  8
0
 10
6.9809947588923427
 20
3.3418375400218951
 30
0.0
 11
6.961309719517998
 21
3.3519460379299701
 31
0.0
  0
LINE
  5
11CB2
  8
0
 10
6.961309719517998
 20
3.3519460379299701
 30
0.0
 11
6.9514671998861379
 21
3.3605634506241842
 31
0.0
  0
LINE
  5
11CB3
  8
0
 10
6.961309719395345
 20
3.3589567779642371
 30
0.0
 11
6.961309719395345
 21
3.351946037959642
 31
0.0
  0
LINE
  5
11CB4
  8
0
 10
6.9809947589063688
 20
3.3489197088066862
 30
0.0
 11
6.9809947589063688
 21
3.3418375400150171
 31
0.0
  0
LINE
  5
11CB5
  8
0
 10
7.2396982161327008
 20
3.2762202435572831
 30
0.0
 11
7.2593832554234288
 21
3.2762202434693348
 31
0.0
  0
LINE
  5
11CB6
  8
0
 10
7.2593832554234288
 20
3.2762202434693348
 30
0.0
 11
7.269225775031102
 21
3.274058308284185
 31
0.0
  0
LINE
  5
11CB7
  8
0
 10
7.269225775031102
 20
3.274058308284185
 30
0.0
 11
7.2593832554817013
 21
3.2719139743497179
 31
0.0
  0
LINE
  5
11CB8
  8
0
 10
7.2593832554817013
 20
3.2719139743497179
 30
0.0
 11
7.2396982160969676
 21
3.2719139743494701
 31
0.0
  0
LINE
  5
11CB9
  8
0
 10
7.2396982160969676
 20
3.2719139743494701
 30
0.0
 11
7.2298556963856271
 21
3.2740583082785291
 31
0.0
  0
LINE
  5
11CBA
  8
0
 10
7.2298556963856271
 20
3.2740583082785291
 30
0.0
 11
7.2396982161327008
 21
3.2762202435572831
 31
0.0
  0
LINE
  5
11CBB
  8
0
 10
7.2396982161327008
 20
3.2762202435572831
 30
0.0
 11
7.2396982156965697
 21
3.2719139743494701
 31
0.0
  0
LINE
  5
11CBC
  8
0
 10
7.2593832500085957
 20
3.2762202434693348
 30
0.0
 11
7.2593832500085957
 21
3.271913974260829
 31
0.0
  0
LINE
  5
11CBD
  8
0
 10
7.2396982160548262
 20
3.2702246280049532
 30
0.0
 11
7.2593832554668012
 21
3.2702246280042671
 31
0.0
  0
LINE
  5
11CBE
  8
0
 10
7.2593832554668012
 20
3.2702246280042671
 30
0.0
 11
7.269225775150324
 21
3.269719466061122
 31
0.0
  0
LINE
  5
11CBF
  8
0
 10
7.269225775150324
 20
3.269719466061122
 30
0.0
 11
7.2593832554817013
 21
3.2692568169706391
 31
0.0
  0
LINE
  5
11CC0
  8
0
 10
7.2593832554817013
 20
3.2692568169706391
 30
0.0
 11
7.2396982160817061
 21
3.2692568169706391
 31
0.0
  0
LINE
  5
11CC1
  8
0
 10
7.2396982160817061
 20
3.2692568169706391
 30
0.0
 11
7.2298556963544911
 21
3.2697194659654012
 31
0.0
  0
LINE
  5
11CC2
  8
0
 10
7.2298556963544911
 20
3.2697194659654012
 30
0.0
 11
7.239698216054669
 21
3.2702246280049532
 31
0.0
  0
LINE
  5
11CC3
  8
0
 10
7.2413869254531562
 20
3.2709419275928431
 30
0.0
 11
7.2315444058414036
 21
3.2727423834916989
 31
0.0
  0
LINE
  5
11CC4
  8
0
 10
7.2315444058414036
 20
3.2727423834916989
 30
0.0
 11
7.2118593664703781
 21
3.2736456141698289
 31
0.0
  0
LINE
  5
11CC5
  8
0
 10
7.2118593664703781
 20
3.2736456141698289
 30
0.0
 11
7.2020168469777204
 21
3.2727614041937758
 31
0.0
  0
LINE
  5
11CC6
  8
0
 10
7.2020168469777204
 20
3.2727614041937758
 30
0.0
 11
7.2118593664244406
 21
3.2709948698228142
 31
0.0
  0
LINE
  5
11CC7
  8
0
 10
7.2118593664244406
 20
3.2709948698228142
 30
0.0
 11
7.2315444057817038
 21
3.2700784829360461
 31
0.0
  0
LINE
  5
11CC8
  8
0
 10
7.2315444057817038
 20
3.2700784829360461
 30
0.0
 11
7.2413869254531562
 21
3.2709419275928431
 31
0.0
  0
LINE
  5
11CC9
  8
0
 10
7.2135480758835078
 20
3.2748037197700159
 30
0.0
 11
7.2037055561817018
 21
3.2778575398620999
 31
0.0
  0
LINE
  5
11CCA
  8
0
 10
7.2037055561817018
 20
3.2778575398620999
 30
0.0
 11
7.1840205168122386
 21
3.2796540463308541
 31
0.0
  0
LINE
  5
11CCB
  8
0
 10
7.1840205168122386
 20
3.2796540463308541
 30
0.0
 11
7.1741779972131701
 21
3.278417180568109
 31
0.0
  0
LINE
  5
11CCC
  8
0
 10
7.1741779972131701
 20
3.278417180568109
 30
0.0
 11
7.1840205167535842
 21
3.2753870515881789
 31
0.0
  0
LINE
  5
11CCD
  8
0
 10
7.1840205167535842
 20
3.2753870515881789
 30
0.0
 11
7.2037055561673631
 21
3.2735699354194909
 31
0.0
  0
LINE
  5
11CCE
  8
0
 10
7.2037055561673631
 20
3.2735699354194909
 30
0.0
 11
7.2135480758976271
 21
3.2748037197722679
 31
0.0
  0
LINE
  5
11CCF
  8
0
 10
7.2135480758113673
 20
3.2704827165853798
 30
0.0
 11
7.2037055561193091
 21
3.2709580707587871
 31
0.0
  0
LINE
  5
11CD0
  8
0
 10
7.2037055561193091
 20
3.2709580707587871
 30
0.0
 11
7.1840205167491069
 21
3.272825217256059
 31
0.0
  0
LINE
  5
11CD1
  8
0
 10
7.1840205167491069
 20
3.272825217256059
 30
0.0
 11
7.1741779971129773
 21
3.2741833683329982
 31
0.0
  0
LINE
  5
11CD2
  8
0
 10
7.1741779971129773
 20
3.2741833683329982
 30
0.0
 11
7.1840205167536118
 21
3.2737297544389778
 31
0.0
  0
LINE
  5
11CD3
  8
0
 10
7.1840205167536118
 20
3.2737297544389778
 30
0.0
 11
7.2037055561817018
 21
3.27189581873193
 31
0.0
  0
LINE
  5
11CD4
  8
0
 10
7.2037055561817018
 20
3.27189581873193
 30
0.0
 11
7.2135480758723949
 21
3.2704827165307679
 31
0.0
  0
LINE
  5
11CD5
  8
0
 10
7.1857092261744313
 20
3.2742733301269769
 30
0.0
 11
7.1758667064817061
 21
3.2769613419696451
 31
0.0
  0
LINE
  5
11CD6
  8
0
 10
7.1758667064817061
 20
3.2769613419696451
 30
0.0
 11
7.1561816670817029
 21
3.2796966275706398
 31
0.0
  0
LINE
  5
11CD7
  8
0
 10
7.1561816670817029
 20
3.2796966275706398
 30
0.0
 11
7.1463391475666986
 21
3.2797841217999562
 31
0.0
  0
LINE
  5
11CD8
  8
0
 10
7.1463391475666986
 20
3.2797841217999562
 30
0.0
 11
7.1561816670817029
 21
3.2771351772995092
 31
0.0
  0
LINE
  5
11CD9
  8
0
 10
7.1561816670817029
 20
3.2771351772995092
 30
0.0
 11
7.175866706466123
 21
3.2743592762055931
 31
0.0
  0
LINE
  5
11CDA
  8
0
 10
7.175866706466123
 20
3.2743592762055931
 30
0.0
 11
7.1857092247772911
 21
3.2742733305085379
 31
0.0
  0
LINE
  5
11CDB
  8
0
 10
6.9793060495577199
 20
3.3408783243333771
 30
0.0
 11
6.9891485692460691
 21
3.339061174285308
 31
0.0
  0
LINE
  5
11CDC
  8
0
 10
6.9891485692460691
 20
3.339061174285308
 30
0.0
 11
7.0008551299817006
 21
3.333700757170639
 31
0.0
  0
LINE
  5
11CDD
  8
0
 10
7.0008551299817006
 20
3.333700757170639
 30
0.0
 11
7.0057639549817017
 21
3.328692095770641
 31
0.0
  0
LINE
  5
11CDE
  8
0
 10
7.0057639549817017
 20
3.328692095770641
 30
0.0
 11
7.0088336085817033
 21
3.3273632576805339
 31
0.0
  0
LINE
  5
11CDF
  8
0
 10
7.0088336085817033
 20
3.3273632576805339
 30
0.0
 11
7.0186761283040289
 21
3.3231023373016342
 31
0.0
  0
LINE
  5
11CE0
  8
0
 10
7.0186761283040289
 20
3.3231023373016342
 30
0.0
 11
7.0088336085817033
 21
3.3247691381641782
 31
0.0
  0
LINE
  5
11CE1
  8
0
 10
7.0088336085817033
 20
3.3247691381641782
 30
0.0
 11
6.9891485691984414
 21
3.3337018591677281
 31
0.0
  0
LINE
  5
11CE2
  8
0
 10
6.9891485691984414
 20
3.3337018591677281
 30
0.0
 11
6.9793060495182502
 21
3.3408783243422908
 31
0.0
  0
LINE
  5
11CE3
  8
0
 10
6.9793060495089421
 20
3.335181601654035
 30
0.0
 11
6.989148569181693
 21
3.3314442478550208
 31
0.0
  0
LINE
  5
11CE4
  8
0
 10
6.989148569181693
 20
3.3314442478550208
 30
0.0
 11
7.0088336085817033
 21
3.3224326324546278
 31
0.0
  0
LINE
  5
11CE5
  8
0
 10
7.0088336085817033
 20
3.3224326324546278
 30
0.0
 11
7.0186761282672592
 21
3.3169960577267359
 31
0.0
  0
LINE
  5
11CE6
  8
0
 10
7.0186761282672592
 20
3.3169960577267359
 30
0.0
 11
7.0088336085432337
 21
3.3205649680535698
 31
0.0
  0
LINE
  5
11CE7
  8
0
 10
7.0088336085432337
 20
3.3205649680535698
 30
0.0
 11
6.9891485692338611
 21
3.3297387232302031
 31
0.0
  0
LINE
  5
11CE8
  8
0
 10
6.9891485692338611
 20
3.3297387232302031
 30
0.0
 11
6.9793060495089421
 21
3.335181601654035
 31
0.0
  0
LINE
  5
11CE9
  8
0
 10
7.0071448993125918
 20
3.3242270286860349
 30
0.0
 11
7.0169874188817039
 21
3.3221651283836979
 31
0.0
  0
LINE
  5
11CEA
  8
0
 10
7.0169874188817039
 20
3.3221651283836979
 30
0.0
 11
7.0366724582584999
 21
3.3144244745974261
 31
0.0
  0
LINE
  5
11CEB
  8
0
 10
7.0366724582584999
 20
3.3144244745974261
 30
0.0
 11
7.0465149778884921
 21
3.308642048170948
 31
0.0
  0
LINE
  5
11CEC
  8
0
 10
7.0465149778884921
 20
3.308642048170948
 30
0.0
 11
7.0368412052093978
 21
3.3105451939649022
 31
0.0
  0
LINE
  5
11CED
  8
0
 10
7.0368412052093978
 20
3.3105451939649022
 30
0.0
 11
7.0169874188817039
 21
3.318429148007279
 31
0.0
  0
LINE
  5
11CEE
  8
0
 10
7.0169874188817039
 20
3.318429148007279
 30
0.0
 11
7.0071448991591216
 21
3.3242270287244788
 31
0.0
  0
LINE
  5
11CEF
  8
0
 10
7.0349837488072282
 20
3.316711260591056
 30
0.0
 11
7.0448262684816987
 21
3.3132535609371478
 31
0.0
  0
LINE
  5
11CF0
  8
0
 10
7.0448262684816987
 20
3.3132535609371478
 30
0.0
 11
7.064511307881701
 21
3.306637329470639
 31
0.0
  0
LINE
  5
11CF1
  8
0
 10
7.064511307881701
 20
3.306637329470639
 30
0.0
 11
7.0743538275904987
 21
3.3034635918233479
 31
0.0
  0
LINE
  5
11CF2
  8
0
 10
7.0743538275904987
 20
3.3034635918233479
 30
0.0
 11
7.0645113078433113
 21
3.303924809200097
 31
0.0
  0
LINE
  5
11CF3
  8
0
 10
7.0645113078433113
 20
3.303924809200097
 30
0.0
 11
7.0448262685004863
 21
3.3105795499761248
 31
0.0
  0
LINE
  5
11CF4
  8
0
 10
7.0448262685004863
 20
3.3105795499761248
 30
0.0
 11
7.0349837488622171
 21
3.3167112605717359
 31
0.0
  0
LINE
  5
11CF5
  8
0
 10
7.0349837489673561
 20
3.3104648416508118
 30
0.0
 11
7.0448262684816987
 21
3.3081233853706422
 31
0.0
  0
LINE
  5
11CF6
  8
0
 10
7.0448262684816987
 20
3.3081233853706422
 30
0.0
 11
7.064511307934068
 21
3.3014147826180489
 31
0.0
  0
LINE
  5
11CF7
  8
0
 10
7.064511307934068
 20
3.3014147826180489
 30
0.0
 11
7.0743538274661608
 21
3.2969377823425701
 31
0.0
  0
LINE
  5
11CF8
  8
0
 10
7.0743538274661608
 20
3.2969377823425701
 30
0.0
 11
7.064511307881701
 21
3.2991913254706411
 31
0.0
  0
LINE
  5
11CF9
  8
0
 10
7.064511307881701
 20
3.2991913254706411
 30
0.0
 11
7.044826268558821
 21
3.3060102500051718
 31
0.0
  0
LINE
  5
11CFA
  8
0
 10
7.044826268558821
 20
3.3060102500051718
 30
0.0
 11
7.0349837488374192
 21
3.310464841714257
 31
0.0
  0
LINE
  5
11CFB
  8
0
 10
7.0628225985259609
 20
3.3031083033852289
 30
0.0
 11
7.0726651182073113
 21
3.3022762266105832
 31
0.0
  0
LINE
  5
11CFC
  8
0
 10
7.0726651182073113
 20
3.3022762266105832
 30
0.0
 11
7.0923501575211878
 21
3.2966764405330649
 31
0.0
  0
LINE
  5
11CFD
  8
0
 10
7.0923501575211878
 20
3.2966764405330649
 30
0.0
 11
7.1021926772266042
 21
3.2918394426456672
 31
0.0
  0
LINE
  5
11CFE
  8
0
 10
7.1021926772266042
 20
3.2918394426456672
 30
0.0
 11
7.0923501575817047
 21
3.292611736044889
 31
0.0
  0
LINE
  5
11CFF
  8
0
 10
7.0923501575817047
 20
3.292611736044889
 30
0.0
 11
7.0726651181817033
 21
3.29828097117064
 31
0.0
  0
LINE
  5
11D00
  8
0
 10
7.0726651181817033
 20
3.29828097117064
 30
0.0
 11
7.0628225985259832
 21
3.3031083033852151
 31
0.0
  0
LINE
  5
11D01
  8
0
 10
7.0906614481203434
 20
3.2988390285717588
 30
0.0
 11
7.1005039677817052
 21
3.2964282830706391
 31
0.0
  0
LINE
  5
11D02
  8
0
 10
7.1005039677817052
 20
3.2964282830706391
 30
0.0
 11
7.1201890071816996
 21
3.2918363761057341
 31
0.0
  0
LINE
  5
11D03
  8
0
 10
7.1201890071816996
 20
3.2918363761057341
 30
0.0
 11
7.1300315269174979
 21
3.2896541629929059
 31
0.0
  0
LINE
  5
11D04
  8
0
 10
7.1300315269174979
 20
3.2896541629929059
 30
0.0
 11
7.1201890072300236
 21
3.2890490965637791
 31
0.0
  0
LINE
  5
11D05
  8
0
 10
7.1201890072300236
 20
3.2890490965637791
 30
0.0
 11
7.1005039677817052
 21
3.2936618457483671
 31
0.0
  0
LINE
  5
11D06
  8
0
 10
7.1005039677817052
 20
3.2936618457483671
 30
0.0
 11
7.0906614481677792
 21
3.2988390285444771
 31
0.0
  0
LINE
  5
11D07
  8
0
 10
7.0906614480873742
 20
3.2922190462733658
 30
0.0
 11
7.1005039678141202
 21
3.2910714106448919
 31
0.0
  0
LINE
  5
11D08
  8
0
 10
7.1005039678141202
 20
3.2910714106448919
 30
0.0
 11
7.1201890071903193
 21
3.2864235291427621
 31
0.0
  0
LINE
  5
11D09
  8
0
 10
7.1201890071903193
 20
3.2864235291427621
 30
0.0
 11
7.130031526615042
 21
3.2828520315087562
 31
0.0
  0
LINE
  5
11D0A
  8
0
 10
7.130031526615042
 20
3.2828520315087562
 30
0.0
 11
7.1201890071816996
 21
3.2839637690706409
 31
0.0
  0
LINE
  5
11D0B
  8
0
 10
7.1201890071816996
 20
3.2839637690706409
 30
0.0
 11
7.1005039677762261
 21
3.2886834528743409
 31
0.0
  0
LINE
  5
11D0C
  8
0
 10
7.1005039677762261
 20
3.2886834528743409
 30
0.0
 11
7.0906614480873671
 21
3.2922190462733658
 31
0.0
  0
LINE
  5
11D0D
  8
0
 10
7.1185002977854728
 20
3.2880045466604839
 30
0.0
 11
7.128342817431558
 21
3.2882552644180301
 31
0.0
  0
LINE
  5
11D0E
  8
0
 10
7.128342817431558
 20
3.2882552644180301
 30
0.0
 11
7.1480278568075732
 21
3.2846115562616758
 31
0.0
  0
LINE
  5
11D0F
  8
0
 10
7.1480278568075732
 20
3.2846115562616758
 30
0.0
 11
7.1578703764822427
 21
3.2806743723685079
 31
0.0
  0
LINE
  5
11D10
  8
0
 10
7.1578703764822427
 20
3.2806743723685079
 30
0.0
 11
7.1480278568817042
 21
3.2804021504446932
 31
0.0
  0
LINE
  5
11D11
  8
0
 10
7.1480278568817042
 20
3.2804021504446932
 30
0.0
 11
7.128342817481701
 21
3.284088869019484
 31
0.0
  0
LINE
  5
11D12
  8
0
 10
7.128342817481701
 20
3.284088869019484
 30
0.0
 11
7.1185002977418881
 21
3.2880045466792822
 31
0.0
  0
LINE
  5
11D13
  8
0
 10
6.979306049519912
 20
3.3696343188666869
 30
0.0
 11
6.989148569181701
 21
3.371303334270638
 31
0.0
  0
LINE
  5
11D14
  8
0
 10
6.989148569181701
 20
3.371303334270638
 30
0.0
 11
6.9927438959839634
 21
3.369631885982471
 31
0.0
  0
LINE
  5
11D15
  8
0
 10
6.9927438959839634
 20
3.369631885982471
 30
0.0
 11
6.9932493116052683
 21
3.3718870318813638
 31
0.0
  0
ARC
  5
11D16
  8
0
 10
7.249074304564302
 20
3.9295220265921418
 30
0.0
 40
0.6135170856207478
 50
245.3558658417344134
 51
270.0440816654460718
  0
LINE
  5
11D17
  8
0
 10
7.0847195870191513
 20
3.3384291902548782
 30
0.0
 11
7.0654187099817056
 21
3.3384291902548782
 31
0.0
  0
LINE
  5
11D18
  8
0
 10
7.0654187099817056
 20
3.3384291902548782
 30
0.0
 11
7.0654187099817056
 21
3.3441385309868319
 31
0.0
  0
LINE
  5
11D19
  8
0
 10
7.0726651181817033
 20
3.3384249193706408
 30
0.0
 11
7.0726651181817033
 21
3.3419141528290299
 31
0.0
  0
LINE
  5
11D1A
  8
0
 10
7.043918866481703
 20
3.3384249193706408
 30
0.0
 11
7.043918866481703
 21
3.3513227006035029
 31
0.0
  0
LINE
  5
11D1B
  8
0
 10
7.043918866481703
 20
3.3384249193706408
 30
0.0
 11
7.0097410105817062
 21
3.3384249193706408
 31
0.0
  0
LINE
  5
11D1C
  8
0
 10
7.0097410105817062
 20
3.3384249193706408
 30
0.0
 11
7.0097410105817062
 21
3.349909505770639
 31
0.0
  0
LINE
  5
11D1D
  8
0
 10
7.0210744462011334
 20
3.3599240339267631
 30
0.0
 11
7.016987418848827
 21
3.3577565237908358
 31
0.0
  0
LINE
  5
11D1E
  8
0
 10
7.016987418848827
 20
3.3577565237908358
 30
0.0
 11
7.0097410105817062
 21
3.349909505770639
 31
0.0
  0
LINE
  5
11D1F
  8
0
 10
7.0097410105817062
 20
3.349909505770639
 30
0.0
 11
6.9932493114547682
 21
3.3402553552830092
 31
0.0
  0
ARC
  5
11D20
  8
0
 10
7.2490737272973433
 20
3.8978876981393951
 30
0.0
 40
0.6135144346636815
 50
245.3558115616258135
 51
270.0441357665832243
  0
LINE
  5
11D21
  8
0
 10
7.0169874188817039
 20
3.3384249193706408
 30
0.0
 11
7.0169273929204357
 21
3.3577246896979851
 31
0.0
  0
LINE
  5
11D22
  8
0
 10
7.0366724581817053
 20
3.3384249193706408
 30
0.0
 11
7.0366724581817053
 21
3.3539452115606099
 31
0.0
  0
LINE
  5
11D23
  8
0
 10
7.0179415378991692
 20
3.361207977388446
 30
0.0
 11
7.008833608545074
 21
3.3513461817857362
 31
0.0
  0
LINE
  5
11D24
  8
0
 10
7.008833608545074
 20
3.3513461817857362
 30
0.0
 11
6.9927438958575863
 21
3.3418904315427471
 31
0.0
  0
LINE
  5
11D25
  8
0
 10
6.9927438958575863
 20
3.3418904315427471
 30
0.0
 11
6.9891485691603563
 21
3.343561879795458
 31
0.0
  0
LINE
  5
11D26
  8
0
 10
6.9891485691603563
 20
3.343561879795458
 30
0.0
 11
6.9793060495735233
 21
3.3524289549164972
 31
0.0
  0
LINE
  5
11D27
  8
0
 10
6.9793060495735233
 20
3.3524289549164972
 30
0.0
 11
6.989148569181701
 21
3.3523916191706391
 31
0.0
  0
LINE
  5
11D28
  8
0
 10
6.989148569181701
 20
3.3523916191706391
 30
0.0
 11
6.9911663180456136
 21
3.3514532161167159
 31
0.0
  0
LINE
  5
11D29
  8
0
 10
6.9911663180456136
 20
3.3514532161167159
 30
0.0
 11
7.008833608583898
 21
3.3618822724299871
 31
0.0
  0
LINE
  5
11D2A
  8
0
 10
7.008833608583898
 20
3.3618822724299871
 30
0.0
 11
7.0160221963981044
 21
3.3619923540393621
 31
0.0
  0
LINE
  5
11D2B
  8
0
 10
7.008833608512318
 20
3.3618822724280859
 30
0.0
 11
7.0088336085450322
 21
3.3513461817857069
 31
0.0
  0
LINE
  5
11D2C
  8
0
 10
6.9932493165208101
 20
3.3402553582486441
 30
0.0
 11
6.9927438958575863
 21
3.3418904315427471
 31
0.0
  0
LINE
  5
11D2D
  8
0
 10
6.9793060494478141
 20
3.3696343188571158
 30
0.0
 11
6.989148569181701
 21
3.3590608924088761
 31
0.0
  0
LINE
  5
11D2E
  8
0
 10
6.989148569181701
 20
3.3590608924088761
 30
0.0
 11
6.9911663181296291
 21
3.358122489425714
 31
0.0
  0
LINE
  5
11D2F
  8
0
 10
6.9911663181296291
 20
3.358122489425714
 30
0.0
 11
6.9911662722035848
 21
3.3514532374366608
 31
0.0
  0
LINE
  5
11D30
  8
0
 10
6.9911663180804311
 20
3.3581224894258521
 30
0.0
 11
7.0052680437818324
 21
3.3665284906151771
 31
0.0
  0
LINE
  5
11D31
  8
0
 10
6.98914856688853
 20
3.3713033338817828
 30
0.0
 11
6.98914856688853
 21
3.3590608935818049
 31
0.0
  0
LINE
  5
11D32
  8
0
 10
7.2315444057817038
 20
3.2700784829360461
 30
0.0
 11
7.2315444058414036
 21
3.2727423834916989
 31
0.0
  0
LINE
  5
11D33
  8
0
 10
7.2118593664244406
 20
3.2709948698228142
 30
0.0
 11
7.2118593664703781
 21
3.2736456141698289
 31
0.0
  0
LINE
  5
11D34
  8
0
 10
7.2037055561673631
 20
3.2735699354194909
 30
0.0
 11
7.2037055561817018
 21
3.2778575398620999
 31
0.0
  0
LINE
  5
11D35
  8
0
 10
7.1840205168122386
 20
3.2796540463308541
 30
0.0
 11
7.1840205167535842
 21
3.2753870515881789
 31
0.0
  0
LINE
  5
11D36
  8
0
 10
7.175866706466123
 20
3.2743592762055931
 30
0.0
 11
7.1758667064817061
 21
3.2769613419696451
 31
0.0
  0
LINE
  5
11D37
  8
0
 10
7.1561816670817029
 20
3.2771351772995092
 30
0.0
 11
7.1562044350740592
 21
3.2796964251765348
 31
0.0
  0
LINE
  5
11D38
  8
0
 10
7.2037055561817018
 20
3.27189581873193
 30
0.0
 11
7.2037055561817018
 21
3.2709580707557739
 31
0.0
  0
LINE
  5
11D39
  8
0
 10
7.1840205167536118
 20
3.2737297544389778
 30
0.0
 11
7.1840205167536046
 21
3.2728252172556331
 31
0.0
  0
LINE
  5
11D3A
  8
0
 10
7.1480278568817042
 20
3.2804021504446932
 30
0.0
 11
7.1480278568075732
 21
3.2846115562616758
 31
0.0
  0
LINE
  5
11D3B
  8
0
 10
7.128342817481701
 20
3.284088869019484
 30
0.0
 11
7.128342817431558
 21
3.2882552644180301
 31
0.0
  0
LINE
  5
11D3C
  8
0
 10
7.1201890071816996
 20
3.2839637690706409
 30
0.0
 11
7.1201890071903193
 21
3.2864235291427621
 31
0.0
  0
LINE
  5
11D3D
  8
0
 10
7.1201890072300236
 20
3.2890490965637791
 30
0.0
 11
7.1201890071816996
 21
3.2918363761057341
 31
0.0
  0
LINE
  5
11D3E
  8
0
 10
7.1005039677762261
 20
3.2886834528743409
 30
0.0
 11
7.1005039678141202
 21
3.2910714106448919
 31
0.0
  0
LINE
  5
11D3F
  8
0
 10
7.1005039677817052
 20
3.2936618457483671
 30
0.0
 11
7.1005039677817052
 21
3.2964282830706391
 31
0.0
  0
LINE
  5
11D40
  8
0
 10
7.0923501575817047
 20
3.292611736044889
 30
0.0
 11
7.0923501575211878
 21
3.2966764405330649
 31
0.0
  0
LINE
  5
11D41
  8
0
 10
7.0726651181817033
 20
3.29828097117064
 30
0.0
 11
7.0726651182073113
 21
3.3022762266105832
 31
0.0
  0
LINE
  5
11D42
  8
0
 10
7.0645113078433113
 20
3.303924809200097
 30
0.0
 11
7.064511307881701
 21
3.306637329470639
 31
0.0
  0
LINE
  5
11D43
  8
0
 10
7.064511307881701
 20
3.2991913254706411
 30
0.0
 11
7.064511307934068
 21
3.3014147826180489
 31
0.0
  0
LINE
  5
11D44
  8
0
 10
7.044826268558821
 20
3.3060102500051718
 30
0.0
 11
7.0448262684816987
 21
3.3081233853706422
 31
0.0
  0
LINE
  5
11D45
  8
0
 10
7.0448262685004863
 20
3.3105795499761248
 30
0.0
 11
7.0448262684816987
 21
3.3132535609371478
 31
0.0
  0
LINE
  5
11D46
  8
0
 10
7.0368412052093978
 20
3.3105451939649022
 30
0.0
 11
7.0366724582584999
 21
3.3144244745974261
 31
0.0
  0
LINE
  5
11D47
  8
0
 10
7.0169874188817039
 20
3.318429148007279
 30
0.0
 11
7.0169874188817039
 21
3.3221651283836979
 31
0.0
  0
LINE
  5
11D48
  8
0
 10
7.0088336085432337
 20
3.3205649680535698
 30
0.0
 11
7.0088336085817033
 21
3.3224326324546278
 31
0.0
  0
LINE
  5
11D49
  8
0
 10
7.0088336085817033
 20
3.3247691381641782
 30
0.0
 11
7.0088336085817033
 21
3.3273632576805339
 31
0.0
  0
LINE
  5
11D4A
  8
0
 10
6.9891485691984414
 20
3.3337018591677281
 30
0.0
 11
6.9891485692460691
 21
3.339061174285308
 31
0.0
  0
LINE
  5
11D4B
  8
0
 10
6.9891485692338611
 20
3.3297387232302031
 30
0.0
 11
6.989148569181693
 21
3.3314442478550208
 31
0.0
  0
ARC
  5
11D4C
  8
0
 10
6.9847474609221498
 20
3.3933906990241272
 30
0.0
 40
0.0521383333407297
 50
207.3966659352076078
 51
228.7659985171295034
  0
ARC
  5
11D4D
  8
0
 10
7.0430064077294574
 20
3.459859726849579
 30
0.0
 40
0.1405251906395216
 50
228.7659985171301003
 51
238.9581572925573028
  0
ARC
  5
11D4E
  8
0
 10
7.0602773129349501
 20
3.4885558495921809
 30
0.0
 40
0.174017751411663
 50
238.9581572925573028
 51
245.8740292500789053
  0
ARC
  5
11D4F
  8
0
 10
7.2405702653898913
 20
3.8340271445629561
 30
0.0
 40
0.5633340792396647
 50
245.7093073219749044
 51
254.7451863610642988
  0
ARC
  5
11D50
  8
0
 10
7.2617309599759352
 20
3.9116179854954432
 30
0.0
 40
0.6437586624961185
 50
254.7451863610642988
 51
259.8268327344143813
  0
ARC
  5
11D51
  8
0
 10
7.2250539185097722
 20
3.7072263899652209
 30
0.0
 40
0.4361023847338003
 50
259.8268327344143813
 51
263.7421888022033727
  0
ARC
  5
11D52
  8
0
 10
7.2501116837353621
 20
4.2775634021852076
 30
0.0
 40
1.02673384641969
 50
260.7464442241898723
 51
269.9684508329390269
  0
ARC
  5
11D53
  8
0
 10
7.1739457396118658
 20
3.7891017864615639
 30
0.0
 40
0.5323917825893976
 50
247.6275341683646047
 51
260.3835762641846827
  0
ARC
  5
11D54
  8
0
 10
7.0228902580283332
 20
3.422113242834036
 30
0.0
 40
0.1355311651551584
 50
227.3954417534941967
 51
247.6275341683646047
  0
ARC
  5
11D55
  8
0
 10
6.9693047540100181
 20
3.3638487489308799
 30
0.0
 40
0.0563721006667002
 50
200.5843907296882094
 51
227.3954417534941967
  0
ARC
  5
11D56
  8
0
 10
6.9440248074822071
 20
3.3543545010422622
 30
0.0
 40
0.0293680928267592
 50
156.589334291195712
 51
200.584390729689602
  0
ARC
  5
11D57
  8
0
 10
6.9748889689524631
 20
3.340991563844145
 30
0.0
 40
0.0630008826875942
 50
124.8283206800209939
 51
156.589334291195911
  0
ARC
  5
11D58
  8
0
 10
7.0750046186240994
 20
3.19709584506721
 30
0.0
 40
0.2382981193786045
 50
106.6346561961017017
 51
124.8283206800209939
  0
ARC
  5
11D59
  8
0
 10
7.2142263703181149
 20
2.7311154390350501
 30
0.0
 40
0.7246317856517158
 50
97.5988448124959547
 51
106.6346561961017017
  0
ARC
  5
11D5A
  8
0
 10
7.237476050876225
 20
2.556840385380045
 30
0.0
 40
0.9004508459737079
 50
92.4176787802102666
 51
97.5988448124959547
  0
ARC
  5
11D5B
  8
0
 10
7.2551257422614759
 20
2.1388143966548361
 30
0.0
 40
1.31884926716538
 50
90.2423915676444182
 51
92.4176787802102666
  0
ARC
  5
11D5C
  8
0
 10
7.2473141622922119
 20
2.4369681131858618
 30
0.0
 40
1.0309618080276
 50
89.8759472225777785
 51
97.7829974459195626
  0
ARC
  5
11D5D
  8
0
 10
7.2000431875465187
 20
2.7828178976829099
 30
0.0
 40
0.6818964581429963
 50
97.7829974459191362
 51
106.6549040352655027
  0
ARC
  5
11D5E
  8
0
 10
7.082578212150664
 20
3.1754716127149152
 30
0.0
 40
0.2720489738598971
 50
106.6549040352659006
 51
123.1937951281698957
  0
ARC
  5
11D5F
  8
0
 10
6.9713969486593887
 20
3.3454145569544909
 30
0.0
 40
0.0689680105759633
 50
123.1937951281693984
 51
144.9990966482050965
  0
ARC
  5
11D60
  8
0
 10
6.9523973937478507
 20
3.3587186349562721
 30
0.0
 40
0.0457735806775114
 50
144.9990966482050965
 51
175.8947759744615098
  0
ARC
  5
11D61
  8
0
 10
6.930477470667455
 20
3.360291883442577
 30
0.0
 40
0.0237972721010002
 50
175.8947759744613109
 51
203.7010329248240055
  0
ARC
  5
11D62
  8
0
 10
6.9857055407492084
 20
3.3845364987640312
 30
0.0
 40
0.0841126192113353
 50
203.7010329248238065
 51
213.4738700546627967
  0
ARC
  5
11D63
  8
0
 10
6.9827991921020143
 20
3.3903201511585652
 30
0.0
 40
0.0851213441609339
 50
217.8043046484272054
 51
231.1454438950437975
  0
ARC
  5
11D64
  8
0
 10
6.9913368158818789
 20
3.4033188039436899
 30
0.0
 40
0.100375095601688
 50
209.3643544684113067
 51
226.3692376351336861
  0
ARC
  5
11D65
  8
0
 10
6.959912054624489
 20
3.385637609536257
 30
0.0
 40
0.0643176379021016
 50
189.2891888377683074
 51
209.3643544684113067
  0
ARC
  5
11D66
  8
0
 10
6.9907667740497876
 20
3.3906842856853991
 30
0.0
 40
0.0955823568512388
 50
181.3263625729998978
 51
189.2891888377683074
  0
ARC
  5
11D67
  8
0
 10
6.9275846223207083
 20
3.3892213958353739
 30
0.0
 40
0.0323832718592053
 50
151.924402705593792
 51
181.3263625730006083
  0
ARC
  5
11D68
  8
0
 10
6.9638377771805287
 20
3.3698838520005938
 30
0.0
 40
0.0734713703653698
 50
124.0345787656854952
 51
151.924402705593792
  0
ARC
  5
11D69
  8
0
 10
7.0660294943592774
 20
3.2185754573638441
 30
0.0
 40
0.2560566308534296
 50
106.592744052996693
 51
124.0345787656848984
  0
ARC
  5
11D6A
  8
0
 10
7.212148782216139
 20
2.7282012331992642
 30
0.0
 40
0.7677379047034765
 50
96.6539370161337814
 51
106.5927440529961956
  0
ARC
  5
11D6B
  8
0
 10
7.2460890071686768
 20
2.4372634891243861
 30
0.0
 40
1.0606486586836059
 50
91.1212632880518356
 51
96.6539370161337814
  0
ARC
  5
11D6C
  8
0
 10
7.251375740439542
 20
2.1834654751718041
 30
0.0
 40
1.314501729247965
 50
90.0797395254262341
 51
91.1933257440321086
  0
LINE
  5
11D6D
  8
0
 10
6.8952100251817043
 20
3.3884554144706409
 30
0.0
 11
6.8952100270817018
 21
3.4441043607706412
 31
0.0
  0
ARC
  5
11D6E
  8
0
 10
6.9304418650719271
 20
3.4441043595677341
 30
0.0
 40
0.0352318379902226
 50
155.5795925211830877
 51
179.9999980437725924
  0
ARC
  5
11D6F
  8
0
 10
6.952058433570464
 20
3.434289364068519
 30
0.0
 40
0.0589723133498623
 50
129.3107775823951044
 51
155.5795925211826045
  0
ARC
  5
11D70
  8
0
 10
7.0381853354765411
 20
3.3291032268869181
 30
0.0
 40
0.1949207104979152
 50
107.6226642160710014
 51
129.3107775823951044
  0
ARC
  5
11D71
  8
0
 10
7.2231105521470482
 20
2.7469441717956999
 30
0.0
 40
0.8057451543320926
 50
97.7543114797322232
 51
107.6226642160710014
  0
ARC
  5
11D72
  8
0
 10
7.2778024164934498
 20
0.9933010021209325
 30
0.0
 40
2.5604533963810399
 50
90.6323050359902425
 51
91.8640050533248882
  0
ARC
  5
11D73
  8
0
 10
7.2476691726233753
 20
2.450021736830887
 30
0.0
 40
1.128382975865327
 50
89.9046839291012958
 51
98.3213168716018231
  0
ARC
  5
11D74
  8
0
 10
7.1837569481361214
 20
2.8869859393229929
 30
0.0
 40
0.6867694721106609
 50
98.3213168716018231
 51
107.998257696712102
  0
ARC
  5
11D75
  8
0
 10
7.0540718575380899
 20
3.2861569092942089
 30
0.0
 40
0.2670604228977804
 50
107.998257696712102
 51
124.171319414635505
  0
ARC
  5
11D76
  8
0
 10
6.9469331301722326
 20
3.4439766345779752
 30
0.0
 40
0.0763098722033799
 50
124.171319414635505
 51
151.4838171234563049
  0
ARC
  5
11D77
  8
0
 10
6.9116230380029151
 20
3.4631613655883018
 30
0.0
 40
0.0361245948876223
 50
151.4838171234555091
 51
185.3420000289542031
  0
ARC
  5
11D78
  8
0
 10
6.9154704490308703
 20
3.4635211238844681
 30
0.0
 40
0.0399887891955842
 50
185.3420000289544873
 51
201.5364983597025912
  0
ARC
  5
11D79
  8
0
 10
6.9372014336970116
 20
3.474467685835438
 30
0.0
 40
0.0642588598958308
 50
203.5029555035766009
 51
229.148064241246999
  0
ARC
  5
11D7A
  8
0
 10
7.2481110499403911
 20
2.21848582832326
 30
0.0
 40
1.384250006401011
 50
89.9405921682162273
 51
97.7286018530130463
  0
ARC
  5
11D7B
  8
0
 10
7.1740752472684974
 20
2.764015306307452
 30
0.0
 40
0.8337196153897817
 50
97.7286018530130463
 51
109.9451044321668007
  0
ARC
  5
11D7C
  8
0
 10
6.9659751222710318
 20
3.337474647315545
 30
0.0
 40
0.223669389741601
 50
109.9451044321668007
 51
131.2375333298263911
  0
ARC
  5
11D7D
  8
0
 10
6.8631882935567026
 20
3.4547320194917779
 30
0.0
 40
0.0677385605678153
 50
131.2375333298259079
 51
163.8399793948605065
  0
ARC
  5
11D7E
  8
0
 10
6.8358178929671993
 20
3.4626631498271609
 30
0.0
 40
0.0392422159456189
 50
163.8399793948615013
 51
199.4128327925762107
  0
ARC
  5
11D7F
  8
0
 10
6.8665917401091221
 20
3.473508080071098
 30
0.0
 40
0.0718710709655307
 50
199.4128327925762107
 51
215.6608488497855944
  0
ARC
  5
11D80
  8
0
 10
6.8705436643919731
 20
3.4763437329888549
 30
0.0
 40
0.0767350850493293
 50
215.6608488497861913
 51
228.6919222355296029
  0
ARC
  5
11D81
  8
0
 10
6.9473843220091283
 20
3.5637847524460291
 30
0.0
 40
0.1931413501158916
 50
228.6919222355296029
 51
238.5233695755549945
  0
ARC
  5
11D82
  8
0
 10
7.0092480945383713
 20
3.675913589758415
 30
0.0
 40
0.3211251598975728
 50
239.5560317849974012
 51
249.4333486439984995
  0
ARC
  5
11D83
  8
0
 10
6.9129864106958792
 20
3.5451188895659231
 30
0.0
 40
0.1567780082595126
 50
216.5529700098612125
 51
232.7837380574599138
  0
ARC
  5
11D84
  8
0
 10
6.8268531899104508
 20
3.4812603433272642
 30
0.0
 40
0.0495546635505068
 50
193.8378884351099884
 51
216.5529700098618946
  0
ARC
  5
11D85
  8
0
 10
6.8273364489209314
 20
3.481379382028563
 30
0.0
 40
0.0500523677634878
 50
159.3910796541219952
 51
193.8378884351099032
  0
ARC
  5
11D86
  8
0
 10
6.848424037774798
 20
3.4734493312971391
 30
0.0
 40
0.0725817287902166
 50
123.981866067350694
 51
159.3910796541221941
  0
ARC
  5
11D87
  8
0
 10
7.2491306946325622
 20
2.053482015847286
 30
0.0
 40
1.5651636695091691
 50
89.984785016371319
 51
93.669046475494369
  0
ARC
  5
11D88
  8
0
 10
7.2374725020834978
 20
2.239924014230648
 30
0.0
 40
1.3783575341316281
 50
93.5780387174110331
 51
99.7882048053225361
  0
ARC
  5
11D89
  8
0
 10
7.1464917081226744
 20
2.7672938976695991
 30
0.0
 40
0.8431972788546191
 50
99.7882048053225361
 51
106.437314969624893
  0
ARC
  5
11D8A
  8
0
 10
7.0555149535026231
 20
3.0756647718482522
 30
0.0
 40
0.5216862122909544
 50
106.437314969624893
 51
115.4945911964713048
  0
ARC
  5
11D8B
  8
0
 10
6.919120966732315
 20
3.361690196765557
 30
0.0
 40
0.2048047465561708
 50
115.4945911964713048
 51
122.9067856221650032
  0
ARC
  5
11D8C
  8
0
 10
7.2479034884984648
 20
2.0592606148326911
 30
0.0
 40
1.5624274321314131
 50
89.9397554812387199
 51
94.606711148621045
  0
ARC
  5
11D8D
  8
0
 10
7.2251876962498542
 20
2.3409222613733038
 30
0.0
 40
1.279851265703148
 50
94.6057906282020156
 51
103.159117037839593
  0
ARC
  5
11D8E
  8
0
 10
7.0595551343643796
 20
3.0493737320787271
 30
0.0
 40
0.5522953352748236
 50
103.159117037839593
 51
114.8565054727181973
  0
ARC
  5
11D8F
  8
0
 10
6.9093492519452013
 20
3.3658483860639441
 30
0.0
 40
0.2020255524869514
 50
113.9313116567315944
 51
135.2404287401938916
  0
ARC
  5
11D90
  8
0
 10
6.808453896133563
 20
3.4645152663911558
 30
0.0
 40
0.0609163138146518
 50
134.3152349242070045
 51
178.0700002494629075
  0
ARC
  5
11D91
  8
0
 10
6.8094215902040673
 20
3.4692089685150371
 30
0.0
 40
0.0619058598566266
 50
182.4461186878253898
 51
223.7156074604424987
  0
ARC
  5
11D92
  8
0
 10
6.8731500930880847
 20
3.5239272967902648
 30
0.0
 40
0.1458513795335689
 50
221.9506286076166077
 51
236.9370597560879048
  0
ARC
  5
11D93
  8
0
 10
6.966016455996864
 20
3.6675426230487882
 30
0.0
 40
0.3168759328273547
 50
237.0314631007273931
 51
248.5278888400193011
  0
ARC
  5
11D94
  8
0
 10
7.062513643226672
 20
3.90161912933134
 30
0.0
 40
0.5700440543809212
 50
248.114123593086191
 51
253.8399354526709999
  0
ARC
  5
11D95
  8
0
 10
7.0211381646796189
 20
3.765928794680085
 30
0.0
 40
0.4240968843945993
 50
240.3156953044058923
 51
253.5890106612361876
  0
ARC
  5
11D96
  8
0
 10
6.8687571684820758
 20
3.5052179868627809
 30
0.0
 40
0.1221815399159839
 50
209.2479507764707023
 51
241.8512924424379946
  0
ARC
  5
11D97
  8
0
 10
6.8065697596344492
 20
3.4664957335818789
 30
0.0
 40
0.0491207973800339
 50
164.1794927273724056
 51
205.2771281778431955
  0
ARC
  5
11D98
  8
0
 10
6.8495549172135313
 20
3.4446532390765219
 30
0.0
 40
0.0968795548699436
 50
135.5375353309678133
 51
158.6730729907145871
  0
ARC
  5
11D99
  8
0
 10
6.8853101406990467
 20
3.4033907348568309
 30
0.0
 40
0.151364491624114
 50
121.7151959890913986
 51
133.8698873066512078
  0
ARC
  5
11D9A
  8
0
 10
7.8957987029366086
 20
4.4545622986381801
 30
0.0
 40
1.5176235048538791
 50
200.2491701034792015
 51
215.2395044581535046
  0
ARC
  5
11D9B
  8
0
 10
7.534219880457413
 20
4.1991229553294822
 30
0.0
 40
1.0749176171864361
 50
215.2395044581535046
 51
222.9606853566999121
  0
ARC
  5
11D9C
  8
0
 10
7.3475636516933909
 20
1.3629334465640921
 30
0.0
 40
2.194808591730506
 50
93.9985274685696339
 51
96.0984080834235783
  0
ARC
  5
11D9D
  8
0
 10
7.2500561896761431
 20
2.489858559641803
 30
0.0
 40
0.9617105694291453
 50
87.8537099979877638
 51
90.0303761057922003
  0
ARC
  5
11D9E
  8
0
 10
7.2550635020809571
 20
2.5439099628408779
 30
0.0
 40
0.9075144472437681
 50
84.4450648430462962
 51
88.0418216568062917
  0
ARC
  5
11D9F
  8
0
 10
7.2751449709604037
 20
2.704554711451546
 30
0.0
 40
0.7456934223594988
 50
77.8276656712576056
 51
84.7859660324203475
  0
ARC
  5
11DA0
  8
0
 10
7.3375123107379494
 20
2.990215027413746
 30
0.0
 40
0.4533056360671263
 50
70.3166935409286538
 51
77.9203013225840238
  0
ARC
  5
11DA1
  8
0
 10
7.4179687944911592
 20
3.210481549976393
 30
0.0
 40
0.2188157360114574
 50
57.6187878267084415
 51
70.7264662720695583
  0
ARC
  5
11DA2
  8
0
 10
7.4968054799279074
 20
3.3320208802912918
 30
0.0
 40
0.073969314695926
 50
30.3528559235185291
 51
58.7710555948027675
  0
ARC
  5
11DA3
  8
0
 10
7.5330488299083882
 20
3.3543030992736962
 30
0.0
 40
0.0314473785149762
 50
343.850732963917892
 51
28.6885213056202701
  0
ARC
  5
11DA4
  8
0
 10
7.5143227971878801
 20
3.3622677773606919
 30
0.0
 40
0.0517074825056866
 50
308.3760312055941881
 51
341.1438920218055273
  0
ARC
  5
11DA5
  8
0
 10
7.4186305916603033
 20
3.4896267850979319
 30
0.0
 40
0.2109974616367204
 50
285.6611398663014256
 51
307.2765260333728747
  0
ARC
  5
11DA6
  8
0
 10
7.3090751157023561
 20
3.8257328058012829
 30
0.0
 40
0.5643927500662295
 50
278.9050752078154005
 51
287.1594329645714083
  0
ARC
  5
11DA7
  8
0
 10
7.256597825082018
 20
4.1473887167287273
 30
0.0
 40
0.8902972129565309
 50
272.1569666461256816
 51
279.0372028218187097
  0
ARC
  5
11DA8
  8
0
 10
7.2496605194791641
 20
4.2676002659529004
 30
0.0
 40
1.0106875580584671
 50
269.9935263987118219
 51
272.2934734971476018
  0
LINE
  5
11DA9
  8
0
 10
7.287233286181702
 20
3.4430228055706422
 30
0.0
 11
7.2675482468016241
 21
3.442031227561948
 31
0.0
  0
LINE
  5
11DAA
  8
0
 10
7.2675482468016241
 20
3.442031227561948
 30
0.0
 11
7.2577057271075196
 21
3.4286133260195539
 31
0.0
  0
LINE
  5
11DAB
  8
0
 10
7.2577057271075196
 20
3.4286133260195539
 30
0.0
 11
7.2675482467816996
 21
3.4162844681414231
 31
0.0
  0
LINE
  5
11DAC
  8
0
 10
7.2675482467816996
 20
3.4162844681414231
 30
0.0
 11
7.287233286181702
 21
3.417246737870641
 31
0.0
  0
LINE
  5
11DAD
  8
0
 10
7.287233286181702
 20
3.417246737870641
 30
0.0
 11
7.2970758057817022
 21
3.430566516970639
 31
0.0
  0
LINE
  5
11DAE
  8
0
 10
7.2970758057817022
 20
3.430566516970639
 30
0.0
 11
7.287233286181702
 21
3.4430228055706422
 31
0.0
  0
LINE
  5
11DAF
  8
0
 10
7.287233286181702
 20
3.4430228055706422
 30
0.0
 11
7.287233286181702
 21
3.417246737870641
 31
0.0
  0
LINE
  5
11DB0
  8
0
 10
7.2675482467816996
 20
3.4162844681414231
 30
0.0
 11
7.2675482468016241
 21
3.442031227561948
 31
0.0
  0
LINE
  5
11DB1
  8
0
 10
7.3150721357817039
 20
3.424332831365418
 30
0.0
 11
7.2953870963817016
 21
3.422390712140682
 31
0.0
  0
LINE
  5
11DB2
  8
0
 10
7.2953870963817016
 20
3.422390712140682
 30
0.0
 11
7.2855445767401363
 21
3.4094954025530688
 31
0.0
  0
LINE
  5
11DB3
  8
0
 10
7.2855445767401363
 20
3.4094954025530688
 30
0.0
 11
7.2953870963817016
 21
3.398596621539141
 31
0.0
  0
LINE
  5
11DB4
  8
0
 10
7.2953870963817016
 20
3.398596621539141
 30
0.0
 11
7.3150721358143178
 21
3.400489485947364
 31
0.0
  0
LINE
  5
11DB5
  8
0
 10
7.3150721358143178
 20
3.400489485947364
 30
0.0
 11
7.3249146554840356
 21
3.4133294572266411
 31
0.0
  0
LINE
  5
11DB6
  8
0
 10
7.3249146554840356
 20
3.4133294572266411
 30
0.0
 11
7.3150721357817039
 21
3.424332831365418
 31
0.0
  0
LINE
  5
11DB7
  8
0
 10
7.3150721357817039
 20
3.424332831365418
 30
0.0
 11
7.3150721358143178
 21
3.400489485947364
 31
0.0
  0
LINE
  5
11DB8
  8
0
 10
7.2953870963817016
 20
3.398596621539141
 30
0.0
 11
7.2953870963817016
 21
3.422390712140682
 31
0.0
  0
LINE
  5
11DB9
  8
0
 10
7.3330123299564596
 20
3.4480705969037611
 30
0.0
 11
7.3232259460598419
 21
3.446665748707328
 31
0.0
  0
LINE
  5
11DBA
  8
0
 10
7.3232259460598419
 20
3.446665748707328
 30
0.0
 11
7.3133834264322237
 21
3.432190315185081
 31
0.0
  0
LINE
  5
11DBB
  8
0
 10
7.3133834264322237
 20
3.432190315185081
 30
0.0
 11
7.3232259460816991
 21
3.4207810439627009
 31
0.0
  0
LINE
  5
11DBC
  8
0
 10
7.3232259460816991
 20
3.4207810439627009
 30
0.0
 11
7.3429109855064061
 21
3.42369886205854
 31
0.0
  0
LINE
  5
11DBD
  8
0
 10
7.3429109855064061
 20
3.42369886205854
 30
0.0
 11
7.3527535051172563
 21
3.4381148186513029
 31
0.0
  0
LINE
  5
11DBE
  8
0
 10
7.3527535051172563
 20
3.4381148186513029
 30
0.0
 11
7.3429109854817014
 21
3.4471625806706392
 31
0.0
  0
LINE
  5
11DBF
  8
0
 10
7.3429109854817014
 20
3.4471625806706392
 30
0.0
 11
7.3429109855064061
 21
3.42369886205854
 31
0.0
  0
LINE
  5
11DC0
  8
0
 10
7.3232259460816991
 20
3.4207810439627009
 30
0.0
 11
7.3232259460598419
 21
3.446665748707328
 31
0.0
  0
LINE
  5
11DC1
  8
0
 10
7.3707498350817033
 20
3.4336462872342919
 30
0.0
 11
7.351064795681701
 21
3.429697766045158
 31
0.0
  0
LINE
  5
11DC2
  8
0
 10
7.351064795681701
 20
3.429697766045158
 30
0.0
 11
7.3413439233304976
 21
3.4158936782560612
 31
0.0
  0
LINE
  5
11DC3
  8
0
 10
7.3413439233304976
 20
3.4158936782560612
 30
0.0
 11
7.3511864429720637
 21
3.4057380556444161
 31
0.0
  0
LINE
  5
11DC4
  8
0
 10
7.3511864429720637
 20
3.4057380556444161
 30
0.0
 11
7.3707498351090726
 21
3.4095616299176612
 31
0.0
  0
LINE
  5
11DC5
  8
0
 10
7.3707498351090726
 20
3.4095616299176612
 30
0.0
 11
7.3805923547605872
 21
3.423517876150437
 31
0.0
  0
LINE
  5
11DC6
  8
0
 10
7.3805923547605872
 20
3.423517876150437
 30
0.0
 11
7.3707498350817033
 21
3.4336462872342919
 31
0.0
  0
LINE
  5
11DC7
  8
0
 10
7.3707498350817033
 20
3.4336462872342919
 30
0.0
 11
7.3707498351090726
 21
3.4095616299176612
 31
0.0
  0
LINE
  5
11DC8
  8
0
 10
7.3511864429720637
 20
3.4057380556444161
 30
0.0
 11
7.351064795681701
 21
3.429697766045158
 31
0.0
  0
LINE
  5
11DC9
  8
0
 10
7.3429109854817014
 20
3.40854518669531
 30
0.0
 11
7.3232259459760121
 21
3.4056750167229728
 31
0.0
  0
LINE
  5
11DCA
  8
0
 10
7.3232259459760121
 20
3.4056750167229728
 30
0.0
 11
7.313383426334453
 21
3.3932414576978149
 31
0.0
  0
LINE
  5
11DCB
  8
0
 10
7.313383426334453
 20
3.3932414576978149
 30
0.0
 11
7.3232259459760121
 21
3.383697301110419
 31
0.0
  0
LINE
  5
11DCC
  8
0
 10
7.3232259459760121
 20
3.383697301110419
 30
0.0
 11
7.3425584738716054
 21
3.3864490430476151
 31
0.0
  0
LINE
  5
11DCD
  8
0
 10
7.3425584738716054
 20
3.3864490430476151
 30
0.0
 11
7.3527535051346504
 21
3.3989186594711032
 31
0.0
  0
LINE
  5
11DCE
  8
0
 10
7.3527535051346504
 20
3.3989186594711032
 30
0.0
 11
7.3429109854817014
 21
3.40854518669531
 31
0.0
  0
LINE
  5
11DCF
  8
0
 10
7.3429109854817014
 20
3.40854518669531
 30
0.0
 11
7.3425584738716054
 21
3.3864490430476151
 31
0.0
  0
LINE
  5
11DD0
  8
0
 10
7.3232259459760121
 20
3.383697301110419
 30
0.0
 11
7.3232259459760121
 21
3.4056750167229728
 31
0.0
  0
LINE
  5
11DD1
  8
0
 10
7.3985886847816991
 20
3.420496959122985
 30
0.0
 11
7.3789036453817038
 21
3.415610121434582
 31
0.0
  0
LINE
  5
11DD2
  8
0
 10
7.3789036453817038
 20
3.415610121434582
 30
0.0
 11
7.3690611257189431
 21
3.402080769253323
 31
0.0
  0
LINE
  5
11DD3
  8
0
 10
7.3690611257189431
 20
3.402080769253323
 30
0.0
 11
7.3789036453817038
 21
3.3934142852154241
 31
0.0
  0
LINE
  5
11DD4
  8
0
 10
7.3789036453817038
 20
3.3934142852154241
 30
0.0
 11
7.3985886847440261
 21
3.398190789646172
 31
0.0
  0
LINE
  5
11DD5
  8
0
 10
7.3985886847440261
 20
3.398190789646172
 30
0.0
 11
7.4084312043883918
 21
3.4117425431810382
 31
0.0
  0
LINE
  5
11DD6
  8
0
 10
7.4084312043883918
 20
3.4117425431810382
 30
0.0
 11
7.3985886847816991
 21
3.420496959122985
 31
0.0
  0
LINE
  5
11DD7
  8
0
 10
7.3985886847816991
 20
3.420496959122985
 30
0.0
 11
7.3985886847440261
 21
3.398190789646172
 31
0.0
  0
LINE
  5
11DD8
  8
0
 10
7.3789036453817038
 20
3.3934142852154241
 30
0.0
 11
7.3789036453817038
 21
3.415610121434582
 31
0.0
  0
LINE
  5
11DD9
  8
0
 10
7.3707498350582616
 20
3.3955397979087638
 30
0.0
 11
7.351064795681701
 21
3.39174849247064
 31
0.0
  0
LINE
  5
11DDA
  8
0
 10
7.351064795681701
 20
3.39174849247064
 30
0.0
 11
7.341222276027735
 21
3.3797278170077472
 31
0.0
  0
LINE
  5
11DDB
  8
0
 10
7.341222276027735
 20
3.3797278170077472
 30
0.0
 11
7.3510647956904904
 21
3.3710613329698478
 31
0.0
  0
LINE
  5
11DDC
  8
0
 10
7.3510647956904904
 20
3.3710613329698478
 30
0.0
 11
7.3707498350817033
 21
3.3752098139736009
 31
0.0
  0
LINE
  5
11DDD
  8
0
 10
7.3707498350817033
 20
3.3752098139736009
 30
0.0
 11
7.3805923547614318
 21
3.3872401530193841
 31
0.0
  0
LINE
  5
11DDE
  8
0
 10
7.3805923547614318
 20
3.3872401530193841
 30
0.0
 11
7.3707498350582616
 21
3.3955397979087638
 31
0.0
  0
LINE
  5
11DDF
  8
0
 10
7.3707498350582616
 20
3.3955397979087638
 30
0.0
 11
7.3707498350817033
 21
3.3752098139736009
 31
0.0
  0
LINE
  5
11DE0
  8
0
 10
7.3510647956904904
 20
3.3710613329698478
 30
0.0
 11
7.351064795681701
 21
3.39174849247064
 31
0.0
  0
LINE
  5
11DE1
  8
0
 10
7.3985886847148228
 20
3.3852463630008631
 30
0.0
 11
7.3793026094124983
 21
3.380615314916692
 31
0.0
  0
LINE
  5
11DE2
  8
0
 10
7.3793026094124983
 20
3.380615314916692
 30
0.0
 11
7.36906112565645
 21
3.3688788510006971
 31
0.0
  0
LINE
  5
11DE3
  8
0
 10
7.36906112565645
 20
3.3688788510006971
 30
0.0
 11
7.378937067293406
 21
3.3619215603751078
 31
0.0
  0
LINE
  5
11DE4
  8
0
 10
7.378937067293406
 20
3.3619215603751078
 30
0.0
 11
7.3985886848022551
 21
3.3665621395173408
 31
0.0
  0
LINE
  5
11DE5
  8
0
 10
7.3985886848022551
 20
3.3665621395173408
 30
0.0
 11
7.4084312043259066
 21
3.3785406249284118
 31
0.0
  0
LINE
  5
11DE6
  8
0
 10
7.4084312043259066
 20
3.3785406249284118
 30
0.0
 11
7.3985886847148228
 21
3.3852463630008631
 31
0.0
  0
LINE
  5
11DE7
  8
0
 10
7.3985886847148228
 20
3.3852463630008631
 30
0.0
 11
7.3985886848022551
 21
3.3665621395173408
 31
0.0
  0
LINE
  5
11DE8
  8
0
 10
7.378937067293406
 20
3.3619215603751078
 30
0.0
 11
7.3793026094124983
 21
3.380615314916692
 31
0.0
  0
LINE
  5
11DE9
  8
0
 10
7.4264275344242696
 20
3.377638517387854
 30
0.0
 11
7.4073025614132808
 21
3.3721205463358821
 31
0.0
  0
LINE
  5
11DEA
  8
0
 10
7.4073025614132808
 20
3.3721205463358821
 30
0.0
 11
7.396899975318405
 21
3.3606608982722861
 31
0.0
  0
LINE
  5
11DEB
  8
0
 10
7.396899975318405
 20
3.3606608982722861
 30
0.0
 11
7.4067424949816987
 21
3.3549618054706398
 31
0.0
  0
LINE
  5
11DEC
  8
0
 10
7.4067424949816987
 20
3.3549618054706398
 30
0.0
 11
7.4264275343498971
 21
3.3605615914874489
 31
0.0
  0
LINE
  5
11DED
  8
0
 10
7.4264275343498971
 20
3.3605615914874489
 30
0.0
 11
7.4362700540640878
 21
3.371929758999936
 31
0.0
  0
LINE
  5
11DEE
  8
0
 10
7.4362700540640878
 20
3.371929758999936
 30
0.0
 11
7.4264275344242696
 21
3.377638517387854
 31
0.0
  0
LINE
  5
11DEF
  8
0
 10
7.4264275344242696
 20
3.377638517387854
 30
0.0
 11
7.4264275343498971
 21
3.3605615914874489
 31
0.0
  0
LINE
  5
11DF0
  8
0
 10
7.4067424949816987
 20
3.3549618054706398
 30
0.0
 11
7.4073025614132808
 21
3.3721205463358821
 31
0.0
  0
LINE
  5
11DF1
  8
0
 10
7.426427534381701
 20
3.4101489237520819
 30
0.0
 11
7.4068434370985514
 21
3.404338315050313
 31
0.0
  0
LINE
  5
11DF2
  8
0
 10
7.4068434370985514
 20
3.404338315050313
 30
0.0
 11
7.3968999753325164
 21
3.3911724207620391
 31
0.0
  0
LINE
  5
11DF3
  8
0
 10
7.3968999753325164
 20
3.3911724207620391
 30
0.0
 11
7.4067424950579621
 21
3.38381580719604
 31
0.0
  0
LINE
  5
11DF4
  8
0
 10
7.4067424950579621
 20
3.38381580719604
 30
0.0
 11
7.426427534381701
 21
3.3895418626706402
 31
0.0
  0
LINE
  5
11DF5
  8
0
 10
7.426427534381701
 20
3.3895418626706402
 30
0.0
 11
7.4362700540598459
 21
3.40273601361995
 31
0.0
  0
LINE
  5
11DF6
  8
0
 10
7.4362700540598459
 20
3.40273601361995
 30
0.0
 11
7.426427534381701
 21
3.4101489237520819
 31
0.0
  0
LINE
  5
11DF7
  8
0
 10
7.426427534381701
 20
3.4101489237520819
 30
0.0
 11
7.426427534381701
 21
3.3895418626706402
 31
0.0
  0
LINE
  5
11DF8
  8
0
 10
7.4067424950579621
 20
3.38381580719604
 30
0.0
 11
7.4068434370985514
 21
3.404338315050313
 31
0.0
  0
LINE
  5
11DF9
  8
0
 10
7.4542355853412872
 20
3.4025618779234641
 30
0.0
 11
7.4345813446817033
 21
3.395754235579346
 31
0.0
  0
LINE
  5
11DFA
  8
0
 10
7.4345813446817033
 20
3.395754235579346
 30
0.0
 11
7.4250136298317031
 21
3.383311359670639
 31
0.0
  0
LINE
  5
11DFB
  8
0
 10
7.4250136298317031
 20
3.383311359670639
 30
0.0
 11
7.4345813446293363
 21
3.3769055115180491
 31
0.0
  0
LINE
  5
11DFC
  8
0
 10
7.4345813446293363
 20
3.3769055115180491
 30
0.0
 11
7.4542663840817047
 21
3.3836141143707219
 31
0.0
  0
LINE
  5
11DFD
  8
0
 10
7.4542663840817047
 20
3.3836141143707219
 30
0.0
 11
7.4641089037442612
 21
3.3964916611358862
 31
0.0
  0
LINE
  5
11DFE
  8
0
 10
7.4641089037442612
 20
3.3964916611358862
 30
0.0
 11
7.4542355853412872
 21
3.4025618779234641
 31
0.0
  0
LINE
  5
11DFF
  8
0
 10
7.4542355853412872
 20
3.4025618779234641
 30
0.0
 11
7.4542663840817047
 21
3.3836141143707219
 31
0.0
  0
LINE
  5
11E00
  8
0
 10
7.4345813446293363
 20
3.3769055115180491
 30
0.0
 11
7.4345813446817033
 21
3.395754235579346
 31
0.0
  0
LINE
  5
11E01
  8
0
 10
7.4821052336817004
 20
3.3977866941706401
 30
0.0
 11
7.4624201943118811
 21
3.3899427100719168
 31
0.0
  0
LINE
  5
11E02
  8
0
 10
7.4624201943118811
 20
3.3899427100719168
 30
0.0
 11
7.4525776746764194
 21
3.3774635037931091
 31
0.0
  0
LINE
  5
11E03
  8
0
 10
7.4525776746764194
 20
3.3774635037931091
 30
0.0
 11
7.462420194381699
 21
3.3727098395695019
 31
0.0
  0
LINE
  5
11E04
  8
0
 10
7.462420194381699
 20
3.3727098395695019
 30
0.0
 11
7.4821052337131269
 21
3.3804504933444011
 31
0.0
  0
LINE
  5
11E05
  8
0
 10
7.4821052337131269
 20
3.3804504933444011
 30
0.0
 11
7.4919477533321617
 21
3.393048484402033
 31
0.0
  0
LINE
  5
11E06
  8
0
 10
7.4919477533321617
 20
3.393048484402033
 30
0.0
 11
7.4821052336817004
 21
3.3977866941706401
 31
0.0
  0
LINE
  5
11E07
  8
0
 10
7.4821052336817004
 20
3.3977866941706401
 30
0.0
 11
7.4821052337131269
 21
3.3804504933444011
 31
0.0
  0
LINE
  5
11E08
  8
0
 10
7.462420194381699
 20
3.3727098395695019
 30
0.0
 11
7.4624201943118811
 21
3.3899427100719168
 31
0.0
  0
LINE
  5
11E09
  8
0
 10
7.3707498350279081
 20
3.3634464152119641
 30
0.0
 11
7.351064795681701
 21
3.3597596967706411
 31
0.0
  0
LINE
  5
11E0A
  8
0
 10
7.351064795681701
 20
3.3597596967706411
 30
0.0
 11
7.34122227606069
 21
3.3494958280246752
 31
0.0
  0
LINE
  5
11E0B
  8
0
 10
7.34122227606069
 20
3.3494958280246752
 30
0.0
 11
7.3510647957234454
 21
3.3428969211897051
 31
0.0
  0
LINE
  5
11E0C
  8
0
 10
7.3510647957234454
 20
3.3428969211897051
 30
0.0
 11
7.3707498350817033
 21
3.346540629470641
 31
0.0
  0
LINE
  5
11E0D
  8
0
 10
7.3707498350817033
 20
3.346540629470641
 30
0.0
 11
7.3805923547438184
 21
3.3568260022899841
 31
0.0
  0
LINE
  5
11E0E
  8
0
 10
7.3805923547438184
 20
3.3568260022899841
 30
0.0
 11
7.3707498350279081
 21
3.3634464152119641
 31
0.0
  0
LINE
  5
11E0F
  8
0
 10
7.3707498350279081
 20
3.3634464152119641
 30
0.0
 11
7.3707498350817033
 21
3.346540629470641
 31
0.0
  0
LINE
  5
11E10
  8
0
 10
7.3510647957234454
 20
3.3428969211897051
 30
0.0
 11
7.351064795681701
 21
3.3597596967706411
 31
0.0
  0
LINE
  5
11E11
  8
0
 10
7.3429109854206009
 20
3.3736980873663991
 30
0.0
 11
7.3232259459918287
 21
3.370564018448778
 31
0.0
  0
LINE
  5
11E12
  8
0
 10
7.3232259459918287
 20
3.370564018448778
 30
0.0
 11
7.3133834263708186
 21
3.3603001497028151
 31
0.0
  0
LINE
  5
11E13
  8
0
 10
7.3133834263708186
 20
3.3603001497028151
 30
0.0
 11
7.3232259460229301
 21
3.3524520708453198
 31
0.0
  0
LINE
  5
11E14
  8
0
 10
7.3232259460229301
 20
3.3524520708453198
 30
0.0
 11
7.3429109854817014
 21
3.3551873565706418
 31
0.0
  0
LINE
  5
11E15
  8
0
 10
7.3429109854817014
 20
3.3551873565706418
 30
0.0
 11
7.3527535051117923
 21
3.3658109413655311
 31
0.0
  0
LINE
  5
11E16
  8
0
 10
7.3527535051117923
 20
3.3658109413655311
 30
0.0
 11
7.3429109854206009
 21
3.3736980873663991
 31
0.0
  0
LINE
  5
11E17
  8
0
 10
7.3429109854206009
 20
3.3736980873663991
 30
0.0
 11
7.3429109854817014
 21
3.3551873565706418
 31
0.0
  0
LINE
  5
11E18
  8
0
 10
7.3232259460229301
 20
3.3524520708453198
 30
0.0
 11
7.3232259459918287
 21
3.370564018448778
 31
0.0
  0
LINE
  5
11E19
  8
0
 10
7.3150721356524713
 20
3.3865934912379632
 30
0.0
 11
7.2953870963817016
 21
3.384726344723457
 31
0.0
  0
LINE
  5
11E1A
  8
0
 10
7.2953870963817016
 20
3.384726344723457
 30
0.0
 11
7.2855445766818434
 21
3.373714899947486
 31
0.0
  0
LINE
  5
11E1B
  8
0
 10
7.2855445766818434
 20
3.373714899947486
 30
0.0
 11
7.2953870963817016
 21
3.3645919115319312
 31
0.0
  0
LINE
  5
11E1C
  8
0
 10
7.2953870963817016
 20
3.3645919115319312
 30
0.0
 11
7.3150721357817039
 21
3.366425847271489
 31
0.0
  0
LINE
  5
11E1D
  8
0
 10
7.3150721357817039
 20
3.366425847271489
 30
0.0
 11
7.3249146554458662
 21
3.3774155516998681
 31
0.0
  0
LINE
  5
11E1E
  8
0
 10
7.3249146554458662
 20
3.3774155516998681
 30
0.0
 11
7.3150721356524713
 21
3.3865934912379632
 31
0.0
  0
LINE
  5
11E1F
  8
0
 10
7.3150721356524713
 20
3.3865934912379632
 30
0.0
 11
7.3150721357817039
 21
3.366425847271489
 31
0.0
  0
LINE
  5
11E20
  8
0
 10
7.2953870963817016
 20
3.3645919115319312
 30
0.0
 11
7.2953870963817016
 21
3.384726344723457
 31
0.0
  0
LINE
  5
11E21
  8
0
 10
7.2872332860575346
 20
3.4021977197498501
 30
0.0
 11
7.2675482467816996
 21
3.4012508395859942
 31
0.0
  0
LINE
  5
11E22
  8
0
 10
7.2675482467816996
 20
3.4012508395859942
 30
0.0
 11
7.2577057270853373
 21
3.3898111595037612
 31
0.0
  0
LINE
  5
11E23
  8
0
 10
7.2577057270853373
 20
3.3898111595037612
 30
0.0
 11
7.2675482467816996
 21
3.379367677878093
 31
0.0
  0
LINE
  5
11E24
  8
0
 10
7.2675482467816996
 20
3.379367677878093
 30
0.0
 11
7.287233286181702
 21
3.3802944516011202
 31
0.0
  0
LINE
  5
11E25
  8
0
 10
7.287233286181702
 20
3.3802944516011202
 30
0.0
 11
7.297075805790044
 21
3.391684491987351
 31
0.0
  0
LINE
  5
11E26
  8
0
 10
7.297075805790044
 20
3.391684491987351
 30
0.0
 11
7.2872332860575346
 21
3.4021977197498501
 31
0.0
  0
LINE
  5
11E27
  8
0
 10
7.2872332860575346
 20
3.4021977197498501
 30
0.0
 11
7.287233286181702
 21
3.3802944516011202
 31
0.0
  0
LINE
  5
11E28
  8
0
 10
7.2675482467816996
 20
3.379367677878093
 30
0.0
 11
7.2675482467816996
 21
3.4012508395859942
 31
0.0
  0
LINE
  5
11E29
  8
0
 10
7.287233286181702
 20
3.3675577798987391
 30
0.0
 11
7.267566025127123
 21
3.366641927859539
 31
0.0
  0
LINE
  5
11E2A
  8
0
 10
7.267566025127123
 20
3.366641927859539
 30
0.0
 11
7.2577057271383429
 21
3.356968747105781
 31
0.0
  0
LINE
  5
11E2B
  8
0
 10
7.2577057271383429
 20
3.356968747105781
 30
0.0
 11
7.2675482466632531
 21
3.348233112533431
 31
0.0
  0
LINE
  5
11E2C
  8
0
 10
7.2675482466632531
 20
3.348233112533431
 30
0.0
 11
7.2872332861138744
 21
3.349136343067574
 31
0.0
  0
LINE
  5
11E2D
  8
0
 10
7.2872332861138744
 20
3.349136343067574
 30
0.0
 11
7.2970758058433409
 21
3.358788223768193
 31
0.0
  0
LINE
  5
11E2E
  8
0
 10
7.2970758058433409
 20
3.358788223768193
 30
0.0
 11
7.287233286181702
 21
3.3675577798987391
 31
0.0
  0
LINE
  5
11E2F
  8
0
 10
7.287233286181702
 20
3.3675577798987391
 30
0.0
 11
7.2872332861138744
 21
3.349136343067574
 31
0.0
  0
LINE
  5
11E30
  8
0
 10
7.2675482466632531
 20
3.348233112533431
 30
0.0
 11
7.267566025127123
 21
3.366641927859539
 31
0.0
  0
LINE
  5
11E31
  8
0
 10
7.3150721357293591
 20
3.3547445977948338
 30
0.0
 11
7.2953870963767136
 21
3.352927481720005
 31
0.0
  0
LINE
  5
11E32
  8
0
 10
7.2953870963767136
 20
3.352927481720005
 30
0.0
 11
7.285544576753324
 21
3.3436251754036048
 31
0.0
  0
LINE
  5
11E33
  8
0
 10
7.285544576753324
 20
3.3436251754036048
 30
0.0
 11
7.2954530778960844
 21
3.3361478575420089
 31
0.0
  0
LINE
  5
11E34
  8
0
 10
7.2954530778960844
 20
3.3361478575420089
 30
0.0
 11
7.3150721357817039
 21
3.3379394113607499
 31
0.0
  0
LINE
  5
11E35
  8
0
 10
7.3150721357817039
 20
3.3379394113607499
 30
0.0
 11
7.3249146554127611
 21
3.3472386361720292
 31
0.0
  0
LINE
  5
11E36
  8
0
 10
7.3249146554127611
 20
3.3472386361720292
 30
0.0
 11
7.3150721357293591
 21
3.3547445977948338
 31
0.0
  0
LINE
  5
11E37
  8
0
 10
7.3150721357293591
 20
3.3547445977948338
 30
0.0
 11
7.3150721357817039
 21
3.3379394113607499
 31
0.0
  0
LINE
  5
11E38
  8
0
 10
7.2954530778960844
 20
3.3361478575420089
 30
0.0
 11
7.2953870963767136
 21
3.352927481720005
 31
0.0
  0
LINE
  5
11E39
  8
0
 10
7.3206469136816992
 20
3.449047896470641
 30
0.0
 11
7.315072135782855
 21
3.4406943808386852
 31
0.0
  0
LINE
  5
11E3A
  8
0
 10
7.315072135782855
 20
3.4406943808386852
 30
0.0
 11
7.2953870963771124
 21
3.4387147456605258
 31
0.0
  0
LINE
  5
11E3B
  8
0
 10
7.2953870963771124
 20
3.4387147456605258
 30
0.0
 11
7.2859419208563594
 21
3.4508989347749859
 31
0.0
  0
LINE
  5
11E3C
  8
0
 10
7.2953898108855659
 20
3.4505279975028631
 30
0.0
 11
7.2953870964243421
 21
3.4387147456644271
 31
0.0
  0
LINE
  5
11E3D
  8
0
 10
7.315072135776048
 20
3.4406943808286519
 30
0.0
 11
7.315072135776048
 21
3.4494385313771359
 31
0.0
  0
LINE
  5
11E3E
  8
0
 10
7.400965425057179
 20
3.4395566798034021
 30
0.0
 11
7.3985886847816991
 21
3.4358550250099782
 31
0.0
  0
LINE
  5
11E3F
  8
0
 10
7.3985886847816991
 20
3.4358550250099782
 30
0.0
 11
7.3789036453817038
 21
3.4308834273293121
 31
0.0
  0
LINE
  5
11E40
  8
0
 10
7.3789036453817038
 20
3.4308834273293121
 30
0.0
 11
7.3690611256656311
 21
3.4414171808364351
 31
0.0
  0
LINE
  5
11E41
  8
0
 10
7.3690611256656311
 20
3.4414171808364351
 30
0.0
 11
7.3707847245286544
 21
3.4440895096102468
 31
0.0
  0
LINE
  5
11E42
  8
0
 10
7.3789036453817038
 20
3.430883427329309
 30
0.0
 11
7.3789036453817038
 21
3.4429941589572688
 31
0.0
  0
LINE
  5
11E43
  8
0
 10
7.3985886847955982
 20
3.4358550249691291
 30
0.0
 11
7.3985886847955982
 21
3.4399595861054979
 31
0.0
  0
LINE
  5
11E44
  8
0
 10
7.4323765316817036
 20
3.4334833200706392
 30
0.0
 11
7.4264275343785613
 21
3.4243860158793562
 31
0.0
  0
LINE
  5
11E45
  8
0
 10
7.4264275343785613
 20
3.4243860158793562
 30
0.0
 11
7.4067424949785581
 21
3.4184598467917371
 31
0.0
  0
LINE
  5
11E46
  8
0
 10
7.4067424949785581
 20
3.4184598467917371
 30
0.0
 11
7.3968999753687106
 21
3.4275998337076352
 31
0.0
  0
LINE
  5
11E47
  8
0
 10
7.3968999753687106
 20
3.4275998337076352
 30
0.0
 11
7.4044269157871119
 21
3.4389557319383419
 31
0.0
  0
LINE
  5
11E48
  8
0
 10
7.4067424949785661
 20
3.4184598467917331
 30
0.0
 11
7.4067424949785661
 21
3.4385443379603369
 31
0.0
  0
LINE
  5
11E49
  8
0
 10
7.4264275343924586
 20
3.4243860158385111
 30
0.0
 11
7.4264275343924586
 21
3.4347411713038549
 31
0.0
  0
LINE
  5
11E4A
  8
0
 10
7.4614123141572364
 20
3.426259507762853
 30
0.0
 11
7.4542663840678003
 21
3.4157354582814778
 31
0.0
  0
LINE
  5
11E4B
  8
0
 10
7.4542663840678003
 20
3.4157354582814778
 30
0.0
 11
7.4345813447088034
 21
3.40882899867217
 31
0.0
  0
LINE
  5
11E4C
  8
0
 10
7.4345813447088034
 20
3.40882899867217
 30
0.0
 11
7.4247388249698432
 21
3.4166139881535349
 31
0.0
  0
LINE
  5
11E4D
  8
0
 10
7.4247388249698432
 20
3.4166139881535349
 30
0.0
 11
7.4345813445993647
 21
3.4313886613584819
 31
0.0
  0
LINE
  5
11E4E
  8
0
 10
7.4345813447088034
 20
3.408828998672166
 30
0.0
 11
7.4345813447088034
 21
3.4313886614039748
 31
0.0
  0
LINE
  5
11E4F
  8
0
 10
7.4345813447088034
 20
3.4330031784816439
 30
0.0
 11
7.4345813447088034
 21
3.433005725525379
 31
0.0
  0
LINE
  5
11E50
  8
0
 10
7.4542663840817047
 20
3.4157354582406292
 30
0.0
 11
7.4542663843177328
 21
3.4282269975615369
 31
0.0
  0
LINE
  5
11E51
  8
0
 10
7.4345813447088034
 20
3.4313886615227558
 30
0.0
 11
7.4374464584058719
 21
3.4323679034872931
 31
0.0
  0
LINE
  5
11E52
  8
0
 10
7.4876398129601958
 20
3.4179389252342101
 30
0.0
 11
7.4821052336678022
 21
3.4099025365114879
 31
0.0
  0
LINE
  5
11E53
  8
0
 10
7.4821052336678022
 20
3.4099025365114879
 30
0.0
 11
7.4624201943871142
 21
3.401973794258442
 31
0.0
  0
LINE
  5
11E54
  8
0
 10
7.4624201943871142
 20
3.401973794258442
 30
0.0
 11
7.4525776747036474
 21
3.4084193898453838
 31
0.0
  0
LINE
  5
11E55
  8
0
 10
7.4525776747036474
 20
3.4084193898453838
 30
0.0
 11
7.4624201943952988
 21
3.422834351226494
 31
0.0
  0
LINE
  5
11E56
  8
0
 10
7.4624201943871213
 20
3.401973794258438
 30
0.0
 11
7.4624201945047366
 21
3.422834351271987
 31
0.0
  0
LINE
  5
11E57
  8
0
 10
7.4821052336817004
 20
3.4099025364706388
 30
0.0
 11
7.4821052339541012
 21
3.4198414770720862
 31
0.0
  0
LINE
  5
11E58
  8
0
 10
7.4624201945047366
 20
3.422834351390772
 30
0.0
 11
7.4669800179575097
 21
3.42463891312623
 31
0.0
  0
LINE
  5
11E59
  8
0
 10
7.5112164934647154
 20
3.4084340517599641
 30
0.0
 11
7.5099440833661779
 21
3.4069349766951511
 31
0.0
  0
LINE
  5
11E5A
  8
0
 10
7.5099440833661779
 20
3.4069349766951511
 30
0.0
 11
7.4902590439816938
 21
3.397923361470645
 31
0.0
  0
LINE
  5
11E5B
  8
0
 10
7.4902590439816938
 20
3.397923361470645
 30
0.0
 11
7.480416524300586
 21
3.40302287725472
 31
0.0
  0
LINE
  5
11E5C
  8
0
 10
7.480416524300586
 20
3.40302287725472
 30
0.0
 11
7.4901951410067511
 21
3.4170334348882561
 31
0.0
  0
LINE
  5
11E5D
  8
0
 10
7.4902590439817009
 20
3.3979233614706419
 30
0.0
 11
7.490195141116188
 21
3.417033434933749
 31
0.0
  0
LINE
  5
11E5E
  8
0
 10
7.5099440833800841
 20
3.406934976654302
 30
0.0
 11
7.509944083422524
 21
3.4090284526271999
 31
0.0
  0
LINE
  5
11E5F
  8
0
 10
7.5433707758173858
 20
3.389493767249494
 30
0.0
 11
7.5377829329816981
 21
3.382831415215179
 31
0.0
  0
LINE
  5
11E60
  8
0
 10
7.5377829329816981
 20
3.382831415215179
 30
0.0
 11
7.5180978935379983
 21
3.3727943461117351
 31
0.0
  0
LINE
  5
11E61
  8
0
 10
7.5180978935379983
 20
3.3727943461117351
 30
0.0
 11
7.50825537399973
 21
3.3748258244111389
 31
0.0
  0
LINE
  5
11E62
  8
0
 10
7.50825537399973
 20
3.3748258244111389
 30
0.0
 11
7.5180978936187444
 21
3.3867843584512189
 31
0.0
  0
LINE
  5
11E63
  8
0
 10
7.5180978936187444
 20
3.3867843584512189
 30
0.0
 11
7.5349747914343359
 21
3.3953867229856121
 31
0.0
  0
LINE
  5
11E64
  8
0
 10
7.53784627523138
 20
3.3935604012306291
 30
0.0
 11
7.5377829329816981
 21
3.38283141507064
 31
0.0
  0
LINE
  5
11E65
  8
0
 10
7.5180978940669121
 20
3.386784358679662
 30
0.0
 11
7.5180978940669192
 21
3.3727943463692638
 31
0.0
  0
LINE
  5
11E66
  8
0
 10
7.4641089036882979
 20
3.3683273523555961
 30
0.0
 11
7.4542663840903174
 21
3.372731732299858
 31
0.0
  0
LINE
  5
11E67
  8
0
 10
7.4542663840903174
 20
3.372731732299858
 30
0.0
 11
7.434581344720093
 21
3.3660769915000941
 31
0.0
  0
LINE
  5
11E68
  8
0
 10
7.434581344720093
 20
3.3660769915000941
 30
0.0
 11
7.4247388249343373
 21
3.355079683580235
 31
0.0
  0
LINE
  5
11E69
  8
0
 10
7.4247388249343373
 20
3.355079683580235
 30
0.0
 11
7.4641089036882837
 21
3.3683273523555992
 31
0.0
  0
LINE
  5
11E6A
  8
0
 10
7.408431204456547
 20
3.3504551202608752
 30
0.0
 11
7.3985886847095514
 21
3.3558140280903319
 31
0.0
  0
LINE
  5
11E6B
  8
0
 10
7.3985886847095514
 20
3.3558140280903319
 30
0.0
 11
7.3789036453338781
 21
3.3512012789012529
 31
0.0
  0
LINE
  5
11E6C
  8
0
 10
7.3789036453338781
 20
3.3512012789012529
 30
0.0
 11
7.3695457440817052
 21
3.3411500200162401
 31
0.0
  0
LINE
  5
11E6D
  8
0
 10
7.3695457440817052
 20
3.3411500200162401
 30
0.0
 11
7.4084312044565399
 21
3.3504551202608819
 31
0.0
  0
LINE
  5
11E6E
  8
0
 10
7.3527535050816999
 20
3.3382606607706391
 30
0.0
 11
7.3428893968313531
 21
3.3445208331963299
 31
0.0
  0
LINE
  5
11E6F
  8
0
 10
7.3428893968313531
 20
3.3445208331963299
 30
0.0
 11
7.3232259460888178
 21
3.3418087830370871
 31
0.0
  0
LINE
  5
11E70
  8
0
 10
7.3232259460888178
 20
3.3418087830370871
 30
0.0
 11
7.313383426405351
 21
3.3328530093217519
 31
0.0
  0
LINE
  5
11E71
  8
0
 10
7.313383426405351
 20
3.3328530093217519
 30
0.0
 11
7.3527535050816928
 21
3.3382606607706431
 31
0.0
  0
LINE
  5
11E72
  8
0
 10
7.2970758057817093
 20
3.3313690253706372
 30
0.0
 11
7.2872332861813973
 21
3.3385169133370241
 31
0.0
  0
LINE
  5
11E73
  8
0
 10
7.2872332861813973
 20
3.3385169133370241
 30
0.0
 11
7.2675482467229244
 21
3.337620132570847
 31
0.0
  0
LINE
  5
11E74
  8
0
 10
7.2675482467229244
 20
3.337620132570847
 30
0.0
 11
7.2577057270360887
 21
3.3295829749602852
 31
0.0
  0
LINE
  5
11E75
  8
0
 10
7.2577057270360887
 20
3.3295829749602852
 30
0.0
 11
7.2970758057817022
 21
3.3313690253706412
 31
0.0
  0
LINE
  5
11E76
  8
0
 10
7.5197866030633804
 20
3.3924944161003689
 30
0.0
 11
7.5099440833816971
 21
3.3958540414706411
 31
0.0
  0
LINE
  5
11E77
  8
0
 10
7.5099440833816971
 20
3.3958540414706411
 30
0.0
 11
7.4902590439822196
 21
3.3869213205199449
 31
0.0
  0
LINE
  5
11E78
  8
0
 10
7.4902590439822196
 20
3.3869213205199449
 30
0.0
 11
7.4804165242816998
 21
3.3747184289706409
 31
0.0
  0
LINE
  5
11E79
  8
0
 10
7.4804165242816998
 20
3.3747184289706409
 30
0.0
 11
7.4933286975817017
 21
3.3797894196706402
 31
0.0
  0
LINE
  5
11E7A
  8
0
 10
7.4933286975817017
 20
3.3797894196706402
 30
0.0
 11
7.4982375225817028
 21
3.3747807582706382
 31
0.0
  0
LINE
  5
11E7B
  8
0
 10
7.4982375225817028
 20
3.3747807582706382
 30
0.0
 11
7.5099440834179134
 21
3.3801411753981441
 31
0.0
  0
LINE
  5
11E7C
  8
0
 10
7.5099440834179134
 20
3.3801411753981441
 30
0.0
 11
7.5197866030633804
 21
3.3924944161003689
 31
0.0
  0
LINE
  5
11E7D
  8
0
 10
7.5099440847364534
 20
3.3958540410082132
 30
0.0
 11
7.5099440847364534
 21
3.3801411760973319
 31
0.0
  0
LINE
  5
11E7E
  8
0
 10
7.2970758057817022
 20
3.2797529336706388
 30
0.0
 11
7.2965911874386
 21
3.279861091870643
 31
0.0
  0
ARC
  5
11E7F
  8
0
 10
7.2495511377817499
 20
3.8928045018695658
 30
0.0
 40
0.6147457930989239
 50
270.8052213318756003
 51
274.3885350116030963
  0
LINE
  5
11E80
  8
0
 10
7.2581903453982903
 20
3.27811941646031
 30
0.0
 11
7.2577057270816994
 21
3.277966883270639
 31
0.0
  0
LINE
  5
11E81
  8
0
 10
7.2577057270816994
 20
3.277966883270639
 30
0.0
 11
7.2675482467229244
 21
3.2754679502708468
 31
0.0
  0
LINE
  5
11E82
  8
0
 10
7.2675482467229244
 20
3.2754679502708468
 30
0.0
 11
7.287233286181702
 21
3.2763647310706392
 31
0.0
  0
LINE
  5
11E83
  8
0
 10
7.287233286181702
 20
3.2763647310706392
 30
0.0
 11
7.2970758058342184
 21
3.2797529335923912
 31
0.0
  0
LINE
  5
11E84
  8
0
 10
7.2872332861465594
 20
3.2763647309721051
 30
0.0
 11
7.2872332861465594
 21
3.2792146992917841
 31
0.0
  0
LINE
  5
11E85
  8
0
 10
7.2675482467816996
 20
3.275467950273526
 30
0.0
 11
7.2675482467816996
 21
3.2783222041583389
 31
0.0
  0
LINE
  5
11E86
  8
0
 10
7.3527535050971826
 20
3.2866445691045421
 30
0.0
 11
7.3522688866073551
 21
3.2867062421928281
 31
0.0
  0
ARC
  5
11E87
  8
0
 10
7.2475631581612197
 20
3.9067335502700469
 30
0.0
 40
0.6288061325487529
 50
276.0528443552739191
 51
279.5852621718713067
  0
LINE
  5
11E88
  8
0
 10
7.3138680447816986
 20
3.2814329710706391
 30
0.0
 11
7.3133834263848811
 21
3.2812369175719271
 31
0.0
  0
LINE
  5
11E89
  8
0
 10
7.3133834263848811
 20
3.2812369175719271
 30
0.0
 11
7.3232259460816991
 21
3.2796566006065109
 31
0.0
  0
LINE
  5
11E8A
  8
0
 10
7.3232259460816991
 20
3.2796566006065109
 30
0.0
 11
7.3429109854935737
 21
3.282371987693363
 31
0.0
  0
LINE
  5
11E8B
  8
0
 10
7.3429109854584382
 20
3.2823719875948241
 30
0.0
 11
7.3527535051496988
 21
3.2866445690262931
 31
0.0
  0
LINE
  5
11E8C
  8
0
 10
7.3429109854584382
 20
3.2823719875948241
 30
0.0
 11
7.3429109854817014
 21
3.285195052670641
 31
0.0
  0
LINE
  5
11E8D
  8
0
 10
7.3232259461404752
 20
3.2796566006091901
 30
0.0
 11
7.3232259461404752
 21
3.282510854494002
 31
0.0
  0
LINE
  5
11E8E
  8
0
 10
7.5476254527052333
 20
3.374868572847276
 30
0.0
 11
7.5377829330251842
 21
3.3750516650775531
 31
0.0
  0
LINE
  5
11E8F
  8
0
 10
7.5377829330251842
 20
3.3750516650775531
 30
0.0
 11
7.5180978936816976
 21
3.3650368894326692
 31
0.0
  0
LINE
  5
11E90
  8
0
 10
7.5180978936816976
 20
3.3650368894326692
 30
0.0
 11
7.5082553739562448
 21
3.3548359444243161
 31
0.0
  0
LINE
  5
11E91
  8
0
 10
7.5082553739562448
 20
3.3548359444243161
 30
0.0
 11
7.5180978936816976
 21
3.3545007987706401
 31
0.0
  0
LINE
  5
11E92
  8
0
 10
7.5180978936816976
 20
3.3545007987706401
 30
0.0
 11
7.5377829329816981
 21
3.3645155743691388
 31
0.0
  0
LINE
  5
11E93
  8
0
 10
7.5377829329816981
 20
3.3645155743691388
 30
0.0
 11
7.5476254527052333
 21
3.374868572847276
 31
0.0
  0
LINE
  5
11E94
  8
0
 10
7.5377829330251842
 20
3.3750516650775562
 30
0.0
 11
7.5377829330251842
 21
3.3645155744775539
 31
0.0
  0
LINE
  5
11E95
  8
0
 10
7.5180978923711734
 20
3.365036890697144
 30
0.0
 11
7.5180978923711734
 21
3.3545007981959709
 31
0.0
  0
ARC
  5
11E96
  8
0
 10
7.5228841159117357
 20
3.481178430737589
 30
0.0
 40
0.123126386987943
 50
276.9500647156513082
 51
281.5920853733171043
  0
LINE
  5
11E97
  8
0
 10
7.5377829330582102
 20
3.358956777908229
 30
0.0
 11
7.5180978936570346
 21
3.3489197088066862
 31
0.0
  0
ARC
  5
11E98
  8
0
 10
7.3119893841820982
 20
3.5775045269701731
 30
0.0
 40
0.3077852120993902
 50
309.6184393795846859
 51
312.0400930286393191
  0
LINE
  5
11E99
  8
0
 10
7.5082553740166267
 20
3.3404150965407728
 30
0.0
 11
7.5180978936710678
 21
3.3418375400218951
 31
0.0
  0
LINE
  5
11E9A
  8
0
 10
7.5180978936710678
 20
3.3418375400218951
 30
0.0
 11
7.5377829330454063
 21
3.3519460379299701
 31
0.0
  0
LINE
  5
11E9B
  8
0
 10
7.5377829330454063
 20
3.3519460379299701
 30
0.0
 11
7.5476254526772664
 21
3.3605634506241842
 31
0.0
  0
LINE
  5
11E9C
  8
0
 10
7.5377829331680601
 20
3.3589567779642371
 30
0.0
 11
7.5377829331680601
 21
3.351946037959642
 31
0.0
  0
LINE
  5
11E9D
  8
0
 10
7.5180978936570346
 20
3.3489197088066862
 30
0.0
 11
7.5180978936570346
 21
3.3418375400150171
 31
0.0
  0
LINE
  5
11E9E
  8
0
 10
7.2577057271102481
 20
3.2709419275928431
 30
0.0
 11
7.2675482467219998
 21
3.2727423834916989
 31
0.0
  0
LINE
  5
11E9F
  8
0
 10
7.2675482467219998
 20
3.2727423834916989
 30
0.0
 11
7.2872332860930271
 21
3.2736456141698289
 31
0.0
  0
LINE
  5
11EA0
  8
0
 10
7.2872332860930271
 20
3.2736456141698289
 30
0.0
 11
7.2970758055856839
 21
3.2727614041937758
 31
0.0
  0
LINE
  5
11EA1
  8
0
 10
7.2970758055856839
 20
3.2727614041937758
 30
0.0
 11
7.2872332861389628
 21
3.2709948698228142
 31
0.0
  0
LINE
  5
11EA2
  8
0
 10
7.2872332861389628
 20
3.2709948698228142
 30
0.0
 11
7.2675482467816996
 21
3.2700784829360461
 31
0.0
  0
LINE
  5
11EA3
  8
0
 10
7.2675482467816996
 20
3.2700784829360461
 30
0.0
 11
7.2577057271102481
 21
3.2709419275928431
 31
0.0
  0
LINE
  5
11EA4
  8
0
 10
7.2855445766798956
 20
3.2748037197700159
 30
0.0
 11
7.2953870963817016
 21
3.2778575398620999
 31
0.0
  0
LINE
  5
11EA5
  8
0
 10
7.2953870963817016
 20
3.2778575398620999
 30
0.0
 11
7.3150721357511648
 21
3.2796540463308541
 31
0.0
  0
LINE
  5
11EA6
  8
0
 10
7.3150721357511648
 20
3.2796540463308541
 30
0.0
 11
7.3249146553502342
 21
3.278417180568109
 31
0.0
  0
LINE
  5
11EA7
  8
0
 10
7.3249146553502342
 20
3.278417180568109
 30
0.0
 11
7.3150721358098201
 21
3.2753870515881789
 31
0.0
  0
LINE
  5
11EA8
  8
0
 10
7.3150721358098201
 20
3.2753870515881789
 30
0.0
 11
7.2953870963960412
 21
3.2735699354194909
 31
0.0
  0
LINE
  5
11EA9
  8
0
 10
7.2953870963960412
 20
3.2735699354194909
 30
0.0
 11
7.285544576665778
 21
3.2748037197722679
 31
0.0
  0
LINE
  5
11EAA
  8
0
 10
7.285544576752037
 20
3.2704827165853798
 30
0.0
 11
7.2953870964440952
 21
3.2709580707587871
 31
0.0
  0
LINE
  5
11EAB
  8
0
 10
7.2953870964440952
 20
3.2709580707587871
 30
0.0
 11
7.3150721358142974
 21
3.272825217256059
 31
0.0
  0
LINE
  5
11EAC
  8
0
 10
7.3150721358142974
 20
3.272825217256059
 30
0.0
 11
7.324914655450427
 21
3.2741833683329982
 31
0.0
  0
LINE
  5
11EAD
  8
0
 10
7.324914655450427
 20
3.2741833683329982
 30
0.0
 11
7.3150721358097917
 21
3.2737297544389778
 31
0.0
  0
LINE
  5
11EAE
  8
0
 10
7.3150721358097917
 20
3.2737297544389778
 30
0.0
 11
7.2953870963817016
 21
3.27189581873193
 31
0.0
  0
LINE
  5
11EAF
  8
0
 10
7.2953870963817016
 20
3.27189581873193
 30
0.0
 11
7.2855445766910094
 21
3.2704827165307679
 31
0.0
  0
LINE
  5
11EB0
  8
0
 10
7.313383426388973
 20
3.2742733301269769
 30
0.0
 11
7.3232259460816991
 21
3.2769613419696451
 31
0.0
  0
LINE
  5
11EB1
  8
0
 10
7.3232259460816991
 20
3.2769613419696451
 30
0.0
 11
7.3429109854817014
 21
3.2796966275706398
 31
0.0
  0
LINE
  5
11EB2
  8
0
 10
7.3429109854817014
 20
3.2796966275706398
 30
0.0
 11
7.3527535049967048
 21
3.2797841217999562
 31
0.0
  0
LINE
  5
11EB3
  8
0
 10
7.3527535049967048
 20
3.2797841217999562
 30
0.0
 11
7.3429109854817014
 21
3.2771351772995092
 31
0.0
  0
LINE
  5
11EB4
  8
0
 10
7.3429109854817014
 20
3.2771351772995092
 30
0.0
 11
7.3232259460972813
 21
3.2743592762055931
 31
0.0
  0
LINE
  5
11EB5
  8
0
 10
7.3232259460972813
 20
3.2743592762055931
 30
0.0
 11
7.3133834277861141
 21
3.2742733305085379
 31
0.0
  0
LINE
  5
11EB6
  8
0
 10
7.5197866030056844
 20
3.3408783243333771
 30
0.0
 11
7.5099440833173361
 21
3.339061174285308
 31
0.0
  0
LINE
  5
11EB7
  8
0
 10
7.5099440833173361
 20
3.339061174285308
 30
0.0
 11
7.4982375225817028
 21
3.333700757170639
 31
0.0
  0
LINE
  5
11EB8
  8
0
 10
7.4982375225817028
 20
3.333700757170639
 30
0.0
 11
7.4933286975817017
 21
3.328692095770641
 31
0.0
  0
LINE
  5
11EB9
  8
0
 10
7.4933286975817017
 20
3.328692095770641
 30
0.0
 11
7.4902590439817009
 21
3.3273632576805339
 31
0.0
  0
LINE
  5
11EBA
  8
0
 10
7.4902590439817009
 20
3.3273632576805339
 30
0.0
 11
7.4804165242593754
 21
3.3231023373016342
 31
0.0
  0
LINE
  5
11EBB
  8
0
 10
7.4804165242593754
 20
3.3231023373016342
 30
0.0
 11
7.4902590439817009
 21
3.3247691381641782
 31
0.0
  0
LINE
  5
11EBC
  8
0
 10
7.4902590439817009
 20
3.3247691381641782
 30
0.0
 11
7.50994408336497
 21
3.3337018591677281
 31
0.0
  0
LINE
  5
11EBD
  8
0
 10
7.50994408336497
 20
3.3337018591677281
 30
0.0
 11
7.519786603045155
 21
3.3408783243422908
 31
0.0
  0
LINE
  5
11EBE
  8
0
 10
7.5197866030544631
 20
3.335181601654035
 30
0.0
 11
7.5099440833817113
 21
3.3314442478550208
 31
0.0
  0
LINE
  5
11EBF
  8
0
 10
7.5099440833817113
 20
3.3314442478550208
 30
0.0
 11
7.4902590439817009
 21
3.3224326324546278
 31
0.0
  0
LINE
  5
11EC0
  8
0
 10
7.4902590439817009
 20
3.3224326324546278
 30
0.0
 11
7.480416524296146
 21
3.3169960577267359
 31
0.0
  0
LINE
  5
11EC1
  8
0
 10
7.480416524296146
 20
3.3169960577267359
 30
0.0
 11
7.4902590440201697
 21
3.3205649680535698
 31
0.0
  0
LINE
  5
11EC2
  8
0
 10
7.4902590440201697
 20
3.3205649680535698
 30
0.0
 11
7.5099440833295432
 21
3.3297387232302031
 31
0.0
  0
LINE
  5
11EC3
  8
0
 10
7.5099440833295432
 20
3.3297387232302031
 30
0.0
 11
7.5197866030544631
 21
3.335181601654035
 31
0.0
  0
LINE
  5
11EC4
  8
0
 10
7.4919477532508116
 20
3.3242270286860349
 30
0.0
 11
7.4821052336817004
 21
3.3221651283836979
 31
0.0
  0
LINE
  5
11EC5
  8
0
 10
7.4821052336817004
 20
3.3221651283836979
 30
0.0
 11
7.4624201943049044
 21
3.3144244745974261
 31
0.0
  0
LINE
  5
11EC6
  8
0
 10
7.4624201943049044
 20
3.3144244745974261
 30
0.0
 11
7.4525776746749131
 21
3.308642048170948
 31
0.0
  0
LINE
  5
11EC7
  8
0
 10
7.4525776746749131
 20
3.308642048170948
 30
0.0
 11
7.4622514473540056
 21
3.3105451939649022
 31
0.0
  0
LINE
  5
11EC8
  8
0
 10
7.4622514473540056
 20
3.3105451939649022
 30
0.0
 11
7.4821052336817004
 21
3.318429148007279
 31
0.0
  0
LINE
  5
11EC9
  8
0
 10
7.4821052336817004
 20
3.318429148007279
 30
0.0
 11
7.4919477534042818
 21
3.3242270287244788
 31
0.0
  0
LINE
  5
11ECA
  8
0
 10
7.4641089037561761
 20
3.316711260591056
 30
0.0
 11
7.4542663840817047
 21
3.3132535609371478
 31
0.0
  0
LINE
  5
11ECB
  8
0
 10
7.4542663840817047
 20
3.3132535609371478
 30
0.0
 11
7.4345813446817033
 21
3.306637329470639
 31
0.0
  0
LINE
  5
11ECC
  8
0
 10
7.4345813446817033
 20
3.306637329470639
 30
0.0
 11
7.4247388249729047
 21
3.3034635918233479
 31
0.0
  0
LINE
  5
11ECD
  8
0
 10
7.4247388249729047
 20
3.3034635918233479
 30
0.0
 11
7.434581344720093
 21
3.303924809200097
 31
0.0
  0
LINE
  5
11ECE
  8
0
 10
7.434581344720093
 20
3.303924809200097
 30
0.0
 11
7.454266384062918
 21
3.3105795499761248
 31
0.0
  0
LINE
  5
11ECF
  8
0
 10
7.454266384062918
 20
3.3105795499761248
 30
0.0
 11
7.4641089037011881
 21
3.3167112605717359
 31
0.0
  0
LINE
  5
11ED0
  8
0
 10
7.4641089035960562
 20
3.3104648416508118
 30
0.0
 11
7.4542663840817047
 21
3.3081233853706422
 31
0.0
  0
LINE
  5
11ED1
  8
0
 10
7.4542663840817047
 20
3.3081233853706422
 30
0.0
 11
7.4345813446293363
 21
3.3014147826180489
 31
0.0
  0
LINE
  5
11ED2
  8
0
 10
7.4345813446293363
 20
3.3014147826180489
 30
0.0
 11
7.4247388250972426
 21
3.2969377823425701
 31
0.0
  0
LINE
  5
11ED3
  8
0
 10
7.4247388250972426
 20
3.2969377823425701
 30
0.0
 11
7.4345813446817033
 21
3.2991913254706411
 31
0.0
  0
LINE
  5
11ED4
  8
0
 10
7.4345813446817033
 20
3.2991913254706411
 30
0.0
 11
7.4542663840045833
 21
3.3060102500051718
 31
0.0
  0
LINE
  5
11ED5
  8
0
 10
7.4542663840045833
 20
3.3060102500051718
 30
0.0
 11
7.464108903725986
 21
3.310464841714257
 31
0.0
  0
LINE
  5
11ED6
  8
0
 10
7.4362700540374433
 20
3.3031083033852289
 30
0.0
 11
7.426427534356093
 21
3.3022762266105832
 31
0.0
  0
LINE
  5
11ED7
  8
0
 10
7.426427534356093
 20
3.3022762266105832
 30
0.0
 11
7.4067424950422156
 21
3.2966764405330649
 31
0.0
  0
LINE
  5
11ED8
  8
0
 10
7.4067424950422156
 20
3.2966764405330649
 30
0.0
 11
7.3968999753368001
 21
3.2918394426456672
 31
0.0
  0
LINE
  5
11ED9
  8
0
 10
7.3968999753368001
 20
3.2918394426456672
 30
0.0
 11
7.4067424949816987
 21
3.292611736044889
 31
0.0
  0
LINE
  5
11EDA
  8
0
 10
7.4067424949816987
 20
3.292611736044889
 30
0.0
 11
7.426427534381701
 21
3.29828097117064
 31
0.0
  0
LINE
  5
11EDB
  8
0
 10
7.426427534381701
 20
3.29828097117064
 30
0.0
 11
7.436270054037422
 21
3.3031083033852151
 31
0.0
  0
LINE
  5
11EDC
  8
0
 10
7.4084312044430609
 20
3.2988390285717588
 30
0.0
 11
7.3985886847816991
 21
3.2964282830706391
 31
0.0
  0
LINE
  5
11EDD
  8
0
 10
7.3985886847816991
 20
3.2964282830706391
 30
0.0
 11
7.3789036453817038
 21
3.2918363761057341
 31
0.0
  0
LINE
  5
11EDE
  8
0
 10
7.3789036453817038
 20
3.2918363761057341
 30
0.0
 11
7.3690611256459064
 21
3.2896541629929059
 31
0.0
  0
LINE
  5
11EDF
  8
0
 10
7.3690611256459064
 20
3.2896541629929059
 30
0.0
 11
7.3789036453333798
 21
3.2890490965637791
 31
0.0
  0
LINE
  5
11EE0
  8
0
 10
7.3789036453333798
 20
3.2890490965637791
 30
0.0
 11
7.3985886847816991
 21
3.2936618457483671
 31
0.0
  0
LINE
  5
11EE1
  8
0
 10
7.3985886847816991
 20
3.2936618457483671
 30
0.0
 11
7.4084312043956251
 21
3.2988390285444771
 31
0.0
  0
LINE
  5
11EE2
  8
0
 10
7.4084312044760301
 20
3.2922190462733658
 30
0.0
 11
7.3985886847492841
 21
3.2910714106448919
 31
0.0
  0
LINE
  5
11EE3
  8
0
 10
7.3985886847492841
 20
3.2910714106448919
 30
0.0
 11
7.378903645373085
 21
3.2864235291427621
 31
0.0
  0
LINE
  5
11EE4
  8
0
 10
7.378903645373085
 20
3.2864235291427621
 30
0.0
 11
7.3690611259483632
 21
3.2828520315087562
 31
0.0
  0
LINE
  5
11EE5
  8
0
 10
7.3690611259483632
 20
3.2828520315087562
 30
0.0
 11
7.3789036453817038
 21
3.2839637690706409
 31
0.0
  0
LINE
  5
11EE6
  8
0
 10
7.3789036453817038
 20
3.2839637690706409
 30
0.0
 11
7.3985886847871782
 21
3.2886834528743409
 31
0.0
  0
LINE
  5
11EE7
  8
0
 10
7.3985886847871782
 20
3.2886834528743409
 30
0.0
 11
7.4084312044760381
 21
3.2922190462733658
 31
0.0
  0
LINE
  5
11EE8
  8
0
 10
7.3805923547779306
 20
3.2880045466604839
 30
0.0
 11
7.3707498351318463
 21
3.2882552644180301
 31
0.0
  0
LINE
  5
11EE9
  8
0
 10
7.3707498351318463
 20
3.2882552644180301
 30
0.0
 11
7.351064795755831
 21
3.2846115562616758
 31
0.0
  0
LINE
  5
11EEA
  8
0
 10
7.351064795755831
 20
3.2846115562616758
 30
0.0
 11
7.3412222760811607
 21
3.2806743723685079
 31
0.0
  0
LINE
  5
11EEB
  8
0
 10
7.3412222760811607
 20
3.2806743723685079
 30
0.0
 11
7.351064795681701
 21
3.2804021504446932
 31
0.0
  0
LINE
  5
11EEC
  8
0
 10
7.351064795681701
 20
3.2804021504446932
 30
0.0
 11
7.3707498350817033
 21
3.284088869019484
 31
0.0
  0
LINE
  5
11EED
  8
0
 10
7.3707498350817033
 20
3.284088869019484
 30
0.0
 11
7.3805923548215162
 21
3.2880045466792822
 31
0.0
  0
LINE
  5
11EEE
  8
0
 10
7.5197866030434994
 20
3.3696343188666869
 30
0.0
 11
7.5099440833816971
 21
3.371303334270638
 31
0.0
  0
LINE
  5
11EEF
  8
0
 10
7.5099440833816971
 20
3.371303334270638
 30
0.0
 11
7.5063487565794409
 21
3.369631885982471
 31
0.0
  0
LINE
  5
11EF0
  8
0
 10
7.5063487565794409
 20
3.369631885982471
 30
0.0
 11
7.505843340958136
 21
3.3718870318813638
 31
0.0
  0
ARC
  5
11EF1
  8
0
 10
7.2500183479991023
 20
3.9295220265921418
 30
0.0
 40
0.6135170856207478
 50
269.9559183345538145
 51
294.6441341582652171
  0
LINE
  5
11EF2
  8
0
 10
7.414373065544253
 20
3.3384291902548782
 30
0.0
 11
7.4336739425816978
 21
3.3384291902548782
 31
0.0
  0
LINE
  5
11EF3
  8
0
 10
7.4336739425816978
 20
3.3384291902548782
 30
0.0
 11
7.4336739425816978
 21
3.3441385309868319
 31
0.0
  0
LINE
  5
11EF4
  8
0
 10
7.426427534381701
 20
3.3384249193706408
 30
0.0
 11
7.426427534381701
 21
3.3419141528290299
 31
0.0
  0
LINE
  5
11EF5
  8
0
 10
7.4551737860817013
 20
3.3384249193706408
 30
0.0
 11
7.4551737860817013
 21
3.3513227006035029
 31
0.0
  0
LINE
  5
11EF6
  8
0
 10
7.4551737860817013
 20
3.3384249193706408
 30
0.0
 11
7.489351641981699
 21
3.3384249193706408
 31
0.0
  0
LINE
  5
11EF7
  8
0
 10
7.489351641981699
 20
3.3384249193706408
 30
0.0
 11
7.489351641981699
 21
3.349909505770639
 31
0.0
  0
LINE
  5
11EF8
  8
0
 10
7.4780182063622709
 20
3.3599240339267631
 30
0.0
 11
7.4821052337145773
 21
3.3577565237908358
 31
0.0
  0
LINE
  5
11EF9
  8
0
 10
7.4821052337145773
 20
3.3577565237908358
 30
0.0
 11
7.489351641981699
 21
3.349909505770639
 31
0.0
  0
LINE
  5
11EFA
  8
0
 10
7.489351641981699
 20
3.349909505770639
 30
0.0
 11
7.505843341108636
 21
3.3402553552830092
 31
0.0
  0
ARC
  5
11EFB
  8
0
 10
7.250018925266061
 20
3.8978876981393951
 30
0.0
 40
0.6135144346636815
 50
269.955864233416321
 51
294.6441884383737033
  0
LINE
  5
11EFC
  8
0
 10
7.4821052336817004
 20
3.3384249193706408
 30
0.0
 11
7.4821652596429677
 21
3.3577246896979851
 31
0.0
  0
LINE
  5
11EFD
  8
0
 10
7.462420194381699
 20
3.3384249193706408
 30
0.0
 11
7.462420194381699
 21
3.3539452115606099
 31
0.0
  0
LINE
  5
11EFE
  8
0
 10
7.4811511146642351
 20
3.361207977388446
 30
0.0
 11
7.4902590440183303
 21
3.3513461817857362
 31
0.0
  0
LINE
  5
11EFF
  8
0
 10
7.4902590440183303
 20
3.3513461817857362
 30
0.0
 11
7.506348756705818
 21
3.3418904315427471
 31
0.0
  0
LINE
  5
11F00
  8
0
 10
7.506348756705818
 20
3.3418904315427471
 30
0.0
 11
7.509944083403048
 21
3.343561879795458
 31
0.0
  0
LINE
  5
11F01
  8
0
 10
7.509944083403048
 20
3.343561879795458
 30
0.0
 11
7.519786602989881
 21
3.3524289549164972
 31
0.0
  0
LINE
  5
11F02
  8
0
 10
7.519786602989881
 20
3.3524289549164972
 30
0.0
 11
7.5099440833816971
 21
3.3523916191706391
 31
0.0
  0
LINE
  5
11F03
  8
0
 10
7.5099440833816971
 20
3.3523916191706391
 30
0.0
 11
7.5079263345177898
 21
3.3514532161167159
 31
0.0
  0
LINE
  5
11F04
  8
0
 10
7.5079263345177898
 20
3.3514532161167159
 30
0.0
 11
7.4902590439795063
 21
3.3618822724299871
 31
0.0
  0
LINE
  5
11F05
  8
0
 10
7.4902590439795063
 20
3.3618822724299871
 30
0.0
 11
7.483070456165307
 21
3.3619923540393621
 31
0.0
  0
LINE
  5
11F06
  8
0
 10
7.4902590440510863
 20
3.3618822724280859
 30
0.0
 11
7.4902590440183721
 21
3.3513461817857069
 31
0.0
  0
LINE
  5
11F07
  8
0
 10
7.5058433360425951
 20
3.3402553582486441
 30
0.0
 11
7.506348756705818
 21
3.3418904315427471
 31
0.0
  0
LINE
  5
11F08
  8
0
 10
7.5197866031155911
 20
3.3696343188571158
 30
0.0
 11
7.5099440833816971
 21
3.3590608924088761
 31
0.0
  0
LINE
  5
11F09
  8
0
 10
7.5099440833816971
 20
3.3590608924088761
 30
0.0
 11
7.5079263344337761
 21
3.358122489425714
 31
0.0
  0
LINE
  5
11F0A
  8
0
 10
7.5079263344337761
 20
3.358122489425714
 30
0.0
 11
7.5079263803598186
 21
3.3514532374366608
 31
0.0
  0
LINE
  5
11F0B
  8
0
 10
7.5079263344829741
 20
3.3581224894258521
 30
0.0
 11
7.4938246087815719
 21
3.3665284906151771
 31
0.0
  0
LINE
  5
11F0C
  8
0
 10
7.5099440856748743
 20
3.3713033338817828
 30
0.0
 11
7.5099440856748743
 21
3.3590608935818049
 31
0.0
  0
LINE
  5
11F0D
  8
0
 10
7.2675482467816996
 20
3.2700784829360461
 30
0.0
 11
7.2675482467219998
 21
3.2727423834916989
 31
0.0
  0
LINE
  5
11F0E
  8
0
 10
7.2872332861389628
 20
3.2709948698228142
 30
0.0
 11
7.2872332860930271
 21
3.2736456141698289
 31
0.0
  0
LINE
  5
11F0F
  8
0
 10
7.2953870963960412
 20
3.2735699354194909
 30
0.0
 11
7.2953870963817016
 21
3.2778575398620999
 31
0.0
  0
LINE
  5
11F10
  8
0
 10
7.3150721357511648
 20
3.2796540463308541
 30
0.0
 11
7.3150721358098201
 21
3.2753870515881789
 31
0.0
  0
LINE
  5
11F11
  8
0
 10
7.3232259460972813
 20
3.2743592762055931
 30
0.0
 11
7.3232259460816991
 21
3.2769613419696451
 31
0.0
  0
LINE
  5
11F12
  8
0
 10
7.3429109854817014
 20
3.2771351772995092
 30
0.0
 11
7.3428882174893451
 21
3.2796964251765348
 31
0.0
  0
LINE
  5
11F13
  8
0
 10
7.2953870963817016
 20
3.27189581873193
 30
0.0
 11
7.2953870963817016
 21
3.2709580707557739
 31
0.0
  0
LINE
  5
11F14
  8
0
 10
7.3150721358097917
 20
3.2737297544389778
 30
0.0
 11
7.3150721358097988
 21
3.2728252172556331
 31
0.0
  0
LINE
  5
11F15
  8
0
 10
7.351064795681701
 20
3.2804021504446932
 30
0.0
 11
7.351064795755831
 21
3.2846115562616758
 31
0.0
  0
LINE
  5
11F16
  8
0
 10
7.3707498350817033
 20
3.284088869019484
 30
0.0
 11
7.3707498351318463
 21
3.2882552644180301
 31
0.0
  0
LINE
  5
11F17
  8
0
 10
7.3789036453817038
 20
3.2839637690706409
 30
0.0
 11
7.378903645373085
 21
3.2864235291427621
 31
0.0
  0
LINE
  5
11F18
  8
0
 10
7.3789036453333798
 20
3.2890490965637791
 30
0.0
 11
7.3789036453817038
 21
3.2918363761057341
 31
0.0
  0
LINE
  5
11F19
  8
0
 10
7.3985886847871782
 20
3.2886834528743409
 30
0.0
 11
7.3985886847492841
 21
3.2910714106448919
 31
0.0
  0
LINE
  5
11F1A
  8
0
 10
7.3985886847816991
 20
3.2936618457483671
 30
0.0
 11
7.3985886847816991
 21
3.2964282830706391
 31
0.0
  0
LINE
  5
11F1B
  8
0
 10
7.4067424949816987
 20
3.292611736044889
 30
0.0
 11
7.4067424950422156
 21
3.2966764405330649
 31
0.0
  0
LINE
  5
11F1C
  8
0
 10
7.426427534381701
 20
3.29828097117064
 30
0.0
 11
7.426427534356093
 21
3.3022762266105832
 31
0.0
  0
LINE
  5
11F1D
  8
0
 10
7.434581344720093
 20
3.303924809200097
 30
0.0
 11
7.4345813446817033
 21
3.306637329470639
 31
0.0
  0
LINE
  5
11F1E
  8
0
 10
7.4345813446817033
 20
3.2991913254706411
 30
0.0
 11
7.4345813446293363
 21
3.3014147826180489
 31
0.0
  0
LINE
  5
11F1F
  8
0
 10
7.4542663840045833
 20
3.3060102500051718
 30
0.0
 11
7.4542663840817047
 21
3.3081233853706422
 31
0.0
  0
LINE
  5
11F20
  8
0
 10
7.454266384062918
 20
3.3105795499761248
 30
0.0
 11
7.4542663840817047
 21
3.3132535609371478
 31
0.0
  0
LINE
  5
11F21
  8
0
 10
7.4622514473540056
 20
3.3105451939649022
 30
0.0
 11
7.4624201943049044
 21
3.3144244745974261
 31
0.0
  0
LINE
  5
11F22
  8
0
 10
7.4821052336817004
 20
3.318429148007279
 30
0.0
 11
7.4821052336817004
 21
3.3221651283836979
 31
0.0
  0
LINE
  5
11F23
  8
0
 10
7.4902590440201697
 20
3.3205649680535698
 30
0.0
 11
7.4902590439817009
 21
3.3224326324546278
 31
0.0
  0
LINE
  5
11F24
  8
0
 10
7.4902590439817009
 20
3.3247691381641782
 30
0.0
 11
7.4902590439817009
 21
3.3273632576805339
 31
0.0
  0
LINE
  5
11F25
  8
0
 10
7.50994408336497
 20
3.3337018591677281
 30
0.0
 11
7.5099440833173361
 21
3.339061174285308
 31
0.0
  0
LINE
  5
11F26
  8
0
 10
7.5099440833295432
 20
3.3297387232302031
 30
0.0
 11
7.5099440833817113
 21
3.3314442478550208
 31
0.0
  0
ARC
  5
11F27
  8
0
 10
7.5143451916412536
 20
3.3933906990241272
 30
0.0
 40
0.0521383333407297
 50
311.2340014828704966
 51
332.6033340647923069
  0
ARC
  5
11F28
  8
0
 10
7.4560862448339469
 20
3.459859726849579
 30
0.0
 40
0.1405251906395216
 50
301.0418427074426972
 51
311.2340014828699282
  0
ARC
  5
11F29
  8
0
 10
7.4388153396284551
 20
3.4885558495921809
 30
0.0
 40
0.174017751411663
 50
294.1259707499211231
 51
301.0418427074426972
  0
ARC
  5
11F2A
  8
0
 10
7.2585223871735129
 20
3.8340271445629561
 30
0.0
 40
0.5633340792396647
 50
285.2548136389356728
 51
294.2906926780250956
  0
ARC
  5
11F2B
  8
0
 10
7.2373616925874691
 20
3.9116179854954432
 30
0.0
 40
0.6437586624961185
 50
280.173167265585505
 51
285.2548136389356728
  0
ARC
  5
11F2C
  8
0
 10
7.2740387340536321
 20
3.7072263899652209
 30
0.0
 40
0.4361023847338003
 50
276.2578111977961157
 51
280.173167265585505
  0
ARC
  5
11F2D
  8
0
 10
7.2417199814668569
 20
4.3669782370448154
 30
0.0
 40
1.116175964142835
 50
270.4017468712477807
 51
278.8833580716229221
  0
ARC
  5
11F2E
  8
0
 10
7.3251469129515376
 20
3.7891017864615639
 30
0.0
 40
0.5323917825893976
 50
279.6164237358148057
 51
292.3724658316352816
  0
ARC
  5
11F2F
  8
0
 10
7.4762023945350711
 20
3.422113242834036
 30
0.0
 40
0.1355311651551584
 50
292.3724658316352816
 51
312.6045582465056896
  0
ARC
  5
11F30
  8
0
 10
7.529787898553387
 20
3.3638487489308799
 30
0.0
 40
0.0563721006667002
 50
312.6045582465056896
 51
339.4156092703115064
  0
ARC
  5
11F31
  8
0
 10
7.5550678450811972
 20
3.3543545010422622
 30
0.0
 40
0.0293680928267592
 50
339.4156092703103127
 51
23.4106657088041992
  0
ARC
  5
11F32
  8
0
 10
7.5242036836109421
 20
3.340991563844145
 30
0.0
 40
0.0630008826875942
 50
23.410665708804089
 51
55.171679319978999
  0
ARC
  5
11F33
  8
0
 10
7.4240880339393049
 20
3.19709584506721
 30
0.0
 40
0.2382981193786045
 50
55.171679319978999
 51
73.3653438038978436
  0
ARC
  5
11F34
  8
0
 10
7.2848662822452894
 20
2.7311154390350501
 30
0.0
 40
0.7246317856517158
 50
73.3653438038978436
 51
82.401155187503619
  0
ARC
  5
11F35
  8
0
 10
7.2616166016871802
 20
2.556840385380045
 30
0.0
 40
0.9004508459737079
 50
82.401155187503619
 51
87.5823212197897334
  0
ARC
  5
11F36
  8
0
 10
7.2439669103019284
 20
2.1388143966548361
 30
0.0
 40
1.31884926716538
 50
87.5823212197897334
 51
89.7576084323555676
  0
ARC
  5
11F37
  8
0
 10
7.2517784902711924
 20
2.4369681131858618
 30
0.0
 40
1.0309618080276
 50
82.2170025540808638
 51
90.1240527774222357
  0
ARC
  5
11F38
  8
0
 10
7.2990494650168847
 20
2.7828178976829099
 30
0.0
 40
0.6818964581429963
 50
73.3450959647345115
 51
82.2170025540808638
  0
ARC
  5
11F39
  8
0
 10
7.4165144404127403
 20
3.1754716127149152
 30
0.0
 40
0.2720489738598971
 50
56.8062048718300971
 51
73.3450959647345115
  0
ARC
  5
11F3A
  8
0
 10
7.5276957039040147
 20
3.3454145569544909
 30
0.0
 40
0.0689680105759633
 50
35.0009033517948183
 51
56.8062048718306229
  0
ARC
  5
11F3B
  8
0
 10
7.5466952588155527
 20
3.3587186349562721
 30
0.0
 40
0.0457735806775114
 50
4.1052240255384493
 51
35.0009033517948183
  0
ARC
  5
11F3C
  8
0
 10
7.5686151818959502
 20
3.360291883442577
 30
0.0
 40
0.0237972721010002
 50
336.298967075175824
 51
4.1052240255386518
  0
ARC
  5
11F3D
  8
0
 10
7.5133871118141959
 20
3.3845364987640312
 30
0.0
 40
0.0841126192113353
 50
326.5261299453371748
 51
336.2989670751758808
  0
ARC
  5
11F3E
  8
0
 10
7.516293460461398
 20
3.3903201511585652
 30
0.0
 40
0.0851213441609339
 50
308.8545561049560888
 51
322.1956953515729083
  0
ARC
  5
11F3F
  8
0
 10
7.5077558366815254
 20
3.4033188039436899
 30
0.0
 40
0.100375095601688
 50
313.6307623648662002
 51
330.6356455315884091
  0
ARC
  5
11F40
  8
0
 10
7.5391805979389162
 20
3.385637609536257
 30
0.0
 40
0.0643176379021016
 50
330.6356455315884091
 51
350.710811162231721
  0
ARC
  5
11F41
  8
0
 10
7.5083258785136158
 20
3.3906842856853991
 30
0.0
 40
0.0955823568512388
 50
350.710811162231721
 51
358.6736374270000169
  0
ARC
  5
11F42
  8
0
 10
7.571508030242696
 20
3.3892213958353739
 30
0.0
 40
0.0323832718592053
 50
358.6736374269993917
 51
28.0755972944062187
  0
ARC
  5
11F43
  8
0
 10
7.5352548753828748
 20
3.3698838520005938
 30
0.0
 40
0.0734713703653698
 50
28.0755972944062187
 51
55.9654212343145119
  0
ARC
  5
11F44
  8
0
 10
7.4330631582041269
 20
3.2185754573638441
 30
0.0
 40
0.2560566308534296
 50
55.9654212343150235
 51
73.4072559470037902
  0
ARC
  5
11F45
  8
0
 10
7.2869438703472653
 20
2.7282012331992642
 30
0.0
 40
0.7677379047034765
 50
73.4072559470037902
 51
83.3460629838666307
  0
ARC
  5
11F46
  8
0
 10
7.2530036453947266
 20
2.4372634891243861
 30
0.0
 40
1.0606486586836059
 50
83.3460629838666307
 51
88.8787367119481928
  0
ARC
  5
11F47
  8
0
 10
7.2477169121238632
 20
2.1834654751718041
 30
0.0
 40
1.314501729247965
 50
88.8066742559679057
 51
89.9202604745733538
  0
LINE
  5
11F48
  8
0
 10
7.6038826273817
 20
3.3884554144706409
 30
0.0
 11
7.6038826254817016
 21
3.4441043607706412
 31
0.0
  0
ARC
  5
11F49
  8
0
 10
7.5686507874914781
 20
3.4441043595677341
 30
0.0
 40
0.0352318379902226
 50
0.0000019562273824
 51
24.4204074788169407
  0
ARC
  5
11F4A
  8
0
 10
7.5470342189929411
 20
3.434289364068519
 30
0.0
 40
0.0589723133498623
 50
24.4204074788173884
 51
50.6892224176048529
  0
ARC
  5
11F4B
  8
0
 10
7.4609073170868641
 20
3.3291032268869181
 30
0.0
 40
0.1949207104979152
 50
50.6892224176048529
 51
72.3773357839290128
  0
ARC
  5
11F4C
  8
0
 10
7.2759821004163561
 20
2.7469441717956999
 30
0.0
 40
0.8057451543320926
 50
72.3773357839290128
 51
82.2456885202682173
  0
ARC
  5
11F4D
  8
0
 10
7.2212902360699536
 20
0.9933010021209325
 30
0.0
 40
2.5604533963810399
 50
88.135994946675126
 51
89.3676949640097433
  0
ARC
  5
11F4E
  8
0
 10
7.251423479940029
 20
2.450021736830887
 30
0.0
 40
1.128382975865327
 50
81.6786831283981769
 51
90.0953160708987468
  0
ARC
  5
11F4F
  8
0
 10
7.3153357044272829
 20
2.8869859393229929
 30
0.0
 40
0.6867694721106609
 50
72.0017423032883102
 51
81.6786831283981769
  0
ARC
  5
11F50
  8
0
 10
7.4450207950253144
 20
3.2861569092942089
 30
0.0
 40
0.2670604228977804
 50
55.8286805853645092
 51
72.0017423032883102
  0
ARC
  5
11F51
  8
0
 10
7.5521595223911637
 20
3.4439766345779752
 30
0.0
 40
0.0763098722033799
 50
28.5161828765436915
 51
55.8286805853645092
  0
ARC
  5
11F52
  8
0
 10
7.5874696145604901
 20
3.4631613655883018
 30
0.0
 40
0.0361245948876223
 50
354.6579999710457969
 51
28.5161828765445016
  0
ARC
  5
11F53
  8
0
 10
7.5836222035325269
 20
3.4635211238844681
 30
0.0
 40
0.0399887891955842
 50
338.4635016402972951
 51
354.657999971045399
  0
ARC
  5
11F54
  8
0
 10
7.5618912188663918
 20
3.474467685835438
 30
0.0
 40
0.0642588598958308
 50
310.8519357587529157
 51
336.4970444964230865
  0
ARC
  5
11F55
  8
0
 10
7.2509816026230141
 20
2.21848582832326
 30
0.0
 40
1.384250006401011
 50
82.271398146986968
 51
90.0594078317837727
  0
ARC
  5
11F56
  8
0
 10
7.3250174052949069
 20
2.764015306307452
 30
0.0
 40
0.8337196153897817
 50
70.0548955678331993
 51
82.271398146986968
  0
ARC
  5
11F57
  8
0
 10
7.5331175302923716
 20
3.337474647315545
 30
0.0
 40
0.223669389741601
 50
48.7624666701736018
 51
70.0548955678327729
  0
ARC
  5
11F58
  8
0
 10
7.6359043590067008
 20
3.4547320194917779
 30
0.0
 40
0.0677385605678153
 50
16.1600206051393798
 51
48.7624666701741276
  0
ARC
  5
11F59
  8
0
 10
7.663274759596205
 20
3.4626631498271609
 30
0.0
 40
0.0392422159456189
 50
340.587167207423704
 51
16.1600206051384809
  0
ARC
  5
11F5A
  8
0
 10
7.6325009124542751
 20
3.473508080071098
 30
0.0
 40
0.0718710709655307
 50
324.3391511502143203
 51
340.587167207423704
  0
ARC
  5
11F5B
  8
0
 10
7.6285489881714312
 20
3.4763437329888549
 30
0.0
 40
0.0767350850493293
 50
311.3080777644702835
 51
324.339151150213695
  0
ARC
  5
11F5C
  8
0
 10
7.551708330554276
 20
3.5637847524460291
 30
0.0
 40
0.1931413501158916
 50
301.4766304244449771
 51
311.3080777644698856
  0
ARC
  5
11F5D
  8
0
 10
7.489844558025033
 20
3.675913589758415
 30
0.0
 40
0.3211251598975728
 50
290.5666513560015005
 51
300.4439682150024851
  0
ARC
  5
11F5E
  8
0
 10
7.586106241867526
 20
3.5451188895659231
 30
0.0
 40
0.1567780082595126
 50
307.2162619425399726
 51
323.4470299901382191
  0
ARC
  5
11F5F
  8
0
 10
7.6722394626529526
 20
3.4812603433272642
 30
0.0
 40
0.0495546635505068
 50
323.4470299901381054
 51
346.1621115648898126
  0
ARC
  5
11F60
  8
0
 10
7.6717562036424729
 20
3.481379382028563
 30
0.0
 40
0.0500523677634878
 50
346.1621115648899831
 51
20.6089203458780013
  0
ARC
  5
11F61
  8
0
 10
7.6506686147886001
 20
3.4734493312971391
 30
0.0
 40
0.0725817287902166
 50
20.6089203458780013
 51
56.0181339326492633
  0
ARC
  5
11F62
  8
0
 10
7.2499619579308421
 20
2.053482015847286
 30
0.0
 40
1.5651636695091691
 50
86.3309535245056026
 51
90.0152149836282831
  0
ARC
  5
11F63
  8
0
 10
7.2616201504799056
 20
2.239924014230648
 30
0.0
 40
1.3783575341316281
 50
80.2117951946778618
 51
86.4219612825889527
  0
ARC
  5
11F64
  8
0
 10
7.3526009444407299
 20
2.7672938976695991
 30
0.0
 40
0.8431972788546191
 50
73.5626850303750643
 51
80.2117951946778618
  0
ARC
  5
11F65
  8
0
 10
7.443577699060782
 20
3.0756647718482522
 30
0.0
 40
0.5216862122909544
 50
64.5054088035286526
 51
73.5626850303750643
  0
ARC
  5
11F66
  8
0
 10
7.5799716858310973
 20
3.361690196765557
 30
0.0
 40
0.2048047465561708
 50
57.0932143778349612
 51
64.5054088035286526
  0
ARC
  5
11F67
  8
0
 10
7.2511891640649386
 20
2.0592606148327408
 30
0.0
 40
1.5624274321313649
 50
85.3932888513793671
 51
90.0602445187612659
  0
ARC
  5
11F68
  8
0
 10
7.2739049563135501
 20
2.3409222613733038
 30
0.0
 40
1.279851265703148
 50
76.8408829621599665
 51
85.3942093717980271
  0
ARC
  5
11F69
  8
0
 10
7.4395375181990238
 20
3.0493737320787271
 30
0.0
 40
0.5522953352748236
 50
65.1434945272817743
 51
76.8408829621599665
  0
ARC
  5
11F6A
  8
0
 10
7.589743400618203
 20
3.3658483860639441
 30
0.0
 40
0.2020255524869514
 50
44.7595712598061084
 51
66.0686883432683771
  0
ARC
  5
11F6B
  8
0
 10
7.6906387564298413
 20
3.4645152663911558
 30
0.0
 40
0.0609163138146518
 50
1.9299997505371229
 51
45.684765075793031
  0
ARC
  5
11F6C
  8
0
 10
7.689671062359337
 20
3.4692089685150371
 30
0.0
 40
0.0619058598566266
 50
316.2843925395574729
 51
357.553881312174326
  0
ARC
  5
11F6D
  8
0
 10
7.6259425594753187
 20
3.5239272967902648
 30
0.0
 40
0.1458513795335689
 50
303.0629402439121236
 51
318.049371392383307
  0
ARC
  5
11F6E
  8
0
 10
7.5330761965665403
 20
3.6675426230487882
 30
0.0
 40
0.3168759328273547
 50
291.4721111599802157
 51
302.9685368992725785
  0
ARC
  5
11F6F
  8
0
 10
7.4365790093367323
 20
3.90161912933134
 30
0.0
 40
0.5700440543809212
 50
286.1600645473290001
 51
291.8858764069137237
  0
ARC
  5
11F70
  8
0
 10
7.4779544878837916
 20
3.765928794680085
 30
0.0
 40
0.4240968843945993
 50
286.410989338763784
 51
299.6843046955941077
  0
ARC
  5
11F71
  8
0
 10
7.6303354840813276
 20
3.5052179868627809
 30
0.0
 40
0.1221815399159839
 50
298.1487075575615222
 51
330.7520492235292977
  0
ARC
  5
11F72
  8
0
 10
7.6925228929289551
 20
3.4664957335818789
 30
0.0
 40
0.0491207973800339
 50
334.722871822156776
 51
15.8205072726275198
  0
ARC
  5
11F73
  8
0
 10
7.649537735349873
 20
3.4446532390765219
 30
0.0
 40
0.0968795548699436
 50
21.3269270092853311
 51
44.4624646690321583
  0
ARC
  5
11F74
  8
0
 10
7.6137825118643567
 20
3.4033907348568309
 30
0.0
 40
0.151364491624114
 50
46.1301126933487922
 51
58.2848040109085304
  0
ARC
  5
11F75
  8
0
 10
6.6032939496267948
 20
4.4545622986381801
 30
0.0
 40
1.5176235048538791
 50
324.7604955418465238
 51
339.7508298965207132
  0
ARC
  5
11F76
  8
0
 10
6.9648727721059913
 20
4.1991229553294822
 30
0.0
 40
1.0749176171864361
 50
317.0393146432995195
 51
324.7604955418465238
  0
ARC
  5
11F77
  8
0
 10
7.1515290008700134
 20
1.3629334465640921
 30
0.0
 40
2.194808591730506
 50
83.9015919165763933
 51
86.0014725314303661
  0
ARC
  5
11F78
  8
0
 10
6.7544409021334744
 20
3.5874010429904
 30
0.0
 40
0.0985244751996154
 50
163.9298329651022073
 51
184.9499599978547906
  0
ARC
  5
11F79
  8
0
 10
6.8374233099355592
 20
3.5634962018824932
 30
0.0
 40
0.1848814172079216
 50
137.0673254853273022
 51
163.9298329651022073
  0
ARC
  5
11F7A
  8
0
 10
6.8660727518809699
 20
3.5368430349460378
 30
0.0
 40
0.2240117357796618
 50
107.5141752359799057
 51
137.0673254853278138
  0
ARC
  5
11F7B
  8
0
 10
7.2552110294100132
 20
1.5842272951290639
 30
0.0
 40
2.2138311903620198
 50
90.1467348612034129
 51
101.9013622137487971
  0
ARC
  5
11F7C
  8
0
 10
7.2433485911537749
 20
1.579282353462659
 30
0.0
 40
2.2187775144060322
 50
78.1117856146329643
 51
89.8400820957244548
  0
ARC
  5
11F7D
  8
0
 10
7.6378317876599482
 20
3.5455295469211121
 30
0.0
 40
0.2142856433855733
 50
25.6377265119933284
 51
73.0166756434161499
  0
ARC
  5
11F7E
  8
0
 10
7.7195242381259268
 20
3.5852555466189702
 30
0.0
 40
0.1234482560916081
 50
357.0490177733672112
 51
25.4204015766144806
  0
LINE
  5
11F7F
  8
0
 10
7.2302901612275221
 20
3.4513864040258388
 30
0.0
 11
7.229855696381704
 21
3.450777722170641
 31
0.0
  0
LINE
  5
11F80
  8
0
 10
7.229855696381704
 20
3.450777722170641
 30
0.0
 11
7.2396982160817061
 21
3.4369117458033318
 31
0.0
  0
LINE
  5
11F81
  8
0
 10
7.2396982160817061
 20
3.4369117458033318
 30
0.0
 11
7.2593832554817013
 21
3.4369117459671119
 31
0.0
  0
LINE
  5
11F82
  8
0
 10
7.2593832554817013
 20
3.4369117459671119
 30
0.0
 11
7.2692257751817024
 21
3.450777722170641
 31
0.0
  0
LINE
  5
11F83
  8
0
 10
7.2692257751817024
 20
3.450777722170641
 30
0.0
 11
7.2687875979168481
 21
3.451386694278042
 31
0.0
  0
LINE
  5
11F84
  8
0
 10
7.2396982160817061
 20
3.420621631370639
 30
0.0
 11
7.2298556964102261
 21
3.408704878526279
 31
0.0
  0
LINE
  5
11F85
  8
0
 10
7.2298556964102261
 20
3.408704878526279
 30
0.0
 11
7.2396982160218073
 21
3.3968720948950191
 31
0.0
  0
LINE
  5
11F86
  8
0
 10
7.2396982160218073
 20
3.3968720948950191
 30
0.0
 11
7.2593832554817013
 21
3.3968720948706408
 31
0.0
  0
LINE
  5
11F87
  8
0
 10
7.2593832554817013
 20
3.3968720948706408
 30
0.0
 11
7.2692257752058751
 21
3.4087048785554468
 31
0.0
  0
LINE
  5
11F88
  8
0
 10
7.2692257752058751
 20
3.4087048785554468
 30
0.0
 11
7.2593832554817013
 21
3.420621631401132
 31
0.0
  0
LINE
  5
11F89
  8
0
 10
7.2593832554817013
 20
3.420621631401132
 30
0.0
 11
7.2396982161065324
 21
3.420621631400699
 31
0.0
  0
LINE
  5
11F8A
  8
0
 10
7.2396982160817061
 20
3.3830250910113291
 30
0.0
 11
7.2298556964585003
 21
3.3729516495104859
 31
0.0
  0
LINE
  5
11F8B
  8
0
 10
7.2298556964585003
 20
3.3729516495104859
 30
0.0
 11
7.2396982160817061
 21
3.3629207207706382
 31
0.0
  0
LINE
  5
11F8C
  8
0
 10
7.2396982160817061
 20
3.3629207207706382
 30
0.0
 11
7.2593832553988094
 21
3.3629207207929488
 31
0.0
  0
LINE
  5
11F8D
  8
0
 10
7.2593832553988094
 20
3.3629207207929488
 30
0.0
 11
7.2692257750940987
 21
3.3729516494513798
 31
0.0
  0
LINE
  5
11F8E
  8
0
 10
7.2692257750940987
 20
3.3729516494513798
 30
0.0
 11
7.2593832554817013
 21
3.3830250908656718
 31
0.0
  0
LINE
  5
11F8F
  8
0
 10
7.2593832554817013
 20
3.3830250908656718
 30
0.0
 11
7.2396982160817061
 21
3.3830250908656718
 31
0.0
  0
LINE
  5
11F90
  8
0
 10
7.2298556963404224
 20
3.342879763940537
 30
0.0
 11
7.2396982160817061
 21
3.33450560847773
 31
0.0
  0
LINE
  5
11F91
  8
0
 10
7.2396982160817061
 20
3.33450560847773
 30
0.0
 11
7.2593832554817013
 21
3.33450560847773
 31
0.0
  0
LINE
  5
11F92
  8
0
 10
7.2593832554817013
 20
3.33450560847773
 30
0.0
 11
7.2692257751697724
 21
3.3428797638512888
 31
0.0
  0
LINE
  5
11F93
  8
0
 10
7.2692257751697724
 20
3.3428797638512888
 30
0.0
 11
7.2593832554817013
 21
3.3512715204706391
 31
0.0
  0
LINE
  5
11F94
  8
0
 10
7.2593832554817013
 20
3.3512715204706391
 30
0.0
 11
7.2396982160817061
 21
3.3512715204706391
 31
0.0
  0
LINE
  5
11F95
  8
0
 10
7.2396982160817061
 20
3.3512715204706391
 30
0.0
 11
7.2298556964011382
 21
3.3428797638828551
 31
0.0
  0
LINE
  5
11F96
  8
0
 10
7.2396982160817061
 20
3.33450560847773
 30
0.0
 11
7.2396982160817061
 21
3.3512715204706391
 31
0.0
  0
LINE
  5
11F97
  8
0
 10
7.2593832554817013
 20
3.3512715204706391
 30
0.0
 11
7.2593832554817013
 21
3.33450560847773
 31
0.0
  0
LINE
  5
11F98
  8
0
 10
7.2593832553988094
 20
3.3629207207929488
 30
0.0
 11
7.2593832553988094
 21
3.3830250908656718
 31
0.0
  0
LINE
  5
11F99
  8
0
 10
7.2396982160817061
 20
3.3830250908656718
 30
0.0
 11
7.2396982161044861
 21
3.3629207207706382
 31
0.0
  0
LINE
  5
11F9A
  8
0
 10
7.2396982160218073
 20
3.3968720948950191
 30
0.0
 11
7.2396982160817061
 21
3.420621631370639
 31
0.0
  0
LINE
  5
11F9B
  8
0
 10
7.2593832554817013
 20
3.420621631401132
 30
0.0
 11
7.2593832554817013
 21
3.3968720948706408
 31
0.0
  0
LINE
  5
11F9C
  8
0
 10
7.2396982160817061
 20
3.4369117458033318
 30
0.0
 11
7.2396982160817061
 21
3.4515237906335079
 31
0.0
  0
LINE
  5
11F9D
  8
0
 10
7.2593832554817013
 20
3.4369117459671119
 30
0.0
 11
7.2593832554817013
 21
3.451523899141562
 31
0.0
  0
LINE
  5
11F9E
  8
0
 10
6.2566767165829091
 20
0.3937008125706418
 30
0.0
 11
6.2566767165828381
 21
0.0000000251709968
 31
0.0
  0
LINE
  5
11F9F
  8
0
 10
8.2424159359803681
 20
0.3937008125706418
 30
0.0
 11
8.2424159359802971
 21
0.0000000251706416
 31
0.0
  0
LINE
  5
11FA0
  8
0
 10
3.529079475881701
 20
0.0000000251706416
 30
0.0
 11
1.521205460081702
 21
0.0000000251706416
 31
0.0
  0
LINE
  5
11FA1
  8
0
 10
1.521205460081702
 20
0.3937008125706418
 30
0.0
 11
3.529079475881701
 21
0.3937008125706418
 31
0.0
  0
LINE
  5
11FA2
  8
0
 10
1.521205460081702
 20
0.0000000251706416
 30
0.0
 11
1.521205460081702
 21
0.3937008125706418
 31
0.0
  0
LINE
  5
11FA3
  8
0
 10
3.529079475881701
 20
0.0000000251706416
 30
0.0
 11
3.529079475881701
 21
0.3937008125706418
 31
0.0
  0
LINE
  5
11FA4
  8
0
 10
3.214118845984316
 20
0.3937008125706418
 30
0.0
 11
3.214118845984316
 21
1.7913386078706419
 31
0.0
  0
LINE
  5
11FA5
  8
0
 10
3.214118845984316
 20
1.8267716787706401
 30
0.0
 11
3.214118845984316
 21
3.1571876611999441
 31
0.0
  0
ARC
  5
11FA6
  8
0
 10
3.1944337642113392
 20
3.1571876609104268
 30
0.0
 40
0.0196850817729775
 50
0.0000008426837391
 51
89.7054414882521769
  0
ARC
  5
11FA7
  8
0
 10
-4778.9390264524181475
 20
-930163.6267838309286162
 30
0.0
 40
930179.0964247698429972
 50
89.7054359980850649
 51
89.705631560080306
  0
ARC
  5
11FA8
  8
0
 10
0.0196651693807581
 20
3.173519920489162
 30
0.0
 40
0.0196651953035639
 50
180.0071091889986121
 51
190.2199208573887006
  0
ARC
  5
11FA9
  8
0
 10
0.0196689444979441
 20
3.1735204853637842
 30
0.0
 40
0.0196689704989077
 50
89.9417443371791734
 51
180.0087533062371961
  0
ARC
  5
11FAA
  8
0
 10
0.275890655269464
 20
3.2166004833330741
 30
0.0
 40
0.2794858523332843
 50
189.5917234993218869
 51
206.9381631120816962
  0
ARC
  5
11FAB
  8
0
 10
0.2243107688894952
 20
3.198519295117829
 30
0.0
 40
0.2254278406323066
 50
208.7806295682140956
 51
241.1950262471322048
  0
ARC
  5
11FAC
  8
0
 10
0.3802546798845725
 20
3.541074899954324
 30
0.0
 40
0.6014068794297983
 50
243.9021953306570936
 51
263.843344875115406
  0
ARC
  5
11FAD
  8
0
 10
0.7334534828004138
 20
7.5905950885674036
 30
0.0
 40
4.6661912804915611
 50
264.8642456814262118
 51
268.8335824847252979
  0
ARC
  5
11FAE
  8
0
 10
-0.5744026970467502
 20
-40.006943886725189
 30
0.0
 40
42.9494433957522403
 50
87.7446719969606761
 51
88.3817828092259532
  0
ARC
  5
11FAF
  8
0
 10
1.127486953137903
 20
1.8001829210362561
 30
0.0
 40
1.109108973189725
 50
70.9703730949905207
 51
90.6050232216948785
  0
ARC
  5
11FB0
  8
0
 10
1.359675173540196
 20
2.4879019769798658
 30
0.0
 40
0.3832963586318566
 50
36.2323620123614418
 51
70.2623392666292546
  0
ARC
  5
11FB1
  8
0
 10
1.086678413185765
 20
2.2608820512908632
 30
0.0
 40
0.7380064505552242
 50
5.6723575321861324
 51
37.9221556328645519
  0
ARC
  5
11FB2
  8
0
 10
-0.0493774286925373
 20
2.0947107655640549
 30
0.0
 40
1.885670714683658
 50
359.2959507851460899
 51
7.2850999771699572
  0
ARC
  5
11FB3
  8
0
 10
-486.8453740014588789
 20
1.9491559746366169
 30
0.0
 40
488.6815402512277728
 50
359.9856509748628923
 51
0.0143490251370615
  0
LINE
  5
11FB4
  8
0
 10
1.8361509249458261
 20
1.8267716787706401
 30
0.0
 11
3.214118845984316
 21
1.8267716787706401
 31
0.0
  0
LINE
  5
11FB5
  8
0
 10
3.214118845984316
 20
1.7913386078706419
 30
0.0
 11
1.8361660899817021
 21
1.7913386078706419
 31
0.0
  0
LINE
  5
11FB6
  8
0
 10
1.8361660899817021
 20
1.7913386078706419
 30
0.0
 11
1.8361660899817021
 21
0.3937008125706418
 31
0.0
  0
LINE
  5
11FB7
  8
0
 10
3.1058511293817039
 20
1.7913386078706419
 30
0.0
 11
3.1058511293817039
 21
1.8267716787706401
 31
0.0
  0
LINE
  5
11FB8
  8
0
 10
1.9444338065816991
 20
1.8267716787706401
 30
0.0
 11
1.9444338065816991
 21
1.7913386078706419
 31
0.0
  0
LINE
  5
11FB9
  8
0
 10
8.5433238646887695
 20
2.0876736420708202
 30
0.0
 11
8.2424717474314111
 21
2.0876736420708202
 31
0.0
  0
LINE
  5
11FBA
  8
0
 10
8.5433238646889791
 20
1.922123868270819
 30
0.0
 11
8.2424662930504802
 21
1.922123868270819
 31
0.0
  0
ARC
  5
11FBB
  8
0
 10
8.2270880139417475
 20
1.9992745337585029
 30
0.0
 40
0.3994980505677482
 50
0.8066492316115409
 51
9.1282939112087789
  0
ARC
  5
11FBC
  8
0
 10
8.5920009160871782
 20
2.0517774181641122
 30
0.0
 40
0.0314650775472444
 50
20.2211711698800087
 51
81.3832465716548654
  0
ARC
  5
11FBD
  8
0
 10
8.5456290348352688
 20
1.8132044451118481
 30
0.0
 40
0.2744788769444872
 50
79.2735386487605638
 51
90.4811957648032035
  0
ARC
  5
11FBE
  8
0
 10
8.2435584704893081
 20
2.0090914202005421
 30
0.0
 40
0.3830109509319284
 50
350.6922629679688157
 51
359.3727938892106977
  0
ARC
  5
11FBF
  8
0
 10
8.5920009160871782
 20
1.958020092177529
 30
0.0
 40
0.0314650775472444
 50
278.6167534283450777
 51
339.7788288301198918
  0
ARC
  5
11FC0
  8
0
 10
8.5456290348352688
 20
2.1965930652297931
 30
0.0
 40
0.2744788769444872
 50
269.5188042351967965
 51
280.7264613512393794
  0
ATTDEF
  5
11FC1
  8
DEFPOINTS
 10
7.24986485285892
 20
0.0006509590721526
 30
0.0
 40
0.001
  1
BATHROOM SINK FAUCET
  3

  2
PRODUCT
 70
     0
1001
ACDBATTR
1070
     0
1070
     1
  0
ATTDEF
  5
11FC2
  8
DEFPOINTS
 10
7.24986485285892
 20
0.0023176257388178
 30
0.0
 40
0.001
  1
ALEO
  3

  2
TRADENAME
 70
     0
1001
ACDBATTR
1070
     0
1070
     1
  0
ATTDEF
  5
11FC3
  8
DEFPOINTS
 10
7.24986485285892
 20
0.0039842924054829
 30
0.0
 40
0.001
  1
K-98867T-4
  3

  2
MODELNUMBER
 70
     0
1001
ACDBATTR
1070
     0
1070
     1
  0
ENDBLK
  5
11FC7
  8
0
  0
ENDSEC
  0
SECTION
  2
ENTITIES
  0
ATTDEF
  5
10B73
  8
DEFPOINTS
 10
70.1375608909710166
 20
-34.3981486728513985
 30
0.0
 40
0.001
  1
K-98867BR-4
  3

  2
MODELNUMBER
 70
     0
1001
ACDBATTR
1070
     0
1070
     1
  0
ATTDEF
  5
10B74
  8
DEFPOINTS
 10
70.1375608909710166
 20
-34.3998153395180708
 30
0.0
 40
0.001
  1
ALEO
  3

  2
TRADENAME
 70
     0
1001
ACDBATTR
1070
     0
1070
     1
  0
ATTDEF
  5
10B75
  8
DEFPOINTS
 10
70.1375608909710166
 20
-34.4014820061847288
 30
0.0
 40
0.001
  1
BATHROOM SINK FAUCET
  3

  2
PRODUCT
 70
     0
1001
ACDBATTR
1070
     0
1070
     1
  0
LINE
  5
12CC6
  8
0
 10
69.1508835822355223
 20
-34.3964358151198297
 30
0.0
 11
71.1366228016328535
 21
-34.3964358151201921
 31
0.0
  0
LINE
  5
12CC7
  8
0
 10
73.8642200423341961
 20
-34.3964358151201921
 30
0.0
 11
75.8720940581341949
 21
-34.3964358151201921
 31
0.0
  0
LINE
  5
12CC8
  8
0
 10
75.8720940581341949
 20
-34.0027350277201919
 30
0.0
 11
73.8642200423341961
 21
-34.0027350277201919
 31
0.0
  0
LINE
  5
12CC9
  8
0
 10
75.8720940581341949
 20
-34.3964358151201921
 30
0.0
 11
75.8720940581341949
 21
-34.0027350277201919
 31
0.0
  0
LINE
  5
12CCA
  8
0
 10
73.8642200423341961
 20
-34.3964358151201921
 30
0.0
 11
73.8642200423341961
 21
-34.0027350277201919
 31
0.0
  0
LINE
  5
12CCB
  8
0
 10
74.1791806722315812
 20
-34.0027350277201919
 30
0.0
 11
74.1791806722315812
 21
-32.6050972324201922
 31
0.0
  0
LINE
  5
12CCC
  8
0
 10
74.1791806722315812
 20
-32.569664161520187
 30
0.0
 11
74.1791806722315812
 21
-31.2392481790908896
 31
0.0
  0
ARC
  5
12CCD
  8
0
 10
74.198865754004558
 20
-31.2392481793804002
 30
0.0
 40
0.0196850817729775
 50
90.2945585117478373
 51
179.9999991573160969
  0
ARC
  5
12CCE
  8
0
 10
4856.3323259706339741
 20
-930198.023219671100378
 30
0.0
 40
930179.0964247698429972
 50
90.2943684399197082
 51
90.2945640019149636
  0
ARC
  5
12CCF
  8
0
 10
77.3736343488351395
 20
-31.2229159198016717
 30
0.0
 40
0.0196651953035639
 50
349.7800791426112141
 51
359.9928908110015868
  0
ARC
  5
12CD0
  8
0
 10
77.3736305737179464
 20
-31.2229153549270393
 30
0.0
 40
0.0196689704989077
 50
359.991246693762605
 51
90.0582556628204145
  0
ARC
  5
12CD1
  8
0
 10
77.1174088629464336
 20
-31.1798353569577493
 30
0.0
 40
0.2794858523332843
 50
333.0618368879182185
 51
350.4082765006776867
  0
ARC
  5
12CD2
  8
0
 10
77.1689887493264024
 20
-31.1979165451730012
 30
0.0
 40
0.2254278406323066
 50
298.8049737528679088
 51
331.2193704317858192
  0
ARC
  5
12CD3
  8
0
 10
77.0130448383313251
 20
-30.8553609403364995
 30
0.0
 40
0.6014068794297983
 50
276.1566551248844803
 51
296.0978046693427927
  0
ARC
  5
12CD4
  8
0
 10
76.6598460354154838
 20
-26.8058407517234301
 30
0.0
 40
4.6661912804915611
 50
271.1664175152747021
 51
275.1357543185737882
  0
ARC
  5
12CD5
  8
0
 10
77.9677022152626478
 20
-74.4033797270160164
 30
0.0
 40
42.9494433957522403
 50
91.6182171907740326
 51
92.2553280030393381
  0
ARC
  5
12CD6
  8
0
 10
76.2658125650779937
 20
-32.5962529192545674
 30
0.0
 40
1.109108973189725
 50
89.3949767783051072
 51
109.029626905009394
  0
ARC
  5
12CD7
  8
0
 10
76.033624344675701
 20
-31.9085338633109608
 30
0.0
 40
0.3832963586318566
 50
109.7376607333708023
 51
143.7676379876386079
  0
ARC
  5
12CD8
  8
0
 10
76.306621105030132
 20
-32.1355537889999709
 30
0.0
 40
0.7380064505552242
 50
142.0778443671352989
 51
174.327642467814087
  0
ARC
  5
12CD9
  8
0
 10
77.4426769469084348
 20
-32.3017250747267823
 30
0.0
 40
1.885670714683658
 50
172.714900022829994
 51
180.7040492148535122
  0
ARC
  5
12CDA
  8
0
 10
564.2386735196748759
 20
-32.4472798656542096
 30
0.0
 40
488.6815402512277728
 50
179.9856509748626934
 51
180.014349025136795
  0
LINE
  5
12CDB
  8
0
 10
75.557148593270071
 20
-32.569664161520187
 30
0.0
 11
74.1791806722315812
 21
-32.569664161520187
 31
0.0
  0
LINE
  5
12CDC
  8
0
 10
74.1791806722315812
 20
-32.6050972324201922
 30
0.0
 11
75.5571334282341951
 21
-32.6050972324201922
 31
0.0
  0
LINE
  5
12CDD
  8
0
 10
75.5571334282341951
 20
-32.6050972324201922
 30
0.0
 11
75.5571334282341951
 21
-34.0027350277201919
 31
0.0
  0
LINE
  5
12CDE
  8
0
 10
74.2874483888341928
 20
-32.6050972324201922
 30
0.0
 11
74.2874483888341928
 21
-32.569664161520187
 31
0.0
  0
LINE
  5
12CDF
  8
0
 10
75.4488657116341983
 20
-32.569664161520187
 30
0.0
 11
75.4488657116341983
 21
-32.6050972324201922
 31
0.0
  0
LINE
  5
12CE0
  8
0
 10
71.1366228016328535
 20
-34.0027350277201919
 30
0.0
 11
71.1367456397314726
 21
-30.2743890057448297
 31
0.0
  0
ARC
  5
12CE1
  8
0
 10
71.1050926274961199
 20
-30.2745455187571011
 30
0.0
 40
0.0316533991820561
 50
0.2833044999573057
 51
89.7158622342073357
  0
LINE
  5
12CE2
  8
0
 10
71.1052478136341932
 20
-30.2428925080201907
 30
0.0
 11
69.1822456009952589
 21
-30.2428925089007592
 31
0.0
  0
ARC
  5
12CE3
  8
0
 10
69.1822456010096545
 20
-30.2743241213306113
 30
0.0
 40
0.0314316124298477
 50
90.0000000262362647
 51
180.1192291472646048
  0
ARC
  5
12CE4
  8
0
 10
-732.3389750873335515
 20
-32.1535083345147399
 30
0.0
 40
801.4919919684340357
 50
359.867805318145372
 51
0.1343315672477747
  0
ARC
  5
12CE5
  8
0
 10
75.7710852834464674
 20
-31.2029118159734189
 30
0.0
 40
6.6194031038593524
 50
175.0825261059096931
 51
179.2617738301424026
  0
ARC
  5
12CE6
  8
0
 10
69.8321185210917719
 20
-30.6919381514980891
 30
0.0
 40
0.6584954305145299
 50
163.7819935831838052
 51
175.0825261059096931
  0
ARC
  5
12CE7
  8
0
 10
69.2562490498389707
 20
-30.5209522238488695
 30
0.0
 40
0.0578837377240333
 50
119.2746391932196985
 51
167.0953189237353911
  0
ARC
  5
12CE8
  8
0
 10
69.2443965904877246
 20
-30.5101154107490693
 30
0.0
 40
0.0429319407035314
 50
92.241417787900815
 51
112.5334270098471023
  0
ARC
  5
12CE9
  8
0
 10
69.3384017623078535
 20
-78.0945877564213049
 30
0.0
 40
47.6274675549806403
 50
89.9665879908433368
 51
90.1151080970722518
  0
LINE
  5
12CEA
  8
0
 10
69.3661756979341959
 20
-30.4671282996201818
 30
0.0
 11
71.0165719256341958
 21
-30.4671200710201902
 31
0.0
  0
ARC
  5
12CEB
  8
0
 10
71.0285194303389176
 20
-31.0840163199477395
 30
0.0
 40
0.6170155623581652
 50
88.4934147503726649
 51
91.1093127924954587
  0
ARC
  5
12CEC
  8
0
 10
71.0436850061014127
 20
-30.5073989580913683
 30
0.0
 40
0.0401988005677269
 50
65.4788468250836644
 51
88.4934147503730628
  0
ARC
  5
12CED
  8
0
 10
71.0442524016163759
 20
-30.5061551393850117
 30
0.0
 40
0.0388316785378169
 50
30.3523301629093893
 51
65.4788468250822149
  0
ARC
  5
12CEE
  8
0
 10
70.9583107317183135
 20
-30.5564807491329695
 30
0.0
 40
0.1384240357815832
 50
11.5939096877569003
 51
30.3523301629088316
  0
ARC
  5
12CEF
  8
0
 10
69.4565117295219068
 20
-30.86458945369397
 30
0.0
 40
1.671503034667287
 50
8.831802091650589
 51
11.5939096877569003
  0
ARC
  5
12CF0
  8
0
 10
63.3921503282000032
 20
-31.2773209501017995
 30
0.0
 40
7.745025116816536
 50
0.6087884600884115
 51
4.957978873754354
  0
ARC
  5
12CF1
  8
0
 10
70.1432433285397536
 20
-31.9065772806490209
 30
0.0
 40
0.9617105694291453
 50
89.9696238942081976
 51
92.1462900020122646
  0
ARC
  5
12CF2
  8
0
 10
70.1382360161349396
 20
-31.8525258774499491
 30
0.0
 40
0.9075144472437681
 50
91.9581783431937367
 51
95.5549351569532774
  0
ARC
  5
12CF3
  8
0
 10
70.1181545472555001
 20
-31.691881128839281
 30
0.0
 40
0.7456934223594988
 50
95.2140339675792546
 51
102.1723343287423944
  0
ARC
  5
12CF4
  8
0
 10
70.0557872074779482
 20
-31.4062208128770806
 30
0.0
 40
0.4533056360671263
 50
102.0796986774159052
 51
109.6833064590714031
  0
ARC
  5
12CF5
  8
0
 10
69.9753307237247384
 20
-31.1859542903144416
 30
0.0
 40
0.2188157360114574
 50
109.2735337279303991
 51
122.3812121732916012
  0
ARC
  5
12CF6
  8
0
 10
69.8964940382879831
 20
-31.0644149599995387
 30
0.0
 40
0.073969314695926
 50
121.2289444051972964
 51
149.6471440764815952
  0
ARC
  5
12CF7
  8
0
 10
69.8602506883075023
 20
-31.0421327410171308
 30
0.0
 40
0.0314473785149762
 50
151.3114786943797867
 51
196.149267036082108
  0
ARC
  5
12CF8
  8
0
 10
69.8789767210280104
 20
-31.0341680629301386
 30
0.0
 40
0.0517074825056866
 50
198.8561079781941885
 51
231.6239687944056982
  0
ARC
  5
12CF9
  8
0
 10
69.9746689265555943
 20
-30.9068090551928982
 30
0.0
 40
0.2109974616367204
 50
232.7234739666270116
 51
254.3388601336986028
  0
ARC
  5
12CFA
  8
0
 10
70.0842244025135415
 20
-30.5707030344895401
 30
0.0
 40
0.5643927500662295
 50
252.8405670354285917
 51
261.0949247921842016
  0
ARC
  5
12CFB
  8
0
 10
70.1367016931338867
 20
-30.2490471235621001
 30
0.0
 40
0.8902972129565309
 50
260.9627971781812903
 51
267.8430333538742047
  0
ARC
  5
12CFC
  8
0
 10
70.1436389987367335
 20
-30.1288355743379306
 30
0.0
 40
1.0106875580584671
 50
267.7065265028525118
 51
270.0064736012877233
  0
LINE
  5
12CFD
  8
0
 10
70.1060662320341947
 20
-30.9534130347201817
 30
0.0
 11
70.1257512714142734
 21
-30.9544046127288794
 31
0.0
  0
LINE
  5
12CFE
  8
0
 10
70.1257512714142734
 20
-30.9544046127288794
 30
0.0
 11
70.1355937911083771
 21
-30.9678225142712691
 31
0.0
  0
LINE
  5
12CFF
  8
0
 10
70.1355937911083771
 20
-30.9678225142712691
 30
0.0
 11
70.1257512714341971
 21
-30.9801513721494004
 31
0.0
  0
LINE
  5
12D00
  8
0
 10
70.1257512714341971
 20
-30.9801513721494004
 30
0.0
 11
70.1060662320341947
 21
-30.9791891024201895
 31
0.0
  0
LINE
  5
12D01
  8
0
 10
70.1060662320341947
 20
-30.9791891024201895
 30
0.0
 11
70.0962237124341954
 21
-30.9658693233201916
 31
0.0
  0
LINE
  5
12D02
  8
0
 10
70.0962237124341954
 20
-30.9658693233201916
 30
0.0
 11
70.1060662320341947
 21
-30.9534130347201817
 31
0.0
  0
LINE
  5
12D03
  8
0
 10
70.1060662320341947
 20
-30.9534130347201817
 30
0.0
 11
70.1060662320341947
 21
-30.9791891024201895
 31
0.0
  0
LINE
  5
12D04
  8
0
 10
70.1257512714341971
 20
-30.9801513721494004
 30
0.0
 11
70.1257512714142734
 21
-30.9544046127288794
 31
0.0
  0
LINE
  5
12D05
  8
0
 10
70.0782273824341928
 20
-30.9721030089254086
 30
0.0
 11
70.0979124218341951
 21
-30.9740451281501414
 31
0.0
  0
LINE
  5
12D06
  8
0
 10
70.0979124218341951
 20
-30.9740451281501414
 30
0.0
 11
70.1077549414757613
 21
-30.9869404377377613
 31
0.0
  0
LINE
  5
12D07
  8
0
 10
70.1077549414757613
 20
-30.9869404377377613
 30
0.0
 11
70.0979124218341951
 21
-30.9978392187516896
 31
0.0
  0
LINE
  5
12D08
  8
0
 10
70.0979124218341951
 20
-30.9978392187516896
 30
0.0
 11
70.0782273824015647
 21
-30.9959463543434701
 31
0.0
  0
LINE
  5
12D09
  8
0
 10
70.0782273824015647
 20
-30.9959463543434701
 30
0.0
 11
70.0683848627318611
 21
-30.9831063830641895
 31
0.0
  0
LINE
  5
12D0A
  8
0
 10
70.0683848627318611
 20
-30.9831063830641895
 30
0.0
 11
70.0782273824341928
 21
-30.9721030089254086
 31
0.0
  0
LINE
  5
12D0B
  8
0
 10
70.0782273824341928
 20
-30.9721030089254086
 30
0.0
 11
70.0782273824015647
 21
-30.9959463543434701
 31
0.0
  0
LINE
  5
12D0C
  8
0
 10
70.0979124218341951
 20
-30.9978392187516896
 30
0.0
 11
70.0979124218341951
 21
-30.9740451281501414
 31
0.0
  0
LINE
  5
12D0D
  8
0
 10
70.0602871882594371
 20
-30.9483652433870695
 30
0.0
 11
70.0700735721560477
 21
-30.949770091583499
 31
0.0
  0
LINE
  5
12D0E
  8
0
 10
70.0700735721560477
 20
-30.949770091583499
 30
0.0
 11
70.079916091783673
 21
-30.9642455251057491
 31
0.0
  0
LINE
  5
12D0F
  8
0
 10
70.079916091783673
 20
-30.9642455251057491
 30
0.0
 11
70.0700735721341914
 21
-30.9756547963281292
 31
0.0
  0
LINE
  5
12D10
  8
0
 10
70.0700735721341914
 20
-30.9756547963281292
 30
0.0
 11
70.0503885327094906
 21
-30.972736978232291
 31
0.0
  0
LINE
  5
12D11
  8
0
 10
70.0503885327094906
 20
-30.972736978232291
 30
0.0
 11
70.0405460130986341
 21
-30.9583210216395202
 31
0.0
  0
LINE
  5
12D12
  8
0
 10
70.0405460130986341
 20
-30.9583210216395202
 30
0.0
 11
70.0503885327341749
 21
-30.9492732596201883
 31
0.0
  0
LINE
  5
12D13
  8
0
 10
70.0503885327341749
 20
-30.9492732596201883
 30
0.0
 11
70.0503885327094906
 21
-30.972736978232291
 31
0.0
  0
LINE
  5
12D14
  8
0
 10
70.0700735721341914
 20
-30.9756547963281292
 30
0.0
 11
70.0700735721560477
 21
-30.949770091583499
 31
0.0
  0
LINE
  5
12D15
  8
0
 10
70.0225496831342014
 20
-30.9627895530565382
 30
0.0
 11
70.0422347225342037
 21
-30.9667380742456686
 31
0.0
  0
LINE
  5
12D16
  8
0
 10
70.0422347225342037
 20
-30.9667380742456686
 30
0.0
 11
70.0519555948853991
 21
-30.9805421620347694
 31
0.0
  0
LINE
  5
12D17
  8
0
 10
70.0519555948853991
 20
-30.9805421620347694
 30
0.0
 11
70.042113075243833
 21
-30.9906977846464109
 31
0.0
  0
LINE
  5
12D18
  8
0
 10
70.042113075243833
 20
-30.9906977846464109
 30
0.0
 11
70.0225496831068313
 21
-30.9868742103731698
 31
0.0
  0
LINE
  5
12D19
  8
0
 10
70.0225496831068313
 20
-30.9868742103731698
 30
0.0
 11
70.0127071634553033
 21
-30.9729179641403896
 31
0.0
  0
LINE
  5
12D1A
  8
0
 10
70.0127071634553033
 20
-30.9729179641403896
 30
0.0
 11
70.0225496831342014
 21
-30.9627895530565382
 31
0.0
  0
LINE
  5
12D1B
  8
0
 10
70.0225496831342014
 20
-30.9627895530565382
 30
0.0
 11
70.0225496831068313
 21
-30.9868742103731698
 31
0.0
  0
LINE
  5
12D1C
  8
0
 10
70.042113075243833
 20
-30.9906977846464109
 30
0.0
 11
70.0422347225342037
 21
-30.9667380742456686
 31
0.0
  0
LINE
  5
12D1D
  8
0
 10
70.0503885327341749
 20
-30.987890653595521
 30
0.0
 11
70.0700735722398917
 21
-30.9907608235678502
 31
0.0
  0
LINE
  5
12D1E
  8
0
 10
70.0700735722398917
 20
-30.9907608235678502
 30
0.0
 11
70.0799160918814437
 21
-31.0031943825930192
 31
0.0
  0
LINE
  5
12D1F
  8
0
 10
70.0799160918814437
 20
-31.0031943825930192
 30
0.0
 11
70.0700735722398917
 21
-31.0127385391804111
 31
0.0
  0
LINE
  5
12D20
  8
0
 10
70.0700735722398917
 20
-31.0127385391804111
 30
0.0
 11
70.0507410443442922
 21
-31.0099867972432115
 31
0.0
  0
LINE
  5
12D21
  8
0
 10
70.0507410443442922
 20
-31.0099867972432115
 30
0.0
 11
70.0405460130812401
 21
-30.9975171808197203
 31
0.0
  0
LINE
  5
12D22
  8
0
 10
70.0405460130812401
 20
-30.9975171808197203
 30
0.0
 11
70.0503885327341749
 21
-30.987890653595521
 31
0.0
  0
LINE
  5
12D23
  8
0
 10
70.0503885327341749
 20
-30.987890653595521
 30
0.0
 11
70.0507410443442922
 21
-31.0099867972432115
 31
0.0
  0
LINE
  5
12D24
  8
0
 10
70.0700735722398917
 20
-31.0127385391804111
 30
0.0
 11
70.0700735722398917
 21
-30.9907608235678502
 31
0.0
  0
LINE
  5
12D25
  8
0
 10
69.9947108334341834
 20
-30.9759388811678384
 30
0.0
 11
70.0143958728342
 21
-30.9808257188562486
 31
0.0
  0
LINE
  5
12D26
  8
0
 10
70.0143958728342
 20
-30.9808257188562486
 30
0.0
 11
70.0242383924969545
 21
-30.9943550710375106
 31
0.0
  0
LINE
  5
12D27
  8
0
 10
70.0242383924969545
 20
-30.9943550710375106
 30
0.0
 11
70.0143958728342
 21
-31.0030215550753994
 31
0.0
  0
LINE
  5
12D28
  8
0
 10
70.0143958728342
 20
-31.0030215550753994
 30
0.0
 11
69.9947108334718706
 21
-30.998245050644659
 31
0.0
  0
LINE
  5
12D29
  8
0
 10
69.9947108334718706
 20
-30.998245050644659
 30
0.0
 11
69.9848683138275049
 21
-30.9846932971097893
 31
0.0
  0
LINE
  5
12D2A
  8
0
 10
69.9848683138275049
 20
-30.9846932971097893
 30
0.0
 11
69.9947108334341834
 21
-30.9759388811678384
 31
0.0
  0
LINE
  5
12D2B
  8
0
 10
69.9947108334341834
 20
-30.9759388811678384
 30
0.0
 11
69.9947108334718706
 21
-30.998245050644659
 31
0.0
  0
LINE
  5
12D2C
  8
0
 10
70.0143958728342
 20
-31.0030215550753994
 30
0.0
 11
70.0143958728342
 21
-30.9808257188562486
 31
0.0
  0
LINE
  5
12D2D
  8
0
 10
70.0225496831576351
 20
-31.0008960423820703
 30
0.0
 11
70.0422347225342037
 21
-31.004687347820191
 31
0.0
  0
LINE
  5
12D2E
  8
0
 10
70.0422347225342037
 20
-31.004687347820191
 30
0.0
 11
70.0520772421881617
 21
-31.0167080232830799
 31
0.0
  0
LINE
  5
12D2F
  8
0
 10
70.0520772421881617
 20
-31.0167080232830799
 30
0.0
 11
70.042234722525393
 21
-31.0253745073209792
 31
0.0
  0
LINE
  5
12D30
  8
0
 10
70.042234722525393
 20
-31.0253745073209792
 30
0.0
 11
70.0225496831342014
 21
-31.0212260263172297
 31
0.0
  0
LINE
  5
12D31
  8
0
 10
70.0225496831342014
 20
-31.0212260263172297
 30
0.0
 11
70.0127071634544649
 21
-31.0091956872714505
 31
0.0
  0
LINE
  5
12D32
  8
0
 10
70.0127071634544649
 20
-31.0091956872714505
 30
0.0
 11
70.0225496831576351
 21
-31.0008960423820703
 31
0.0
  0
LINE
  5
12D33
  8
0
 10
70.0225496831576351
 20
-31.0008960423820703
 30
0.0
 11
70.0225496831342014
 21
-31.0212260263172297
 31
0.0
  0
LINE
  5
12D34
  8
0
 10
70.042234722525393
 20
-31.0253745073209792
 30
0.0
 11
70.0422347225342037
 21
-31.004687347820191
 31
0.0
  0
LINE
  5
12D35
  8
0
 10
69.9947108335010739
 20
-31.011189477289971
 30
0.0
 11
70.0139969088033922
 21
-31.0158205253741386
 31
0.0
  0
LINE
  5
12D36
  8
0
 10
70.0139969088033922
 20
-31.0158205253741386
 30
0.0
 11
70.0242383925594538
 21
-31.0275569892901295
 31
0.0
  0
LINE
  5
12D37
  8
0
 10
70.0242383925594538
 20
-31.0275569892901295
 30
0.0
 11
70.0143624509224907
 21
-31.0345142799157188
 31
0.0
  0
LINE
  5
12D38
  8
0
 10
70.0143624509224907
 20
-31.0345142799157188
 30
0.0
 11
69.9947108334136487
 21
-31.0298737007734893
 31
0.0
  0
LINE
  5
12D39
  8
0
 10
69.9947108334136487
 20
-31.0298737007734893
 30
0.0
 11
69.9848683138899901
 21
-31.0178952153624188
 31
0.0
  0
LINE
  5
12D3A
  8
0
 10
69.9848683138899901
 20
-31.0178952153624188
 30
0.0
 11
69.9947108335010739
 21
-31.011189477289971
 31
0.0
  0
LINE
  5
12D3B
  8
0
 10
69.9947108335010739
 20
-31.011189477289971
 30
0.0
 11
69.9947108334136487
 21
-31.0298737007734893
 31
0.0
  0
LINE
  5
12D3C
  8
0
 10
70.0143624509224907
 20
-31.0345142799157188
 30
0.0
 11
70.0139969088033922
 21
-31.0158205253741386
 31
0.0
  0
LINE
  5
12D3D
  8
0
 10
69.9668719837916342
 20
-31.0187973229029801
 30
0.0
 11
69.9859969568026088
 21
-31.0243152939549489
 31
0.0
  0
LINE
  5
12D3E
  8
0
 10
69.9859969568026088
 20
-31.0243152939549489
 30
0.0
 11
69.9963995428974926
 21
-31.0357749420185414
 31
0.0
  0
LINE
  5
12D3F
  8
0
 10
69.9963995428974926
 20
-31.0357749420185414
 30
0.0
 11
69.986557023234198
 21
-31.0414740348201903
 31
0.0
  0
LINE
  5
12D40
  8
0
 10
69.986557023234198
 20
-31.0414740348201903
 30
0.0
 11
69.9668719838659996
 21
-31.0358742488033812
 31
0.0
  0
LINE
  5
12D41
  8
0
 10
69.9668719838659996
 20
-31.0358742488033812
 30
0.0
 11
69.957029464151816
 21
-31.024506081290891
 31
0.0
  0
LINE
  5
12D42
  8
0
 10
69.957029464151816
 20
-31.024506081290891
 30
0.0
 11
69.9668719837916342
 21
-31.0187973229029801
 31
0.0
  0
LINE
  5
12D43
  8
0
 10
69.9668719837916342
 20
-31.0187973229029801
 30
0.0
 11
69.9668719838659996
 21
-31.0358742488033812
 31
0.0
  0
LINE
  5
12D44
  8
0
 10
69.986557023234198
 20
-31.0414740348201903
 30
0.0
 11
69.9859969568026088
 21
-31.0243152939549489
 31
0.0
  0
LINE
  5
12D45
  8
0
 10
69.9668719838341957
 20
-30.9862869165387487
 30
0.0
 11
69.9864560811173533
 21
-30.9920975252405206
 31
0.0
  0
LINE
  5
12D46
  8
0
 10
69.9864560811173533
 20
-30.9920975252405206
 30
0.0
 11
69.9963995428833812
 21
-31.0052634195287915
 31
0.0
  0
LINE
  5
12D47
  8
0
 10
69.9963995428833812
 20
-31.0052634195287915
 30
0.0
 11
69.9865570231579284
 21
-31.012620033094791
 31
0.0
  0
LINE
  5
12D48
  8
0
 10
69.9865570231579284
 20
-31.012620033094791
 30
0.0
 11
69.9668719838341957
 21
-31.0068939776201908
 31
0.0
  0
LINE
  5
12D49
  8
0
 10
69.9668719838341957
 20
-31.0068939776201908
 30
0.0
 11
69.9570294641560508
 21
-30.9936998266708805
 31
0.0
  0
LINE
  5
12D4A
  8
0
 10
69.9570294641560508
 20
-30.9936998266708805
 30
0.0
 11
69.9668719838341957
 21
-30.9862869165387487
 31
0.0
  0
LINE
  5
12D4B
  8
0
 10
69.9668719838341957
 20
-30.9862869165387487
 30
0.0
 11
69.9668719838341957
 21
-31.0068939776201908
 31
0.0
  0
LINE
  5
12D4C
  8
0
 10
69.9865570231579284
 20
-31.012620033094791
 30
0.0
 11
69.9864560811173533
 21
-30.9920975252405206
 31
0.0
  0
LINE
  5
12D4D
  8
0
 10
69.9390639328746033
 20
-30.9938739623673598
 30
0.0
 11
69.9587181735341943
 21
-31.000681604711481
 31
0.0
  0
LINE
  5
12D4E
  8
0
 10
69.9587181735341943
 20
-31.000681604711481
 30
0.0
 11
69.9682858883842016
 21
-31.0131244806201885
 31
0.0
  0
LINE
  5
12D4F
  8
0
 10
69.9682858883842016
 20
-31.0131244806201885
 30
0.0
 11
69.9587181735865613
 21
-31.019530328772781
 31
0.0
  0
LINE
  5
12D50
  8
0
 10
69.9587181735865613
 20
-31.019530328772781
 30
0.0
 11
69.939033134134192
 21
-31.0128217259201087
 31
0.0
  0
LINE
  5
12D51
  8
0
 10
69.939033134134192
 20
-31.0128217259201087
 30
0.0
 11
69.9291906144716364
 21
-30.9999441791549408
 31
0.0
  0
LINE
  5
12D52
  8
0
 10
69.9291906144716364
 20
-30.9999441791549408
 30
0.0
 11
69.9390639328746033
 21
-30.9938739623673598
 31
0.0
  0
LINE
  5
12D53
  8
0
 10
69.9390639328746033
 20
-30.9938739623673598
 30
0.0
 11
69.939033134134192
 21
-31.0128217259201087
 31
0.0
  0
LINE
  5
12D54
  8
0
 10
69.9587181735865613
 20
-31.019530328772781
 30
0.0
 11
69.9587181735341943
 21
-31.000681604711481
 31
0.0
  0
LINE
  5
12D55
  8
0
 10
69.91119428453419
 20
-30.9986491461201901
 30
0.0
 11
69.9308793239040085
 21
-31.0064931302189102
 31
0.0
  0
LINE
  5
12D56
  8
0
 10
69.9308793239040085
 20
-31.0064931302189102
 30
0.0
 11
69.9407218435394782
 21
-31.0189723364977183
 31
0.0
  0
LINE
  5
12D57
  8
0
 10
69.9407218435394782
 20
-31.0189723364977183
 30
0.0
 11
69.9308793238342048
 21
-31.0237260007213287
 31
0.0
  0
LINE
  5
12D58
  8
0
 10
69.9308793238342048
 20
-31.0237260007213287
 30
0.0
 11
69.9111942845027698
 21
-31.0159853469464295
 31
0.0
  0
LINE
  5
12D59
  8
0
 10
69.9111942845027698
 20
-31.0159853469464295
 30
0.0
 11
69.9013517648837421
 21
-31.0033873558887905
 31
0.0
  0
LINE
  5
12D5A
  8
0
 10
69.9013517648837421
 20
-31.0033873558887905
 30
0.0
 11
69.91119428453419
 21
-30.9986491461201901
 31
0.0
  0
LINE
  5
12D5B
  8
0
 10
69.91119428453419
 20
-30.9986491461201901
 30
0.0
 11
69.9111942845027698
 21
-31.0159853469464295
 31
0.0
  0
LINE
  5
12D5C
  8
0
 10
69.9308793238342048
 20
-31.0237260007213287
 30
0.0
 11
69.9308793239040085
 21
-31.0064931302189102
 31
0.0
  0
LINE
  5
12D5D
  8
0
 10
70.0225496831879894
 20
-31.0329894250788598
 30
0.0
 11
70.0422347225342037
 21
-31.0366761435201894
 31
0.0
  0
LINE
  5
12D5E
  8
0
 10
70.0422347225342037
 20
-31.0366761435201894
 30
0.0
 11
70.0520772421552067
 21
-31.0469400122661483
 31
0.0
  0
LINE
  5
12D5F
  8
0
 10
70.0520772421552067
 20
-31.0469400122661483
 30
0.0
 11
70.0422347224924522
 21
-31.0535389191011184
 31
0.0
  0
LINE
  5
12D60
  8
0
 10
70.0422347224924522
 20
-31.0535389191011184
 30
0.0
 11
70.0225496831342014
 21
-31.0498952108201891
 31
0.0
  0
LINE
  5
12D61
  8
0
 10
70.0225496831342014
 20
-31.0498952108201891
 30
0.0
 11
70.0127071634720721
 21
-31.0396098380008389
 31
0.0
  0
LINE
  5
12D62
  8
0
 10
70.0127071634720721
 20
-31.0396098380008389
 30
0.0
 11
70.0225496831879894
 21
-31.0329894250788598
 31
0.0
  0
LINE
  5
12D63
  8
0
 10
70.0225496831879894
 20
-31.0329894250788598
 30
0.0
 11
70.0225496831342014
 21
-31.0498952108201891
 31
0.0
  0
LINE
  5
12D64
  8
0
 10
70.0422347224924522
 20
-31.0535389191011184
 30
0.0
 11
70.0422347225342037
 21
-31.0366761435201894
 31
0.0
  0
LINE
  5
12D65
  8
0
 10
70.0503885327952958
 20
-31.0227377529244315
 30
0.0
 11
70.0700735722240609
 21
-31.0258718218420491
 31
0.0
  0
LINE
  5
12D66
  8
0
 10
70.0700735722240609
 20
-31.0258718218420491
 30
0.0
 11
70.0799160918450639
 21
-31.0361356905880115
 31
0.0
  0
LINE
  5
12D67
  8
0
 10
70.0799160918450639
 20
-31.0361356905880115
 30
0.0
 11
70.0700735721929675
 21
-31.0439837694455107
 31
0.0
  0
LINE
  5
12D68
  8
0
 10
70.0700735721929675
 20
-31.0439837694455107
 30
0.0
 11
70.0503885327341749
 21
-31.0412484837201816
 31
0.0
  0
LINE
  5
12D69
  8
0
 10
70.0503885327341749
 20
-31.0412484837201816
 30
0.0
 11
70.0405460131041053
 21
-31.0306248989253
 31
0.0
  0
LINE
  5
12D6A
  8
0
 10
70.0405460131041053
 20
-31.0306248989253
 30
0.0
 11
70.0503885327952958
 21
-31.0227377529244315
 31
0.0
  0
LINE
  5
12D6B
  8
0
 10
70.0503885327952958
 20
-31.0227377529244315
 30
0.0
 11
70.0503885327341749
 21
-31.0412484837201816
 31
0.0
  0
LINE
  5
12D6C
  8
0
 10
70.0700735721929675
 20
-31.0439837694455107
 30
0.0
 11
70.0700735722240609
 21
-31.0258718218420491
 31
0.0
  0
LINE
  5
12D6D
  8
0
 10
70.0782273825634263
 20
-31.009842349052871
 30
0.0
 11
70.0979124218341951
 21
-31.01170949556737
 31
0.0
  0
LINE
  5
12D6E
  8
0
 10
70.0979124218341951
 20
-31.01170949556737
 30
0.0
 11
70.1077549415340542
 21
-31.0227209403433406
 31
0.0
  0
LINE
  5
12D6F
  8
0
 10
70.1077549415340542
 20
-31.0227209403433406
 30
0.0
 11
70.0979124218341951
 21
-31.0318439287588994
 31
0.0
  0
LINE
  5
12D70
  8
0
 10
70.0979124218341951
 20
-31.0318439287588994
 30
0.0
 11
70.0782273824341928
 21
-31.0300099930193412
 31
0.0
  0
LINE
  5
12D71
  8
0
 10
70.0782273824341928
 20
-31.0300099930193412
 30
0.0
 11
70.0683848627700314
 21
-31.0190202885909585
 31
0.0
  0
LINE
  5
12D72
  8
0
 10
70.0683848627700314
 20
-31.0190202885909585
 30
0.0
 11
70.0782273825634263
 21
-31.009842349052871
 31
0.0
  0
LINE
  5
12D73
  8
0
 10
70.0782273825634263
 20
-31.009842349052871
 30
0.0
 11
70.0782273824341928
 21
-31.0300099930193412
 31
0.0
  0
LINE
  5
12D74
  8
0
 10
70.0979124218341951
 20
-31.0318439287588994
 30
0.0
 11
70.0979124218341951
 21
-31.01170949556737
 31
0.0
  0
LINE
  5
12D75
  8
0
 10
70.106066232158355
 20
-30.9942381205409809
 30
0.0
 11
70.1257512714341971
 21
-30.9951850007048293
 31
0.0
  0
LINE
  5
12D76
  8
0
 10
70.1257512714341971
 20
-30.9951850007048293
 30
0.0
 11
70.1355937911305602
 21
-31.0066246807870698
 31
0.0
  0
LINE
  5
12D77
  8
0
 10
70.1355937911305602
 20
-31.0066246807870698
 30
0.0
 11
70.1257512714341971
 21
-31.0170681624127411
 31
0.0
  0
LINE
  5
12D78
  8
0
 10
70.1257512714341971
 20
-31.0170681624127411
 30
0.0
 11
70.1060662320341947
 21
-31.0161413886897108
 31
0.0
  0
LINE
  5
12D79
  8
0
 10
70.1060662320341947
 20
-31.0161413886897108
 30
0.0
 11
70.0962237124258536
 21
-31.0047513483034791
 31
0.0
  0
LINE
  5
12D7A
  8
0
 10
70.0962237124258536
 20
-31.0047513483034791
 30
0.0
 11
70.106066232158355
 21
-30.9942381205409809
 31
0.0
  0
LINE
  5
12D7B
  8
0
 10
70.106066232158355
 20
-30.9942381205409809
 30
0.0
 11
70.1060662320341947
 21
-31.0161413886897108
 31
0.0
  0
LINE
  5
12D7C
  8
0
 10
70.1257512714341971
 20
-31.0170681624127411
 30
0.0
 11
70.1257512714341971
 21
-30.9951850007048293
 31
0.0
  0
LINE
  5
12D7D
  8
0
 10
70.1060662320341947
 20
-31.0288780603920884
 30
0.0
 11
70.1257334930887737
 21
-31.0297939124312911
 31
0.0
  0
LINE
  5
12D7E
  8
0
 10
70.1257334930887737
 20
-31.0297939124312911
 30
0.0
 11
70.1355937910775538
 21
-31.0394670931850492
 31
0.0
  0
LINE
  5
12D7F
  8
0
 10
70.1355937910775538
 20
-31.0394670931850492
 30
0.0
 11
70.1257512715526445
 21
-31.0482027277573991
 31
0.0
  0
LINE
  5
12D80
  8
0
 10
70.1257512715526445
 20
-31.0482027277573991
 30
0.0
 11
70.1060662321020232
 21
-31.0472994972232499
 31
0.0
  0
LINE
  5
12D81
  8
0
 10
70.1060662321020232
 20
-31.0472994972232499
 30
0.0
 11
70.0962237123725629
 21
-31.03764761652263
 31
0.0
  0
LINE
  5
12D82
  8
0
 10
70.0962237123725629
 20
-31.03764761652263
 30
0.0
 11
70.1060662320341947
 21
-31.0288780603920884
 31
0.0
  0
LINE
  5
12D83
  8
0
 10
70.1060662320341947
 20
-31.0288780603920884
 30
0.0
 11
70.1060662321020232
 21
-31.0472994972232499
 31
0.0
  0
LINE
  5
12D84
  8
0
 10
70.1257512715526445
 20
-31.0482027277573991
 30
0.0
 11
70.1257334930887737
 21
-31.0297939124312911
 31
0.0
  0
LINE
  5
12D85
  8
0
 10
70.0782273824865456
 20
-31.0416912424960003
 30
0.0
 11
70.0979124218391831
 21
-31.0435083585708185
 31
0.0
  0
LINE
  5
12D86
  8
0
 10
70.0979124218391831
 20
-31.0435083585708185
 30
0.0
 11
70.1077549414625736
 21
-31.0528106648872217
 31
0.0
  0
LINE
  5
12D87
  8
0
 10
70.1077549414625736
 20
-31.0528106648872217
 30
0.0
 11
70.0978464403198132
 21
-31.0602879827488216
 31
0.0
  0
LINE
  5
12D88
  8
0
 10
70.0978464403198132
 20
-31.0602879827488216
 30
0.0
 11
70.0782273824341928
 21
-31.0584964289300807
 31
0.0
  0
LINE
  5
12D89
  8
0
 10
70.0782273824341928
 20
-31.0584964289300807
 30
0.0
 11
70.0683848628031285
 21
-31.0491972041188014
 31
0.0
  0
LINE
  5
12D8A
  8
0
 10
70.0683848628031285
 20
-31.0491972041188014
 30
0.0
 11
70.0782273824865456
 21
-31.0416912424960003
 31
0.0
  0
LINE
  5
12D8B
  8
0
 10
70.0782273824865456
 20
-31.0416912424960003
 30
0.0
 11
70.0782273824341928
 21
-31.0584964289300807
 31
0.0
  0
LINE
  5
12D8C
  8
0
 10
70.0978464403198132
 20
-31.0602879827488216
 30
0.0
 11
70.0979124218391831
 21
-31.0435083585708185
 31
0.0
  0
LINE
  5
12D8D
  8
0
 10
70.0726526045341984
 20
-30.9473879438201891
 30
0.0
 11
70.0782273824330417
 21
-30.9557414594521383
 31
0.0
  0
LINE
  5
12D8E
  8
0
 10
70.0782273824330417
 20
-30.9557414594521383
 30
0.0
 11
70.0979124218387852
 21
-30.9577210946303012
 31
0.0
  0
LINE
  5
12D8F
  8
0
 10
70.0979124218387852
 20
-30.9577210946303012
 30
0.0
 11
70.1073579425083153
 21
-30.9455364602771184
 31
0.0
  0
LINE
  5
12D90
  8
0
 10
70.0979097073303308
 20
-30.945907842787971
 30
0.0
 11
70.0979124217915626
 21
-30.9577210946264003
 31
0.0
  0
LINE
  5
12D91
  8
0
 10
70.0782273824398487
 20
-30.9557414594621783
 30
0.0
 11
70.0782273824398487
 21
-30.9469973089136907
 31
0.0
  0
LINE
  5
12D92
  8
0
 10
69.9923340931587177
 20
-30.9568791604874214
 30
0.0
 11
69.9947108334341834
 21
-30.9605808152808493
 31
0.0
  0
LINE
  5
12D93
  8
0
 10
69.9947108334341834
 20
-30.9605808152808493
 30
0.0
 11
70.0143958728342
 21
-30.965552412961511
 31
0.0
  0
LINE
  5
12D94
  8
0
 10
70.0143958728342
 20
-30.965552412961511
 30
0.0
 11
70.0242383925502736
 21
-30.9550186594543888
 31
0.0
  0
LINE
  5
12D95
  8
0
 10
70.0242383925502736
 20
-30.9550186594543888
 30
0.0
 11
70.0225147936872361
 21
-30.9523463306805802
 31
0.0
  0
LINE
  5
12D96
  8
0
 10
70.0143958728342
 20
-30.9655524129615216
 30
0.0
 11
70.0143958728342
 21
-30.9534416813335618
 31
0.0
  0
LINE
  5
12D97
  8
0
 10
69.9947108334202852
 20
-30.9605808153216984
 30
0.0
 11
69.9947108334202852
 21
-30.9564762541853291
 31
0.0
  0
LINE
  5
12D98
  8
0
 10
69.9609229865342002
 20
-30.9629525202201883
 30
0.0
 11
69.9668719838373363
 21
-30.9720498244114708
 31
0.0
  0
LINE
  5
12D99
  8
0
 10
69.9668719838373363
 20
-30.9720498244114708
 30
0.0
 11
69.9865570232373386
 21
-30.9779759934990899
 31
0.0
  0
LINE
  5
12D9A
  8
0
 10
69.9865570232373386
 20
-30.9779759934990899
 30
0.0
 11
69.9963995428471861
 21
-30.9688360065831993
 31
0.0
  0
LINE
  5
12D9B
  8
0
 10
69.9963995428471861
 20
-30.9688360065831993
 30
0.0
 11
69.9888726024287848
 21
-30.9574801083524918
 31
0.0
  0
LINE
  5
12D9C
  8
0
 10
69.9865570232373386
 20
-30.9779759934991006
 30
0.0
 11
69.9865570232373386
 21
-30.9578915023304901
 31
0.0
  0
LINE
  5
12D9D
  8
0
 10
69.9668719838234239
 20
-30.9720498244523199
 30
0.0
 11
69.9668719838234239
 21
-30.9616946689869685
 31
0.0
  0
LINE
  5
12D9E
  8
0
 10
69.9318872040586541
 20
-30.97017633252797
 30
0.0
 11
69.9390331341481044
 21
-30.9807003820093492
 31
0.0
  0
LINE
  5
12D9F
  8
0
 10
69.9390331341481044
 20
-30.9807003820093492
 30
0.0
 11
69.9587181735070942
 21
-30.9876068416186605
 31
0.0
  0
LINE
  5
12DA0
  8
0
 10
69.9587181735070942
 20
-30.9876068416186605
 30
0.0
 11
69.9685606932460331
 21
-30.9798218521372917
 31
0.0
  0
LINE
  5
12DA1
  8
0
 10
69.9685606932460331
 20
-30.9798218521372917
 30
0.0
 11
69.958718173616532
 21
-30.9650471789323483
 31
0.0
  0
LINE
  5
12DA2
  8
0
 10
69.9587181735070942
 20
-30.9876068416186605
 30
0.0
 11
69.9587181735070942
 21
-30.9650471788868487
 31
0.0
  0
LINE
  5
12DA3
  8
0
 10
69.9587181735070942
 20
-30.9634326618091791
 30
0.0
 11
69.9587181735070942
 21
-30.9634301147654512
 31
0.0
  0
LINE
  5
12DA4
  8
0
 10
69.939033134134192
 20
-30.9807003820501983
 30
0.0
 11
69.9390331338981639
 21
-30.9682088427292896
 31
0.0
  0
LINE
  5
12DA5
  8
0
 10
69.9587181735070942
 20
-30.9650471787680708
 30
0.0
 11
69.9558530598100248
 21
-30.9640679368035308
 31
0.0
  0
LINE
  5
12DA6
  8
0
 10
69.9056597052557009
 20
-30.9784969150566205
 30
0.0
 11
69.9111942845480741
 21
-30.9865333037793391
 31
0.0
  0
LINE
  5
12DA7
  8
0
 10
69.9111942845480741
 20
-30.9865333037793391
 30
0.0
 11
69.9308793238287763
 21
-30.994462046032389
 31
0.0
  0
LINE
  5
12DA8
  8
0
 10
69.9308793238287763
 20
-30.994462046032389
 30
0.0
 11
69.9407218435122502
 21
-30.9880164504454392
 31
0.0
  0
LINE
  5
12DA9
  8
0
 10
69.9407218435122502
 20
-30.9880164504454392
 30
0.0
 11
69.9308793238205908
 21
-30.973601489064329
 31
0.0
  0
LINE
  5
12DAA
  8
0
 10
69.9308793238287763
 20
-30.994462046032389
 30
0.0
 11
69.9308793237111672
 21
-30.97360148901884
 31
0.0
  0
LINE
  5
12DAB
  8
0
 10
69.91119428453419
 20
-30.9865333038201918
 30
0.0
 11
69.9111942842617964
 21
-30.9765943632187408
 31
0.0
  0
LINE
  5
12DAC
  8
0
 10
69.9308793237111672
 20
-30.9736014889000586
 30
0.0
 11
69.9263195002583871
 21
-30.9717969271646005
 31
0.0
  0
LINE
  5
12DAD
  8
0
 10
69.8820830247511822
 20
-30.988001788530859
 30
0.0
 11
69.8833554348497046
 21
-30.9895008635956799
 31
0.0
  0
LINE
  5
12DAE
  8
0
 10
69.8833554348497046
 20
-30.9895008635956799
 30
0.0
 11
69.9030404742342029
 21
-30.9985124788201816
 31
0.0
  0
LINE
  5
12DAF
  8
0
 10
69.9030404742342029
 20
-30.9985124788201816
 30
0.0
 11
69.9128829939153036
 21
-30.9934129630361106
 31
0.0
  0
LINE
  5
12DB0
  8
0
 10
69.9128829939153036
 20
-30.9934129630361106
 30
0.0
 11
69.9031043772091323
 21
-30.9794024054025705
 31
0.0
  0
LINE
  5
12DB1
  8
0
 10
69.9030404742341887
 20
-30.9985124788201887
 30
0.0
 11
69.9031043770997087
 21
-30.9794024053570816
 31
0.0
  0
LINE
  5
12DB2
  8
0
 10
69.8833554348358064
 20
-30.9895008636365183
 30
0.0
 11
69.8833554347933728
 21
-30.9874073876636302
 31
0.0
  0
LINE
  5
12DB3
  8
0
 10
69.8499287423985038
 20
-31.0069420730413405
 30
0.0
 11
69.8555165852341844
 21
-31.0136044250756484
 31
0.0
  0
LINE
  5
12DB4
  8
0
 10
69.8555165852341844
 20
-31.0136044250756484
 30
0.0
 11
69.8752016246778993
 21
-31.0236414941790883
 31
0.0
  0
LINE
  5
12DB5
  8
0
 10
69.8752016246778993
 20
-31.0236414941790883
 30
0.0
 11
69.8850441442161667
 21
-31.0216100158796912
 31
0.0
  0
LINE
  5
12DB6
  8
0
 10
69.8850441442161667
 20
-31.0216100158796912
 30
0.0
 11
69.8752016245971532
 21
-31.0096514818396116
 31
0.0
  0
LINE
  5
12DB7
  8
0
 10
69.8752016245971532
 20
-31.0096514818396116
 30
0.0
 11
69.8583247267815608
 21
-31.0010491173052216
 31
0.0
  0
LINE
  5
12DB8
  8
0
 10
69.8554532429845096
 20
-31.002875439060201
 30
0.0
 11
69.8555165852341844
 21
-31.0136044252201906
 31
0.0
  0
LINE
  5
12DB9
  8
0
 10
69.8752016241489855
 20
-31.0096514816111686
 30
0.0
 11
69.8752016241489855
 21
-31.0236414939215592
 31
0.0
  0
LINE
  5
12DBA
  8
0
 10
69.9291906145275846
 20
-31.0281084879352314
 30
0.0
 11
69.9390331341255802
 21
-31.0237041079909694
 31
0.0
  0
LINE
  5
12DBB
  8
0
 10
69.9390331341255802
 20
-31.0237041079909694
 30
0.0
 11
69.9587181734958108
 21
-31.0303588487907298
 31
0.0
  0
LINE
  5
12DBC
  8
0
 10
69.9587181734958108
 20
-31.0303588487907298
 30
0.0
 11
69.9685606932815602
 21
-31.0413561567105916
 31
0.0
  0
LINE
  5
12DBD
  8
0
 10
69.9685606932815602
 20
-31.0413561567105916
 30
0.0
 11
69.929190614527613
 21
-31.0281084879352314
 31
0.0
  0
LINE
  5
12DBE
  8
0
 10
69.9848683137593355
 20
-31.0459807200299487
 30
0.0
 11
69.9947108335063461
 21
-31.0406218122004915
 31
0.0
  0
LINE
  5
12DBF
  8
0
 10
69.9947108335063461
 20
-31.0406218122004915
 30
0.0
 11
70.0143958728820195
 21
-31.0452345613895808
 31
0.0
  0
LINE
  5
12DC0
  8
0
 10
70.0143958728820195
 20
-31.0452345613895808
 30
0.0
 11
70.0237537741341924
 21
-31.0552858202745909
 31
0.0
  0
LINE
  5
12DC1
  8
0
 10
70.0237537741341924
 20
-31.0552858202745909
 30
0.0
 11
69.9848683137593639
 21
-31.0459807200299487
 31
0.0
  0
LINE
  5
12DC2
  8
0
 10
70.0405460131341897
 20
-31.058175179520191
 30
0.0
 11
70.0504101213845445
 21
-31.0519150070945003
 31
0.0
  0
LINE
  5
12DC3
  8
0
 10
70.0504101213845445
 20
-31.0519150070945003
 30
0.0
 11
70.070073572127086
 21
-31.0546270572537395
 31
0.0
  0
LINE
  5
12DC4
  8
0
 10
70.070073572127086
 20
-31.0546270572537395
 30
0.0
 11
70.0799160918105457
 21
-31.0635828309690787
 31
0.0
  0
LINE
  5
12DC5
  8
0
 10
70.0799160918105457
 20
-31.0635828309690787
 30
0.0
 11
70.0405460131342039
 21
-31.058175179520191
 31
0.0
  0
LINE
  5
12DC6
  8
0
 10
70.0962237124341812
 20
-31.0650668149201898
 30
0.0
 11
70.1060662320344932
 21
-31.0579189269538105
 31
0.0
  0
LINE
  5
12DC7
  8
0
 10
70.1060662320344932
 20
-31.0579189269538105
 30
0.0
 11
70.1257512714929732
 21
-31.0588157077199796
 31
0.0
  0
LINE
  5
12DC8
  8
0
 10
70.1257512714929732
 20
-31.0588157077199796
 30
0.0
 11
70.1355937911798151
 21
-31.0668528653305387
 31
0.0
  0
LINE
  5
12DC9
  8
0
 10
70.1355937911798151
 20
-31.0668528653305387
 30
0.0
 11
70.0962237124341954
 21
-31.0650668149201898
 31
0.0
  0
LINE
  5
12DCA
  8
0
 10
69.873512915152503
 20
-31.0039414241904616
 30
0.0
 11
69.8833554348341863
 21
-31.0005817988201891
 31
0.0
  0
LINE
  5
12DCB
  8
0
 10
69.8833554348341863
 20
-31.0005817988201891
 30
0.0
 11
69.9030404742336771
 21
-31.0095145197708817
 31
0.0
  0
LINE
  5
12DCC
  8
0
 10
69.9030404742336771
 20
-31.0095145197708817
 30
0.0
 11
69.912882993934204
 21
-31.0217174113201892
 31
0.0
  0
LINE
  5
12DCD
  8
0
 10
69.912882993934204
 20
-31.0217174113201892
 30
0.0
 11
69.899970820634195
 21
-31.0166464206201908
 31
0.0
  0
LINE
  5
12DCE
  8
0
 10
69.899970820634195
 20
-31.0166464206201908
 30
0.0
 11
69.8950619956341939
 21
-31.0216550820201888
 31
0.0
  0
LINE
  5
12DCF
  8
0
 10
69.8950619956341939
 20
-31.0216550820201888
 30
0.0
 11
69.8833554347979771
 21
-31.0162946648926798
 31
0.0
  0
LINE
  5
12DD0
  8
0
 10
69.8833554347979771
 20
-31.0162946648926798
 30
0.0
 11
69.8735129151525172
 21
-31.0039414241904616
 31
0.0
  0
LINE
  5
12DD1
  8
0
 10
69.8833554334794229
 20
-31.0005817992826103
 30
0.0
 11
69.8833554334794229
 21
-31.0162946641934987
 31
0.0
  0
LINE
  5
12DD2
  8
0
 10
70.0962237124341954
 20
-31.1166829066201913
 30
0.0
 11
70.0967083307772896
 21
-31.1165747484201916
 31
0.0
  0
ARC
  5
12DD3
  8
0
 10
70.1437483804341468
 20
-30.5036313384212612
 30
0.0
 40
0.6147457930989239
 50
265.61146498839679
 51
269.1947786681243997
  0
LINE
  5
12DD4
  8
0
 10
70.135109172817593
 20
-31.118316423830521
 30
0.0
 11
70.1355937911341982
 21
-31.1184689570201911
 31
0.0
  0
LINE
  5
12DD5
  8
0
 10
70.1355937911341982
 20
-31.1184689570201911
 30
0.0
 11
70.1257512714929732
 21
-31.1209678900199798
 31
0.0
  0
LINE
  5
12DD6
  8
0
 10
70.1257512714929732
 20
-31.1209678900199798
 30
0.0
 11
70.1060662320341947
 21
-31.1200711092201914
 31
0.0
  0
LINE
  5
12DD7
  8
0
 10
70.1060662320341947
 20
-31.1200711092201914
 30
0.0
 11
70.0962237123816863
 21
-31.1166829066984398
 31
0.0
  0
LINE
  5
12DD8
  8
0
 10
70.1060662320693382
 20
-31.1200711093187188
 30
0.0
 11
70.1060662320693382
 21
-31.1172211409990389
 31
0.0
  0
LINE
  5
12DD9
  8
0
 10
70.1257512714341971
 20
-31.120967890017301
 30
0.0
 11
70.1257512714341971
 21
-31.1181136361324917
 31
0.0
  0
LINE
  5
12DDA
  8
0
 10
70.0405460131187141
 20
-31.109791271186289
 30
0.0
 11
70.0410306316085354
 21
-31.1097295980979993
 31
0.0
  0
ARC
  5
12DDB
  8
0
 10
70.1457363600546842
 20
-30.4897022900207801
 30
0.0
 40
0.6288061325487529
 50
260.4147378281281817
 51
263.9471556447260809
  0
LINE
  5
12DDC
  8
0
 10
70.0794314734341981
 20
-31.1150028692201914
 30
0.0
 11
70.0799160918310236
 21
-31.1151989227188999
 31
0.0
  0
LINE
  5
12DDD
  8
0
 10
70.0799160918310236
 20
-31.1151989227188999
 30
0.0
 11
70.0700735721341914
 21
-31.1167792396843197
 31
0.0
  0
LINE
  5
12DDE
  8
0
 10
70.0700735721341914
 20
-31.1167792396843197
 30
0.0
 11
70.050388532722323
 21
-31.1140638525974609
 31
0.0
  0
LINE
  5
12DDF
  8
0
 10
70.0503885327574665
 20
-31.1140638526959989
 30
0.0
 11
70.040546013066205
 21
-31.109791271264541
 31
0.0
  0
LINE
  5
12DE0
  8
0
 10
70.0503885327574665
 20
-31.1140638526959989
 30
0.0
 11
70.0503885327341749
 21
-31.11124078762019
 31
0.0
  0
LINE
  5
12DE1
  8
0
 10
70.0700735720754153
 20
-31.1167792396816409
 30
0.0
 11
70.0700735720754153
 21
-31.1139249857968316
 31
0.0
  0
LINE
  5
12DE2
  8
0
 10
69.8456740655106643
 20
-31.021567267443551
 30
0.0
 11
69.8555165851907134
 21
-31.0213841752132815
 31
0.0
  0
LINE
  5
12DE3
  8
0
 10
69.8555165851907134
 20
-31.0213841752132815
 30
0.0
 11
69.8752016245341991
 21
-31.0313989508581614
 31
0.0
  0
LINE
  5
12DE4
  8
0
 10
69.8752016245341991
 20
-31.0313989508581614
 30
0.0
 11
69.8850441442596519
 21
-31.0415998958665114
 31
0.0
  0
LINE
  5
12DE5
  8
0
 10
69.8850441442596519
 20
-31.0415998958665114
 30
0.0
 11
69.8752016245341991
 21
-31.0419350415201905
 31
0.0
  0
LINE
  5
12DE6
  8
0
 10
69.8752016245341991
 20
-31.0419350415201905
 30
0.0
 11
69.8555165852341844
 21
-31.0319202659216913
 31
0.0
  0
LINE
  5
12DE7
  8
0
 10
69.8555165852341844
 20
-31.0319202659216913
 30
0.0
 11
69.8456740655106643
 21
-31.021567267443551
 31
0.0
  0
LINE
  5
12DE8
  8
0
 10
69.8555165851907134
 20
-31.0213841752132709
 30
0.0
 11
69.8555165851907134
 21
-31.0319202658132696
 31
0.0
  0
LINE
  5
12DE9
  8
0
 10
69.87520162584471
 20
-31.0313989495936795
 30
0.0
 11
69.87520162584471
 21
-31.0419350420948597
 31
0.0
  0
ARC
  5
12DEA
  8
0
 10
69.870415402304161
 20
-30.9152574095532415
 30
0.0
 40
0.123126386987943
 50
258.4079146266830094
 51
263.0499352843482939
  0
LINE
  5
12DEB
  8
0
 10
69.8555165851576874
 20
-31.0374790623826016
 30
0.0
 11
69.875201624558855
 21
-31.0475161314841408
 31
0.0
  0
ARC
  5
12DEC
  8
0
 10
70.0813101340337994
 20
-30.818931313320661
 30
0.0
 40
0.3077852120993902
 50
227.9599069713607093
 51
230.3815606204152004
  0
LINE
  5
12DED
  8
0
 10
69.88504414419927
 20
-31.0560207437500502
 30
0.0
 11
69.8752016245448431
 21
-31.0545983002689283
 31
0.0
  0
LINE
  5
12DEE
  8
0
 10
69.8752016245448431
 20
-31.0545983002689283
 30
0.0
 11
69.8555165851704913
 21
-31.0444898023608609
 31
0.0
  0
LINE
  5
12DEF
  8
0
 10
69.8555165851704913
 20
-31.0444898023608609
 30
0.0
 11
69.8456740655386312
 21
-31.0358723896666397
 31
0.0
  0
LINE
  5
12DF0
  8
0
 10
69.8555165850478375
 20
-31.0374790623265895
 30
0.0
 11
69.8555165850478375
 21
-31.0444898023311886
 31
0.0
  0
LINE
  5
12DF1
  8
0
 10
69.875201624558855
 20
-31.0475161314841408
 30
0.0
 11
69.875201624558855
 21
-31.0545983002758099
 31
0.0
  0
LINE
  5
12DF2
  8
0
 10
70.1339050817852012
 20
-31.1202155967335514
 30
0.0
 11
70.1535901210759221
 21
-31.1202155968214917
 31
0.0
  0
LINE
  5
12DF3
  8
0
 10
70.1535901210759221
 20
-31.1202155968214917
 30
0.0
 11
70.1634326406835953
 21
-31.1223775320066416
 31
0.0
  0
LINE
  5
12DF4
  8
0
 10
70.1634326406835953
 20
-31.1223775320066416
 30
0.0
 11
70.1535901211341866
 21
-31.1245218659411087
 31
0.0
  0
LINE
  5
12DF5
  8
0
 10
70.1535901211341866
 20
-31.1245218659411087
 30
0.0
 11
70.1339050817494609
 21
-31.1245218659413609
 31
0.0
  0
LINE
  5
12DF6
  8
0
 10
70.1339050817494609
 20
-31.1245218659413609
 30
0.0
 11
70.1240625620381195
 21
-31.1223775320123011
 31
0.0
  0
LINE
  5
12DF7
  8
0
 10
70.1240625620381195
 20
-31.1223775320123011
 30
0.0
 11
70.1339050817852012
 21
-31.1202155967335514
 31
0.0
  0
LINE
  5
12DF8
  8
0
 10
70.1339050817852012
 20
-31.1202155967335514
 30
0.0
 11
70.1339050813490701
 21
-31.1245218659413609
 31
0.0
  0
LINE
  5
12DF9
  8
0
 10
70.153590115661089
 20
-31.1202155968214917
 30
0.0
 11
70.153590115661089
 21
-31.1245218660300011
 31
0.0
  0
LINE
  5
12DFA
  8
0
 10
70.1339050817073257
 20
-31.1262112122858703
 30
0.0
 11
70.1535901211192936
 21
-31.1262112122865595
 31
0.0
  0
LINE
  5
12DFB
  8
0
 10
70.1535901211192936
 20
-31.1262112122865595
 30
0.0
 11
70.1634326408028244
 21
-31.1267163742297086
 31
0.0
  0
LINE
  5
12DFC
  8
0
 10
70.1634326408028244
 20
-31.1267163742297086
 30
0.0
 11
70.1535901211341866
 21
-31.1271790233201884
 31
0.0
  0
LINE
  5
12DFD
  8
0
 10
70.1535901211341866
 20
-31.1271790233201884
 30
0.0
 11
70.1339050817341985
 21
-31.1271790233201884
 31
0.0
  0
LINE
  5
12DFE
  8
0
 10
70.1339050817341985
 20
-31.1271790233201884
 30
0.0
 11
70.1240625620069835
 21
-31.1267163743254294
 31
0.0
  0
LINE
  5
12DFF
  8
0
 10
70.1240625620069835
 20
-31.1267163743254294
 30
0.0
 11
70.1339050817071552
 21
-31.1262112122858703
 31
0.0
  0
LINE
  5
12E00
  8
0
 10
70.1355937911056486
 20
-31.1254939126979799
 30
0.0
 11
70.1257512714938969
 21
-31.1236934567991312
 31
0.0
  0
LINE
  5
12E01
  8
0
 10
70.1257512714938969
 20
-31.1236934567991312
 30
0.0
 11
70.1060662321228705
 21
-31.1227902261210012
 31
0.0
  0
LINE
  5
12E02
  8
0
 10
70.1060662321228705
 20
-31.1227902261210012
 30
0.0
 11
70.0962237126302057
 21
-31.1236744360970512
 31
0.0
  0
LINE
  5
12E03
  8
0
 10
70.0962237126302057
 20
-31.1236744360970512
 30
0.0
 11
70.1060662320769268
 21
-31.1254409704680093
 31
0.0
  0
LINE
  5
12E04
  8
0
 10
70.1060662320769268
 20
-31.1254409704680093
 30
0.0
 11
70.1257512714341971
 21
-31.1263573573547809
 31
0.0
  0
LINE
  5
12E05
  8
0
 10
70.1257512714341971
 20
-31.1263573573547809
 30
0.0
 11
70.1355937911056486
 21
-31.1254939126979799
 31
0.0
  0
LINE
  5
12E06
  8
0
 10
70.1077549415360011
 20
-31.1216321205208111
 30
0.0
 11
70.0979124218341951
 21
-31.1185783004287302
 31
0.0
  0
LINE
  5
12E07
  8
0
 10
70.0979124218341951
 20
-31.1185783004287302
 30
0.0
 11
70.0782273824647319
 21
-31.11678179395998
 31
0.0
  0
LINE
  5
12E08
  8
0
 10
70.0782273824647319
 20
-31.11678179395998
 30
0.0
 11
70.0683848628656563
 21
-31.1180186597227184
 31
0.0
  0
LINE
  5
12E09
  8
0
 10
70.0683848628656563
 20
-31.1180186597227184
 30
0.0
 11
70.0782273824060837
 21
-31.1210487887026517
 31
0.0
  0
LINE
  5
12E0A
  8
0
 10
70.0782273824060837
 20
-31.1210487887026517
 30
0.0
 11
70.0979124218198564
 21
-31.1228659048713396
 31
0.0
  0
LINE
  5
12E0B
  8
0
 10
70.0979124218198564
 20
-31.1228659048713396
 30
0.0
 11
70.1077549415501267
 21
-31.1216321205185587
 31
0.0
  0
LINE
  5
12E0C
  8
0
 10
70.1077549414638668
 20
-31.1259531237054503
 30
0.0
 11
70.0979124217718095
 21
-31.1254777695320399
 31
0.0
  0
LINE
  5
12E0D
  8
0
 10
70.0979124217718095
 20
-31.1254777695320399
 30
0.0
 11
70.0782273824015931
 21
-31.1236106230347715
 31
0.0
  0
LINE
  5
12E0E
  8
0
 10
70.0782273824015931
 20
-31.1236106230347715
 30
0.0
 11
70.0683848627654697
 21
-31.1222524719578288
 31
0.0
  0
LINE
  5
12E0F
  8
0
 10
70.0683848627654697
 20
-31.1222524719578288
 30
0.0
 11
70.0782273824061122
 21
-31.1227060858518492
 31
0.0
  0
LINE
  5
12E10
  8
0
 10
70.0782273824061122
 20
-31.1227060858518492
 30
0.0
 11
70.0979124218341951
 21
-31.1245400215589001
 31
0.0
  0
LINE
  5
12E11
  8
0
 10
70.0979124218341951
 20
-31.1245400215589001
 30
0.0
 11
70.1077549415248882
 21
-31.1259531237600591
 31
0.0
  0
LINE
  5
12E12
  8
0
 10
70.0799160918269308
 20
-31.1221625101638502
 30
0.0
 11
70.0700735721341914
 21
-31.1194744983211784
 31
0.0
  0
LINE
  5
12E13
  8
0
 10
70.0700735721341914
 20
-31.1194744983211784
 30
0.0
 11
70.0503885327341749
 21
-31.1167392127201907
 31
0.0
  0
LINE
  5
12E14
  8
0
 10
70.0503885327341749
 20
-31.1167392127201907
 30
0.0
 11
70.040546013219199
 21
-31.1166517184908713
 31
0.0
  0
LINE
  5
12E15
  8
0
 10
70.040546013219199
 20
-31.1166517184908713
 30
0.0
 11
70.0503885327341749
 21
-31.1193006629913214
 31
0.0
  0
LINE
  5
12E16
  8
0
 10
70.0503885327341749
 20
-31.1193006629913214
 30
0.0
 11
70.0700735721186163
 21
-31.1220765640852406
 31
0.0
  0
LINE
  5
12E17
  8
0
 10
70.0700735721186163
 20
-31.1220765640852406
 30
0.0
 11
70.0799160904297764
 21
-31.1221625097822887
 31
0.0
  0
LINE
  5
12E18
  8
0
 10
69.8735129152102132
 20
-31.0555575159574495
 30
0.0
 11
69.8833554348985615
 21
-31.0573746660055185
 31
0.0
  0
LINE
  5
12E19
  8
0
 10
69.8833554348985615
 20
-31.0573746660055185
 30
0.0
 11
69.8950619956341939
 21
-31.0627350831201916
 31
0.0
  0
LINE
  5
12E1A
  8
0
 10
69.8950619956341939
 20
-31.0627350831201916
 30
0.0
 11
69.899970820634195
 21
-31.0677437445201896
 31
0.0
  0
LINE
  5
12E1B
  8
0
 10
69.899970820634195
 20
-31.0677437445201896
 30
0.0
 11
69.9030404742341887
 21
-31.0690725826102891
 31
0.0
  0
LINE
  5
12E1C
  8
0
 10
69.9030404742341887
 20
-31.0690725826102891
 30
0.0
 11
69.9128829939565151
 21
-31.0733335029891897
 31
0.0
  0
LINE
  5
12E1D
  8
0
 10
69.9128829939565151
 20
-31.0733335029891897
 30
0.0
 11
69.9030404742341887
 21
-31.0716667021266488
 31
0.0
  0
LINE
  5
12E1E
  8
0
 10
69.9030404742341887
 20
-31.0716667021266488
 30
0.0
 11
69.8833554348509267
 21
-31.0627339811230989
 31
0.0
  0
LINE
  5
12E1F
  8
0
 10
69.8833554348509267
 20
-31.0627339811230989
 30
0.0
 11
69.8735129151707497
 21
-31.0555575159485393
 31
0.0
  0
LINE
  5
12E20
  8
0
 10
69.8735129151614274
 20
-31.0612542386367885
 30
0.0
 11
69.8833554348341863
 21
-31.0649915924358098
 31
0.0
  0
LINE
  5
12E21
  8
0
 10
69.8833554348341863
 20
-31.0649915924358098
 30
0.0
 11
69.9030404742341887
 21
-31.0740032078361992
 31
0.0
  0
LINE
  5
12E22
  8
0
 10
69.9030404742341887
 20
-31.0740032078361992
 30
0.0
 11
69.9128829939197516
 21
-31.0794397825640907
 31
0.0
  0
LINE
  5
12E23
  8
0
 10
69.9128829939197516
 20
-31.0794397825640907
 30
0.0
 11
69.9030404741957341
 21
-31.0758708722372603
 31
0.0
  0
LINE
  5
12E24
  8
0
 10
69.9030404741957341
 20
-31.0758708722372603
 30
0.0
 11
69.8833554348863544
 21
-31.066697117060631
 31
0.0
  0
LINE
  5
12E25
  8
0
 10
69.8833554348863544
 20
-31.066697117060631
 30
0.0
 11
69.8735129151614274
 21
-31.0612542386367885
 31
0.0
  0
LINE
  5
12E26
  8
0
 10
69.9013517649650851
 20
-31.0722088116047992
 30
0.0
 11
69.91119428453419
 21
-31.0742707119071291
 31
0.0
  0
LINE
  5
12E27
  8
0
 10
69.91119428453419
 20
-31.0742707119071291
 30
0.0
 11
69.9308793239110003
 21
-31.0820113656934005
 31
0.0
  0
LINE
  5
12E28
  8
0
 10
69.9308793239110003
 20
-31.0820113656934005
 30
0.0
 11
69.9407218435409845
 21
-31.0877937921198786
 31
0.0
  0
LINE
  5
12E29
  8
0
 10
69.9407218435409845
 20
-31.0877937921198786
 30
0.0
 11
69.9310480708618911
 21
-31.0858906463259288
 31
0.0
  0
LINE
  5
12E2A
  8
0
 10
69.9310480708618911
 20
-31.0858906463259288
 30
0.0
 11
69.91119428453419
 21
-31.0780066922835516
 31
0.0
  0
LINE
  5
12E2B
  8
0
 10
69.91119428453419
 20
-31.0780066922835516
 30
0.0
 11
69.9013517648115936
 21
-31.0722088115663517
 31
0.0
  0
LINE
  5
12E2C
  8
0
 10
69.9291906144597135
 20
-31.0797245796997714
 30
0.0
 11
69.939033134134192
 21
-31.0831822793536787
 31
0.0
  0
LINE
  5
12E2D
  8
0
 10
69.939033134134192
 20
-31.0831822793536787
 30
0.0
 11
69.9587181735341943
 21
-31.0897985108201915
 31
0.0
  0
LINE
  5
12E2E
  8
0
 10
69.9587181735341943
 20
-31.0897985108201915
 30
0.0
 11
69.968560693242992
 21
-31.0929722484674791
 31
0.0
  0
LINE
  5
12E2F
  8
0
 10
69.968560693242992
 20
-31.0929722484674791
 30
0.0
 11
69.9587181734958108
 21
-31.09251103109073
 31
0.0
  0
LINE
  5
12E30
  8
0
 10
69.9587181734958108
 20
-31.09251103109073
 30
0.0
 11
69.9390331341529787
 21
-31.0858562903147018
 31
0.0
  0
LINE
  5
12E31
  8
0
 10
69.9390331341529787
 20
-31.0858562903147018
 30
0.0
 11
69.9291906145147095
 21
-31.0797245797190911
 31
0.0
  0
LINE
  5
12E32
  8
0
 10
69.9291906146198414
 20
-31.0859709986400183
 30
0.0
 11
69.939033134134192
 21
-31.0883124549201888
 31
0.0
  0
LINE
  5
12E33
  8
0
 10
69.939033134134192
 20
-31.0883124549201888
 30
0.0
 11
69.9587181735865613
 21
-31.0950210576727812
 31
0.0
  0
LINE
  5
12E34
  8
0
 10
69.9587181735865613
 20
-31.0950210576727812
 30
0.0
 11
69.9685606931186612
 21
-31.0994980579482601
 31
0.0
  0
LINE
  5
12E35
  8
0
 10
69.9685606931186612
 20
-31.0994980579482601
 30
0.0
 11
69.9587181735341943
 21
-31.0972445148201899
 31
0.0
  0
LINE
  5
12E36
  8
0
 10
69.9587181735341943
 20
-31.0972445148201899
 30
0.0
 11
69.9390331342113143
 21
-31.0904255902856583
 31
0.0
  0
LINE
  5
12E37
  8
0
 10
69.9390331342113143
 20
-31.0904255902856583
 30
0.0
 11
69.9291906144899116
 21
-31.0859709985765704
 31
0.0
  0
LINE
  5
12E38
  8
0
 10
69.9570294641784471
 20
-31.0933275369056012
 30
0.0
 11
69.9668719838598037
 21
-31.0941596136802509
 31
0.0
  0
LINE
  5
12E39
  8
0
 10
69.9668719838598037
 20
-31.0941596136802509
 30
0.0
 11
69.986557023173674
 21
-31.0997593997577617
 31
0.0
  0
LINE
  5
12E3A
  8
0
 10
69.986557023173674
 20
-31.0997593997577617
 30
0.0
 11
69.9963995428790895
 21
-31.1045963976451603
 31
0.0
  0
LINE
  5
12E3B
  8
0
 10
69.9963995428790895
 20
-31.1045963976451603
 30
0.0
 11
69.986557023234198
 21
-31.1038241042459411
 31
0.0
  0
LINE
  5
12E3C
  8
0
 10
69.986557023234198
 20
-31.1038241042459411
 30
0.0
 11
69.9668719838341957
 21
-31.0981548691201901
 31
0.0
  0
LINE
  5
12E3D
  8
0
 10
69.9668719838341957
 20
-31.0981548691201901
 30
0.0
 11
69.9570294641784756
 21
-31.0933275369056084
 31
0.0
  0
LINE
  5
12E3E
  8
0
 10
69.9848683137728358
 20
-31.0975968117190718
 30
0.0
 11
69.9947108334341834
 21
-31.1000075572201915
 31
0.0
  0
LINE
  5
12E3F
  8
0
 10
69.9947108334341834
 20
-31.1000075572201915
 30
0.0
 11
70.0143958728342
 21
-31.1045994641850889
 31
0.0
  0
LINE
  5
12E40
  8
0
 10
70.0143958728342
 20
-31.1045994641850889
 30
0.0
 11
70.0242383925699983
 21
-31.1067816772979207
 31
0.0
  0
LINE
  5
12E41
  8
0
 10
70.0242383925699983
 20
-31.1067816772979207
 30
0.0
 11
70.0143958728825169
 21
-31.1073867437270515
 31
0.0
  0
LINE
  5
12E42
  8
0
 10
70.0143958728825169
 20
-31.1073867437270515
 30
0.0
 11
69.9947108334341834
 21
-31.1027739945424599
 31
0.0
  0
LINE
  5
12E43
  8
0
 10
69.9947108334341834
 20
-31.1027739945424599
 30
0.0
 11
69.9848683138202716
 21
-31.0975968117463495
 31
0.0
  0
LINE
  5
12E44
  8
0
 10
69.9848683137398666
 20
-31.1042167940174608
 30
0.0
 11
69.9947108334666126
 21
-31.1053644296459417
 31
0.0
  0
LINE
  5
12E45
  8
0
 10
69.9947108334666126
 20
-31.1053644296459417
 30
0.0
 11
70.0143958728428117
 21
-31.1100123111480684
 31
0.0
  0
LINE
  5
12E46
  8
0
 10
70.0143958728428117
 20
-31.1100123111480684
 30
0.0
 11
70.0242383922675344
 21
-31.1135838087820709
 31
0.0
  0
LINE
  5
12E47
  8
0
 10
70.0242383922675344
 20
-31.1135838087820709
 30
0.0
 11
70.0143958728342
 21
-31.1124720712201892
 31
0.0
  0
LINE
  5
12E48
  8
0
 10
70.0143958728342
 20
-31.1124720712201892
 30
0.0
 11
69.9947108334287122
 21
-31.1077523874164896
 31
0.0
  0
LINE
  5
12E49
  8
0
 10
69.9947108334287122
 20
-31.1077523874164896
 30
0.0
 11
69.9848683137398666
 21
-31.1042167940174608
 31
0.0
  0
LINE
  5
12E4A
  8
0
 10
70.0127071634379661
 20
-31.1084312936303391
 30
0.0
 11
70.0225496830840513
 21
-31.1081805758728009
 31
0.0
  0
LINE
  5
12E4B
  8
0
 10
70.0225496830840513
 20
-31.1081805758728009
 30
0.0
 11
70.0422347224600657
 21
-31.1118242840291508
 31
0.0
  0
LINE
  5
12E4C
  8
0
 10
70.0422347224600657
 20
-31.1118242840291508
 30
0.0
 11
70.0520772421347431
 21
-31.1157614679223187
 31
0.0
  0
LINE
  5
12E4D
  8
0
 10
70.0520772421347431
 20
-31.1157614679223187
 30
0.0
 11
70.0422347225342037
 21
-31.1160336898461409
 31
0.0
  0
LINE
  5
12E4E
  8
0
 10
70.0422347225342037
 20
-31.1160336898461409
 30
0.0
 11
70.0225496831342014
 21
-31.1123469712713394
 31
0.0
  0
LINE
  5
12E4F
  8
0
 10
70.0225496831342014
 20
-31.1123469712713394
 30
0.0
 11
70.0127071633943814
 21
-31.1084312936115488
 31
0.0
  0
LINE
  5
12E50
  8
0
 10
69.8735129151723839
 20
-31.0268015214241402
 30
0.0
 11
69.8833554348341863
 21
-31.0251325060201886
 31
0.0
  0
LINE
  5
12E51
  8
0
 10
69.8833554348341863
 20
-31.0251325060201886
 30
0.0
 11
69.8869507616364558
 21
-31.0268039543083596
 31
0.0
  0
LINE
  5
12E52
  8
0
 10
69.8869507616364558
 20
-31.0268039543083596
 30
0.0
 11
69.8874561772577607
 21
-31.0245488084094703
 31
0.0
  0
ARC
  5
12E53
  8
0
 10
70.1432811702167953
 20
-30.4669138136986888
 30
0.0
 40
0.6135170856207478
 50
245.355865841734186
 51
270.0440816654460718
  0
LINE
  5
12E54
  8
0
 10
69.9789264526716437
 20
-31.0580066500359493
 30
0.0
 11
69.9596255756341918
 21
-31.0580066500359493
 31
0.0
  0
LINE
  5
12E55
  8
0
 10
69.9596255756341918
 20
-31.0580066500359493
 30
0.0
 11
69.9596255756341918
 21
-31.0522973093039987
 31
0.0
  0
LINE
  5
12E56
  8
0
 10
69.9668719838341957
 20
-31.0580109209201893
 30
0.0
 11
69.9668719838341957
 21
-31.0545216874618006
 31
0.0
  0
LINE
  5
12E57
  8
0
 10
69.9381257321341963
 20
-31.0580109209201893
 30
0.0
 11
69.9381257321341963
 21
-31.0451131396873201
 31
0.0
  0
LINE
  5
12E58
  8
0
 10
69.9381257321341963
 20
-31.0580109209201893
 30
0.0
 11
69.9039478762341986
 21
-31.0580109209201893
 31
0.0
  0
LINE
  5
12E59
  8
0
 10
69.9039478762341986
 20
-31.0580109209201893
 30
0.0
 11
69.9039478762341986
 21
-31.0465263345201912
 31
0.0
  0
LINE
  5
12E5A
  8
0
 10
69.9152813118536045
 20
-31.0365118063640608
 30
0.0
 11
69.9111942845013203
 21
-31.0386793164999908
 31
0.0
  0
LINE
  5
12E5B
  8
0
 10
69.9111942845013203
 20
-31.0386793164999908
 30
0.0
 11
69.9039478762341986
 21
-31.0465263345201912
 31
0.0
  0
LINE
  5
12E5C
  8
0
 10
69.9039478762341986
 20
-31.0465263345201912
 30
0.0
 11
69.8874561771072536
 21
-31.0561804850078182
 31
0.0
  0
ARC
  5
12E5D
  8
0
 10
70.1432805929498358
 20
-30.4985481421514315
 30
0.0
 40
0.6135144346636815
 50
245.3558115616258135
 51
270.0441357665832243
  0
LINE
  5
12E5E
  8
0
 10
69.91119428453419
 20
-31.0580109209201893
 30
0.0
 11
69.9111342585729147
 21
-31.0387111505928495
 31
0.0
  0
LINE
  5
12E5F
  8
0
 10
69.9308793238342048
 20
-31.0580109209201893
 30
0.0
 11
69.9308793238342048
 21
-31.0424906287302207
 31
0.0
  0
LINE
  5
12E60
  8
0
 10
69.9121484035516687
 20
-31.0352278629023814
 30
0.0
 11
69.9030404741975673
 21
-31.0450896585050913
 31
0.0
  0
LINE
  5
12E61
  8
0
 10
69.9030404741975673
 20
-31.0450896585050913
 30
0.0
 11
69.8869507615100787
 21
-31.0545454087480799
 31
0.0
  0
LINE
  5
12E62
  8
0
 10
69.8869507615100787
 20
-31.0545454087480799
 30
0.0
 11
69.8833554348128416
 21
-31.0528739604953685
 31
0.0
  0
LINE
  5
12E63
  8
0
 10
69.8833554348128416
 20
-31.0528739604953685
 30
0.0
 11
69.8735129152260157
 21
-31.0440068853743298
 31
0.0
  0
LINE
  5
12E64
  8
0
 10
69.8735129152260157
 20
-31.0440068853743298
 30
0.0
 11
69.8833554348341863
 21
-31.0440442211201884
 31
0.0
  0
LINE
  5
12E65
  8
0
 10
69.8833554348341863
 20
-31.0440442211201884
 30
0.0
 11
69.8853731836981069
 21
-31.0449826241741107
 31
0.0
  0
LINE
  5
12E66
  8
0
 10
69.8853731836981069
 20
-31.0449826241741107
 30
0.0
 11
69.9030404742363913
 21
-31.03455356786084
 31
0.0
  0
LINE
  5
12E67
  8
0
 10
69.9030404742363913
 20
-31.03455356786084
 30
0.0
 11
69.9102290620506039
 21
-31.0344434862514689
 31
0.0
  0
LINE
  5
12E68
  8
0
 10
69.9030404741648113
 20
-31.0345535678627407
 30
0.0
 11
69.9030404741975246
 21
-31.0450896585051197
 31
0.0
  0
LINE
  5
12E69
  8
0
 10
69.8874561821733096
 20
-31.0561804820421905
 30
0.0
 11
69.8869507615100787
 21
-31.0545454087480799
 31
0.0
  0
LINE
  5
12E6A
  8
0
 10
69.8735129151003065
 20
-31.0268015214337112
 30
0.0
 11
69.8833554348341863
 21
-31.0373749478819505
 31
0.0
  0
LINE
  5
12E6B
  8
0
 10
69.8833554348341863
 20
-31.0373749478819505
 30
0.0
 11
69.8853731837821215
 21
-31.0383133508651099
 31
0.0
  0
LINE
  5
12E6C
  8
0
 10
69.8853731837821215
 20
-31.0383133508651099
 30
0.0
 11
69.8853731378560781
 21
-31.0449826028541693
 31
0.0
  0
LINE
  5
12E6D
  8
0
 10
69.8853731837329235
 20
-31.0383133508649784
 30
0.0
 11
69.8994749094343319
 21
-31.0299073496756499
 31
0.0
  0
LINE
  5
12E6E
  8
0
 10
69.8833554325410233
 20
-31.0251325064090402
 30
0.0
 11
69.8833554325410233
 21
-31.0373749467090185
 31
0.0
  0
LINE
  5
12E6F
  8
0
 10
70.1257512714341971
 20
-31.1263573573547809
 30
0.0
 11
70.1257512714938969
 21
-31.1236934567991312
 31
0.0
  0
LINE
  5
12E70
  8
0
 10
70.1060662320769268
 20
-31.1254409704680093
 30
0.0
 11
70.1060662321228705
 21
-31.1227902261210012
 31
0.0
  0
LINE
  5
12E71
  8
0
 10
70.0979124218198564
 20
-31.1228659048713396
 30
0.0
 11
70.0979124218341951
 21
-31.1185783004287302
 31
0.0
  0
LINE
  5
12E72
  8
0
 10
70.0782273824647319
 20
-31.11678179395998
 30
0.0
 11
70.0782273824060837
 21
-31.1210487887026517
 31
0.0
  0
LINE
  5
12E73
  8
0
 10
70.0700735721186163
 20
-31.1220765640852406
 30
0.0
 11
70.0700735721341914
 21
-31.1194744983211784
 31
0.0
  0
LINE
  5
12E74
  8
0
 10
70.0503885327341749
 20
-31.1193006629913214
 30
0.0
 11
70.0504113007265516
 21
-31.1167394151142886
 31
0.0
  0
LINE
  5
12E75
  8
0
 10
70.0979124218341951
 20
-31.1245400215589001
 30
0.0
 11
70.0979124218341951
 21
-31.1254777695350491
 31
0.0
  0
LINE
  5
12E76
  8
0
 10
70.0782273824061122
 20
-31.1227060858518492
 30
0.0
 11
70.0782273824060837
 21
-31.1236106230352014
 31
0.0
  0
LINE
  5
12E77
  8
0
 10
70.0422347225342037
 20
-31.1160336898461409
 30
0.0
 11
70.0422347224600657
 21
-31.1118242840291508
 31
0.0
  0
LINE
  5
12E78
  8
0
 10
70.0225496831342014
 20
-31.1123469712713394
 30
0.0
 11
70.0225496830840513
 21
-31.1081805758728009
 31
0.0
  0
LINE
  5
12E79
  8
0
 10
70.0143958728342
 20
-31.1124720712201892
 30
0.0
 11
70.0143958728428117
 21
-31.1100123111480684
 31
0.0
  0
LINE
  5
12E7A
  8
0
 10
70.0143958728825169
 20
-31.1073867437270515
 30
0.0
 11
70.0143958728342
 21
-31.1045994641850889
 31
0.0
  0
LINE
  5
12E7B
  8
0
 10
69.9947108334287122
 20
-31.1077523874164896
 30
0.0
 11
69.9947108334666126
 21
-31.1053644296459417
 31
0.0
  0
LINE
  5
12E7C
  8
0
 10
69.9947108334341834
 20
-31.1027739945424599
 30
0.0
 11
69.9947108334341834
 21
-31.1000075572201915
 31
0.0
  0
LINE
  5
12E7D
  8
0
 10
69.986557023234198
 20
-31.1038241042459411
 30
0.0
 11
69.986557023173674
 21
-31.0997593997577617
 31
0.0
  0
LINE
  5
12E7E
  8
0
 10
69.9668719838341957
 20
-31.0981548691201901
 30
0.0
 11
69.9668719838598037
 21
-31.0941596136802509
 31
0.0
  0
LINE
  5
12E7F
  8
0
 10
69.9587181734958108
 20
-31.09251103109073
 30
0.0
 11
69.9587181735341943
 21
-31.0897985108201915
 31
0.0
  0
LINE
  5
12E80
  8
0
 10
69.9587181735341943
 20
-31.0972445148201899
 30
0.0
 11
69.9587181735865613
 21
-31.0950210576727812
 31
0.0
  0
LINE
  5
12E81
  8
0
 10
69.9390331342113143
 20
-31.0904255902856583
 30
0.0
 11
69.939033134134192
 21
-31.0883124549201888
 31
0.0
  0
LINE
  5
12E82
  8
0
 10
69.9390331341529787
 20
-31.0858562903147018
 30
0.0
 11
69.939033134134192
 21
-31.0831822793536787
 31
0.0
  0
LINE
  5
12E83
  8
0
 10
69.9310480708618911
 20
-31.0858906463259288
 30
0.0
 11
69.9308793239110003
 21
-31.0820113656934005
 31
0.0
  0
LINE
  5
12E84
  8
0
 10
69.91119428453419
 20
-31.0780066922835516
 30
0.0
 11
69.91119428453419
 21
-31.0742707119071291
 31
0.0
  0
LINE
  5
12E85
  8
0
 10
69.9030404741957341
 20
-31.0758708722372603
 30
0.0
 11
69.9030404742341887
 21
-31.0740032078361992
 31
0.0
  0
LINE
  5
12E86
  8
0
 10
69.9030404742341887
 20
-31.0716667021266488
 30
0.0
 11
69.9030404742341887
 21
-31.0690725826102891
 31
0.0
  0
LINE
  5
12E87
  8
0
 10
69.8833554348509267
 20
-31.0627339811230989
 30
0.0
 11
69.8833554348985615
 21
-31.0573746660055185
 31
0.0
  0
LINE
  5
12E88
  8
0
 10
69.8833554348863544
 20
-31.066697117060631
 30
0.0
 11
69.8833554348341863
 21
-31.0649915924358098
 31
0.0
  0
ARC
  5
12E89
  8
0
 10
69.8789543265746431
 20
-31.0030451412666999
 30
0.0
 40
0.0521383333407297
 50
207.3966659352072952
 51
228.7659985171293897
  0
ARC
  5
12E8A
  8
0
 10
69.9372132733819569
 20
-30.9365761134412516
 30
0.0
 40
0.1405251906395216
 50
228.7659985171299866
 51
238.958157292557388
  0
ARC
  5
12E8B
  8
0
 10
69.9544841785874496
 20
-30.9078799906986497
 30
0.0
 40
0.174017751411663
 50
238.958157292557388
 51
245.8740292500789053
  0
ARC
  5
12E8C
  8
0
 10
70.1347771310423838
 20
-30.5624086957278713
 30
0.0
 40
0.5633340792396647
 50
245.7093073219749044
 51
254.7451863610642988
  0
ARC
  5
12E8D
  8
0
 10
70.1559378256284134
 20
-30.4848178547953808
 30
0.0
 40
0.6437586624961185
 50
254.7451863610642988
 51
259.8268327344143813
  0
ARC
  5
12E8E
  8
0
 10
70.1192607841622646
 20
-30.6892094503256097
 30
0.0
 40
0.4361023847338003
 50
259.8268327344143813
 51
263.7421888022033727
  0
ARC
  5
12E8F
  8
0
 10
70.1443185493878616
 20
-30.118872438105619
 30
0.0
 40
1.02673384641969
 50
260.7464442241898723
 51
269.9684508329390837
  0
ARC
  5
12E90
  8
0
 10
70.0681526052643591
 20
-30.6073340538292591
 30
0.0
 40
0.5323917825893976
 50
247.6275341683646047
 51
260.3835762641847964
  0
ARC
  5
12E91
  8
0
 10
69.9170971236808327
 20
-30.9743225974567906
 30
0.0
 40
0.1355311651551584
 50
227.3954417534941115
 51
247.6275341683646047
  0
ARC
  5
12E92
  8
0
 10
69.8635116196625034
 20
-31.0325870913599502
 30
0.0
 40
0.0563721006667002
 50
200.5843907296882946
 51
227.3954417534941115
  0
ARC
  5
12E93
  8
0
 10
69.8382316731347004
 20
-31.0420813392485684
 30
0.0
 40
0.0293680928267592
 50
156.589334291195911
 51
200.5843907296896873
  0
ARC
  5
12E94
  8
0
 10
69.8690958346049626
 20
-31.0554442764466785
 30
0.0
 40
0.0630008826875942
 50
124.8283206800209939
 51
156.589334291195911
  0
ARC
  5
12E95
  8
0
 10
69.9692114842765847
 20
-31.199339995223621
 30
0.0
 40
0.2382981193786045
 50
106.6346561961017017
 51
124.8283206800209939
  0
ARC
  5
12E96
  8
0
 10
70.1084332359706082
 20
-31.6653204012557801
 30
0.0
 40
0.7246317856517158
 50
97.5988448124959689
 51
106.6346561961017017
  0
ARC
  5
12E97
  8
0
 10
70.1316829165287032
 20
-31.8395954549107785
 30
0.0
 40
0.9004508459737079
 50
92.4176787802102666
 51
97.5988448124959689
  0
ARC
  5
12E98
  8
0
 10
70.1493326079139763
 20
-32.2576214436359905
 30
0.0
 40
1.31884926716538
 50
90.2423915676444182
 51
92.4176787802102666
  0
ARC
  5
12E99
  8
0
 10
70.1415210279447052
 20
-31.9594677271049683
 30
0.0
 40
1.0309618080276
 50
89.8759472225777785
 51
97.7829974459196052
  0
ARC
  5
12E9A
  8
0
 10
70.0942500531990049
 20
-31.6136179426079202
 30
0.0
 40
0.6818964581429963
 50
97.7829974459191646
 51
106.6549040352654032
  0
ARC
  5
12E9B
  8
0
 10
69.9767850778031573
 20
-31.2209642275759194
 30
0.0
 40
0.2720489738598971
 50
106.6549040352659006
 51
123.1937951281697963
  0
ARC
  5
12E9C
  8
0
 10
69.865603814311882
 20
-31.0510212833363397
 30
0.0
 40
0.0689680105759633
 50
123.1937951281693984
 51
144.9990966482050965
  0
ARC
  5
12E9D
  8
0
 10
69.8466042594003511
 20
-31.0377172053345589
 30
0.0
 40
0.0457735806775114
 50
144.9990966482050965
 51
175.8947759744615098
  0
ARC
  5
12E9E
  8
0
 10
69.8246843363199474
 20
-31.0361439568482496
 30
0.0
 40
0.0237972721010002
 50
175.8947759744611119
 51
203.7010329248238065
  0
ARC
  5
12E9F
  8
0
 10
69.8799124064017008
 20
-31.0118993415267994
 30
0.0
 40
0.0841126192113353
 50
203.7010329248238065
 51
213.4738700546627115
  0
ARC
  5
12EA0
  8
0
 10
69.8770060577544996
 20
-31.0061156891322582
 30
0.0
 40
0.0851213441609339
 50
217.8043046484272054
 51
231.1454438950437122
  0
ARC
  5
12EA1
  8
0
 10
69.8855436815343722
 20
-30.9931170363471402
 30
0.0
 40
0.100375095601688
 50
209.3643544684113067
 51
226.3692376351336009
  0
ARC
  5
12EA2
  8
0
 10
69.8541189202769743
 20
-31.0107982307545704
 30
0.0
 40
0.0643176379021016
 50
189.2891888377683074
 51
209.3643544684113067
  0
ARC
  5
12EA3
  8
0
 10
69.8849736397022809
 20
-31.0057515546054283
 30
0.0
 40
0.0955823568512388
 50
181.3263625730000115
 51
189.2891888377683074
  0
ARC
  5
12EA4
  8
0
 10
69.8217914879732007
 20
-31.0072144444554496
 30
0.0
 40
0.0323832718592053
 50
151.9244027055939057
 51
181.3263625730004094
  0
ARC
  5
12EA5
  8
0
 10
69.858044642833022
 20
-31.0265519882902296
 30
0.0
 40
0.0734713703653698
 50
124.0345787656853958
 51
151.9244027055939057
  0
ARC
  5
12EA6
  8
0
 10
69.9602363600117769
 20
-31.1778603829269798
 30
0.0
 40
0.2560566308534296
 50
106.5927440529965935
 51
124.0345787656848984
  0
ARC
  5
12EA7
  8
0
 10
70.1063556478686394
 20
-31.6682346070915592
 30
0.0
 40
0.7677379047034765
 50
96.653937016133824
 51
106.5927440529961956
  0
ARC
  5
12EA8
  8
0
 10
70.1402958728211701
 20
-31.9591723511664405
 30
0.0
 40
1.0606486586836059
 50
91.1212632880518356
 51
96.653937016133824
  0
ARC
  5
12EA9
  8
0
 10
70.1455826060920344
 20
-32.2129703651190198
 30
0.0
 40
1.314501729247965
 50
90.0797395254262341
 51
91.1933257440321086
  0
LINE
  5
12EAA
  8
0
 10
69.7894168908341896
 20
-31.0079804258201897
 30
0.0
 11
69.7894168927341951
 21
-30.9523314795201898
 31
0.0
  0
ARC
  5
12EAB
  8
0
 10
69.8246487307244195
 20
-30.9523314807230889
 30
0.0
 40
0.0352318379902226
 50
155.5795925211830877
 51
179.9999980437725924
  0
ARC
  5
12EAC
  8
0
 10
69.8462652992229351
 20
-30.9621464762223084
 30
0.0
 40
0.0589723133498623
 50
129.3107775823951044
 51
155.5795925211826898
  0
ARC
  5
12EAD
  8
0
 10
69.9323922011290335
 20
-31.0673326134039094
 30
0.0
 40
0.1949207104979152
 50
107.6226642160710014
 51
129.3107775823951044
  0
ARC
  5
12EAE
  8
0
 10
70.1173174177995406
 20
-31.6494916684951306
 30
0.0
 40
0.8057451543320926
 50
97.7543114797321806
 51
107.6226642160710014
  0
ARC
  5
12EAF
  8
0
 10
70.1720092821459502
 20
-33.4031348381698976
 30
0.0
 40
2.5604533963810399
 50
90.6323050359902425
 51
91.8640050533248882
  0
ARC
  5
12EB0
  8
0
 10
70.1418760382758535
 20
-31.94641410345994
 30
0.0
 40
1.128382975865327
 50
89.9046839291012958
 51
98.3213168716018231
  0
ARC
  5
12EB1
  8
0
 10
70.0779638137886138
 20
-31.5094499009678408
 30
0.0
 40
0.6867694721106609
 50
98.3213168716018231
 51
107.998257696712102
  0
ARC
  5
12EB2
  8
0
 10
69.9482787231905832
 20
-31.1102789309966212
 30
0.0
 40
0.2670604228977804
 50
107.998257696712102
 51
124.171319414635505
  0
ARC
  5
12EB3
  8
0
 10
69.841139995824733
 20
-30.9524592057128487
 30
0.0
 40
0.0763098722033799
 50
124.171319414635505
 51
151.4838171234563049
  0
ARC
  5
12EB4
  8
0
 10
69.8058299036553933
 20
-30.9332744747025288
 30
0.0
 40
0.0361245948876223
 50
151.4838171234553954
 51
185.3420000289538905
  0
ARC
  5
12EB5
  8
0
 10
69.8096773146833698
 20
-30.9329147164063585
 30
0.0
 40
0.0399887891955842
 50
185.3420000289544021
 51
201.5364983597025912
  0
ARC
  5
12EB6
  8
0
 10
69.8314082993495049
 20
-30.9219681544553886
 30
0.0
 40
0.0642588598958308
 50
203.5029555035766862
 51
229.1480642412471127
  0
ARC
  5
12EB7
  8
0
 10
70.1423179155928835
 20
-32.1779500119675674
 30
0.0
 40
1.384250006401011
 50
89.9405921682162273
 51
97.7286018530130178
  0
ARC
  5
12EB8
  8
0
 10
70.068282112920997
 20
-31.6324205339833817
 30
0.0
 40
0.8337196153897817
 50
97.7286018530130178
 51
109.9451044321668007
  0
ARC
  5
12EB9
  8
0
 10
69.8601819879235251
 20
-31.0589611929752785
 30
0.0
 40
0.223669389741601
 50
109.9451044321668007
 51
131.2375333298265048
  0
ARC
  5
12EBA
  8
0
 10
69.7573951592091959
 20
-30.9417038207990487
 30
0.0
 40
0.0677385605678153
 50
131.2375333298259932
 51
163.8399793948603929
  0
ARC
  5
12EBB
  8
0
 10
69.7300247586196917
 20
-30.9337726904636696
 30
0.0
 40
0.0392422159456189
 50
163.8399793948617003
 51
199.4128327925762107
  0
ARC
  5
12EBC
  8
0
 10
69.7607986057615932
 20
-30.9229277602197286
 30
0.0
 40
0.0718710709655307
 50
199.4128327925762107
 51
215.6608488497857081
  0
ARC
  5
12EBD
  8
0
 10
69.7647505300444664
 20
-30.9200921073019686
 30
0.0
 40
0.0767350850493293
 50
215.6608488497861913
 51
228.6919222355296029
  0
ARC
  5
12EBE
  8
0
 10
69.8415911876616207
 20
-30.8326510878447984
 30
0.0
 40
0.1931413501158916
 50
228.6919222355296029
 51
238.5233695755551082
  0
ARC
  5
12EBF
  8
0
 10
69.9034549601908566
 20
-30.7205222505324116
 30
0.0
 40
0.3211251598975728
 50
239.5560317849972876
 51
249.4333486439986132
  0
ARC
  5
12EC0
  8
0
 10
69.8071932763483716
 20
-30.851316950724911
 30
0.0
 40
0.1567780082595126
 50
216.5529700098610135
 51
232.783738057459999
  0
ARC
  5
12EC1
  8
0
 10
69.7210600555629441
 20
-30.9151754969635597
 30
0.0
 40
0.0495546635505068
 50
193.8378884351101021
 51
216.5529700098618946
  0
ARC
  5
12EC2
  8
0
 10
69.7215433145734238
 20
-30.91505645826226
 30
0.0
 40
0.0500523677634878
 50
159.3910796541219952
 51
193.8378884351097042
  0
ARC
  5
12EC3
  8
0
 10
69.7426309034272833
 20
-30.9229865089936915
 30
0.0
 40
0.0725817287902166
 50
123.981866067350694
 51
159.3910796541223078
  0
ARC
  5
12EC4
  8
0
 10
70.1433375602850617
 20
-32.3429538244435406
 30
0.0
 40
1.5651636695091691
 50
89.984785016371319
 51
93.6690464754944117
  0
ARC
  5
12EC5
  8
0
 10
70.131679367735984
 20
-32.1565118260601892
 30
0.0
 40
1.3783575341316281
 50
93.5780387174110331
 51
99.7882048053225645
  0
ARC
  5
12EC6
  8
0
 10
70.0406985737751455
 20
-31.6291419426212315
 30
0.0
 40
0.8431972788546191
 50
99.7882048053225645
 51
106.437314969624893
  0
ARC
  5
12EC7
  8
0
 10
69.9497218191551156
 20
-31.3207710684425784
 30
0.0
 40
0.5216862122909544
 50
106.437314969624893
 51
115.4945911964714043
  0
ARC
  5
12EC8
  8
0
 10
69.8133278323848003
 20
-31.0347456435252695
 30
0.0
 40
0.2048047465561708
 50
115.4945911964714043
 51
122.9067856221649038
  0
ARC
  5
12EC9
  8
0
 10
70.1421103541509581
 20
-32.3371752254581395
 30
0.0
 40
1.5624274321314131
 50
89.9397554812387199
 51
94.606711148621045
  0
ARC
  5
12ECA
  8
0
 10
70.1193945619023253
 20
-32.0555135789175267
 30
0.0
 40
1.279851265703148
 50
94.6057906282019729
 51
103.159117037839593
  0
ARC
  5
12ECB
  8
0
 10
69.9537620000168658
 20
-31.3470621082120999
 30
0.0
 40
0.5522953352748236
 50
103.159117037839593
 51
114.8565054727181973
  0
ARC
  5
12ECC
  8
0
 10
69.8035561175976937
 20
-31.0305874542268789
 30
0.0
 40
0.2020255524869514
 50
113.931311656731495
 51
135.2404287401940053
  0
ARC
  5
12ECD
  8
0
 10
69.7026607617860634
 20
-30.9319205738996708
 30
0.0
 40
0.0609163138146518
 50
134.3152349242068055
 51
178.0700002494627086
  0
ARC
  5
12ECE
  8
0
 10
69.7036284558565598
 20
-30.9272268717757903
 30
0.0
 40
0.0619058598566266
 50
182.4461186878253045
 51
223.7156074604424134
  0
ARC
  5
12ECF
  8
0
 10
69.767356958740578
 20
-30.8725085435005617
 30
0.0
 40
0.1458513795335689
 50
221.9506286076168067
 51
236.9370597560879048
  0
ARC
  5
12ED0
  8
0
 10
69.8602233216493431
 20
-30.7288932172420388
 30
0.0
 40
0.3168759328273547
 50
237.0314631007273931
 51
248.5278888400191875
  0
ARC
  5
12ED1
  8
0
 10
69.9567205088791439
 20
-30.4948167109594905
 30
0.0
 40
0.5700440543809212
 50
248.114123593086191
 51
253.8399354526708862
  0
ARC
  5
12ED2
  8
0
 10
69.9153450303321051
 20
-30.6305070456107416
 30
0.0
 40
0.4240968843945993
 50
240.315695304406006
 51
253.5890106612361876
  0
ARC
  5
12ED3
  8
0
 10
69.7629640341345549
 20
-30.8912178534280493
 30
0.0
 40
0.1221815399159839
 50
209.2479507764707023
 51
241.8512924424379094
  0
ARC
  5
12ED4
  8
0
 10
69.7007766252869345
 20
-30.9299401067089512
 30
0.0
 40
0.0491207973800339
 50
164.1794927273722919
 51
205.2771281778431955
  0
ARC
  5
12ED5
  8
0
 10
69.7437617828660166
 20
-30.9517826012143082
 30
0.0
 40
0.0968795548699436
 50
135.5375353309678133
 51
158.6730729907145019
  0
ARC
  5
12ED6
  8
0
 10
69.77951700635154
 20
-30.9930451054339997
 30
0.0
 40
0.151364491624114
 50
121.7151959890913986
 51
133.8698873066512078
  0
ARC
  5
12ED7
  8
0
 10
70.7900055685890948
 20
-29.9418735416526509
 30
0.0
 40
1.5176235048538791
 50
200.2491701034790879
 51
215.2395044581535046
  0
ARC
  5
12ED8
  8
0
 10
70.4284267461099063
 20
-30.1973128849613488
 30
0.0
 40
1.0749176171864361
 50
215.2395044581535046
 51
222.9606853566999121
  0
ARC
  5
12ED9
  8
0
 10
70.2417705173458842
 20
-33.0335023937267422
 30
0.0
 40
2.194808591730506
 50
93.9985274685696339
 51
96.0984080834236067
  0
ARC
  5
12EDA
  8
0
 10
70.1442630553286364
 20
-31.9065772806490209
 30
0.0
 40
0.9617105694291453
 50
87.8537099979877638
 51
90.0303761057922003
  0
ARC
  5
12EDB
  8
0
 10
70.1492703677334504
 20
-31.8525258774499491
 30
0.0
 40
0.9075144472437681
 50
84.4450648430462962
 51
88.0418216568062917
  0
ARC
  5
12EDC
  8
0
 10
70.1693518366128757
 20
-31.691881128839281
 30
0.0
 40
0.7456934223594988
 50
77.827665671257563
 51
84.7859660324203332
  0
ARC
  5
12EDD
  8
0
 10
70.2317191763904418
 20
-31.4062208128770806
 30
0.0
 40
0.4533056360671263
 50
70.3166935409286111
 51
77.9203013225840238
  0
ARC
  5
12EDE
  8
0
 10
70.3121756601436516
 20
-31.1859542903144416
 30
0.0
 40
0.2188157360114574
 50
57.618787826708342
 51
70.7264662720695725
  0
ARC
  5
12EDF
  8
0
 10
70.3910123455804069
 20
-31.0644149599995387
 30
0.0
 40
0.073969314695926
 50
30.3528559235186997
 51
58.7710555948026681
  0
ARC
  5
12EE0
  8
0
 10
70.4272556955608877
 20
-31.0421327410171308
 30
0.0
 40
0.0314473785149762
 50
343.850732963917892
 51
28.6885213056201813
  0
ARC
  5
12EE1
  8
0
 10
70.4085296628403796
 20
-31.0341680629301386
 30
0.0
 40
0.0517074825056866
 50
308.3760312055943018
 51
341.1438920218054136
  0
ARC
  5
12EE2
  8
0
 10
70.3128374573127957
 20
-30.9068090551928982
 30
0.0
 40
0.2109974616367204
 50
285.6611398663014256
 51
307.2765260333729884
  0
ARC
  5
12EE3
  8
0
 10
70.2032819813548485
 20
-30.5707030344895401
 30
0.0
 40
0.5643927500662295
 50
278.9050752078154005
 51
287.1594329645714083
  0
ARC
  5
12EE4
  8
0
 10
70.1508046907345033
 20
-30.2490471235621001
 30
0.0
 40
0.8902972129565309
 50
272.1569666461256816
 51
279.0372028218187097
  0
ARC
  5
12EE5
  8
0
 10
70.1438673851316565
 20
-30.1288355743379306
 30
0.0
 40
1.0106875580584671
 50
269.9935263987118219
 51
272.2934734971476018
  0
LINE
  5
12EE6
  8
0
 10
70.1814401518341953
 20
-30.9534130347201817
 30
0.0
 11
70.1617551124541166
 21
-30.9544046127288794
 31
0.0
  0
LINE
  5
12EE7
  8
0
 10
70.1617551124541166
 20
-30.9544046127288794
 30
0.0
 11
70.1519125927600129
 21
-30.9678225142712691
 31
0.0
  0
LINE
  5
12EE8
  8
0
 10
70.1519125927600129
 20
-30.9678225142712691
 30
0.0
 11
70.1617551124341929
 21
-30.9801513721494004
 31
0.0
  0
LINE
  5
12EE9
  8
0
 10
70.1617551124341929
 20
-30.9801513721494004
 30
0.0
 11
70.1814401518341953
 21
-30.9791891024201895
 31
0.0
  0
LINE
  5
12EEA
  8
0
 10
70.1814401518341953
 20
-30.9791891024201895
 30
0.0
 11
70.1912826714341946
 21
-30.9658693233201916
 31
0.0
  0
LINE
  5
12EEB
  8
0
 10
70.1912826714341946
 20
-30.9658693233201916
 30
0.0
 11
70.1814401518341953
 21
-30.9534130347201817
 31
0.0
  0
LINE
  5
12EEC
  8
0
 10
70.1814401518341953
 20
-30.9534130347201817
 30
0.0
 11
70.1814401518341953
 21
-30.9791891024201895
 31
0.0
  0
LINE
  5
12EED
  8
0
 10
70.1617551124341929
 20
-30.9801513721494004
 30
0.0
 11
70.1617551124541166
 21
-30.9544046127288794
 31
0.0
  0
LINE
  5
12EEE
  8
0
 10
70.209279001434183
 20
-30.9721030089254086
 30
0.0
 11
70.1895939620341949
 21
-30.9740451281501414
 31
0.0
  0
LINE
  5
12EEF
  8
0
 10
70.1895939620341949
 20
-30.9740451281501414
 30
0.0
 11
70.1797514423926287
 21
-30.9869404377377613
 31
0.0
  0
LINE
  5
12EF0
  8
0
 10
70.1797514423926287
 20
-30.9869404377377613
 30
0.0
 11
70.1895939620341949
 21
-30.9978392187516896
 31
0.0
  0
LINE
  5
12EF1
  8
0
 10
70.1895939620341949
 20
-30.9978392187516896
 30
0.0
 11
70.2092790014668111
 21
-30.9959463543434701
 31
0.0
  0
LINE
  5
12EF2
  8
0
 10
70.2092790014668111
 20
-30.9959463543434701
 30
0.0
 11
70.2191215211365289
 21
-30.9831063830641895
 31
0.0
  0
LINE
  5
12EF3
  8
0
 10
70.2191215211365289
 20
-30.9831063830641895
 30
0.0
 11
70.209279001434183
 21
-30.9721030089254086
 31
0.0
  0
LINE
  5
12EF4
  8
0
 10
70.209279001434183
 20
-30.9721030089254086
 30
0.0
 11
70.2092790014668111
 21
-30.9959463543434701
 31
0.0
  0
LINE
  5
12EF5
  8
0
 10
70.1895939620341949
 20
-30.9978392187516896
 30
0.0
 11
70.1895939620341949
 21
-30.9740451281501414
 31
0.0
  0
LINE
  5
12EF6
  8
0
 10
70.2272191956089529
 20
-30.9483652433870695
 30
0.0
 11
70.2174328117123423
 21
-30.949770091583499
 31
0.0
  0
LINE
  5
12EF7
  8
0
 10
70.2174328117123423
 20
-30.949770091583499
 30
0.0
 11
70.207590292084717
 21
-30.9642455251057491
 31
0.0
  0
LINE
  5
12EF8
  8
0
 10
70.207590292084717
 20
-30.9642455251057491
 30
0.0
 11
70.2174328117341986
 21
-30.9756547963281292
 31
0.0
  0
LINE
  5
12EF9
  8
0
 10
70.2174328117341986
 20
-30.9756547963281292
 30
0.0
 11
70.2371178511588994
 21
-30.972736978232291
 31
0.0
  0
LINE
  5
12EFA
  8
0
 10
70.2371178511588994
 20
-30.972736978232291
 30
0.0
 11
70.2469603707697559
 21
-30.9583210216395202
 31
0.0
  0
LINE
  5
12EFB
  8
0
 10
70.2469603707697559
 20
-30.9583210216395202
 30
0.0
 11
70.2371178511342009
 21
-30.9492732596201883
 31
0.0
  0
LINE
  5
12EFC
  8
0
 10
70.2371178511342009
 20
-30.9492732596201883
 30
0.0
 11
70.2371178511588994
 21
-30.972736978232291
 31
0.0
  0
LINE
  5
12EFD
  8
0
 10
70.2174328117341986
 20
-30.9756547963281292
 30
0.0
 11
70.2174328117123423
 21
-30.949770091583499
 31
0.0
  0
LINE
  5
12EFE
  8
0
 10
70.2649567007341886
 20
-30.9627895530565382
 30
0.0
 11
70.2452716613341863
 21
-30.9667380742456686
 31
0.0
  0
LINE
  5
12EFF
  8
0
 10
70.2452716613341863
 20
-30.9667380742456686
 30
0.0
 11
70.2355507889829909
 21
-30.9805421620347694
 31
0.0
  0
LINE
  5
12F00
  8
0
 10
70.2355507889829909
 20
-30.9805421620347694
 30
0.0
 11
70.245393308624557
 21
-30.9906977846464109
 31
0.0
  0
LINE
  5
12F01
  8
0
 10
70.245393308624557
 20
-30.9906977846464109
 30
0.0
 11
70.2649567007615587
 21
-30.9868742103731698
 31
0.0
  0
LINE
  5
12F02
  8
0
 10
70.2649567007615587
 20
-30.9868742103731698
 30
0.0
 11
70.2747992204130867
 21
-30.9729179641403896
 31
0.0
  0
LINE
  5
12F03
  8
0
 10
70.2747992204130867
 20
-30.9729179641403896
 30
0.0
 11
70.2649567007341886
 21
-30.9627895530565382
 31
0.0
  0
LINE
  5
12F04
  8
0
 10
70.2649567007341886
 20
-30.9627895530565382
 30
0.0
 11
70.2649567007615587
 21
-30.9868742103731698
 31
0.0
  0
LINE
  5
12F05
  8
0
 10
70.245393308624557
 20
-30.9906977846464109
 30
0.0
 11
70.2452716613341863
 21
-30.9667380742456686
 31
0.0
  0
LINE
  5
12F06
  8
0
 10
70.2371178511342009
 20
-30.987890653595521
 30
0.0
 11
70.2174328116284983
 21
-30.9907608235678502
 31
0.0
  0
LINE
  5
12F07
  8
0
 10
70.2174328116284983
 20
-30.9907608235678502
 30
0.0
 11
70.2075902919869463
 21
-31.0031943825930192
 31
0.0
  0
LINE
  5
12F08
  8
0
 10
70.2075902919869463
 20
-31.0031943825930192
 30
0.0
 11
70.2174328116284983
 21
-31.0127385391804111
 31
0.0
  0
LINE
  5
12F09
  8
0
 10
70.2174328116284983
 20
-31.0127385391804111
 30
0.0
 11
70.2367653395240978
 21
-31.0099867972432115
 31
0.0
  0
LINE
  5
12F0A
  8
0
 10
70.2367653395240978
 20
-31.0099867972432115
 30
0.0
 11
70.2469603707871499
 21
-30.9975171808197203
 31
0.0
  0
LINE
  5
12F0B
  8
0
 10
70.2469603707871499
 20
-30.9975171808197203
 30
0.0
 11
70.2371178511342009
 21
-30.987890653595521
 31
0.0
  0
LINE
  5
12F0C
  8
0
 10
70.2371178511342009
 20
-30.987890653595521
 30
0.0
 11
70.2367653395240978
 21
-31.0099867972432115
 31
0.0
  0
LINE
  5
12F0D
  8
0
 10
70.2174328116284983
 20
-31.0127385391804111
 30
0.0
 11
70.2174328116284983
 21
-30.9907608235678502
 31
0.0
  0
LINE
  5
12F0E
  8
0
 10
70.2927955504341924
 20
-30.9759388811678384
 30
0.0
 11
70.27311051103419
 21
-30.9808257188562486
 31
0.0
  0
LINE
  5
12F0F
  8
0
 10
70.27311051103419
 20
-30.9808257188562486
 30
0.0
 11
70.2632679913714355
 21
-30.9943550710375106
 31
0.0
  0
LINE
  5
12F10
  8
0
 10
70.2632679913714355
 20
-30.9943550710375106
 30
0.0
 11
70.27311051103419
 21
-31.0030215550753994
 31
0.0
  0
LINE
  5
12F11
  8
0
 10
70.27311051103419
 20
-31.0030215550753994
 30
0.0
 11
70.2927955503965194
 21
-30.998245050644659
 31
0.0
  0
LINE
  5
12F12
  8
0
 10
70.2927955503965194
 20
-30.998245050644659
 30
0.0
 11
70.3026380700408851
 21
-30.9846932971097893
 31
0.0
  0
LINE
  5
12F13
  8
0
 10
70.3026380700408851
 20
-30.9846932971097893
 30
0.0
 11
70.2927955504341924
 21
-30.9759388811678384
 31
0.0
  0
LINE
  5
12F14
  8
0
 10
70.2927955504341924
 20
-30.9759388811678384
 30
0.0
 11
70.2927955503965194
 21
-30.998245050644659
 31
0.0
  0
LINE
  5
12F15
  8
0
 10
70.27311051103419
 20
-31.0030215550753994
 30
0.0
 11
70.27311051103419
 21
-30.9808257188562486
 31
0.0
  0
LINE
  5
12F16
  8
0
 10
70.2649567007107549
 20
-31.0008960423820703
 30
0.0
 11
70.2452716613341863
 21
-31.004687347820191
 31
0.0
  0
LINE
  5
12F17
  8
0
 10
70.2452716613341863
 20
-31.004687347820191
 30
0.0
 11
70.2354291416802283
 21
-31.0167080232830799
 31
0.0
  0
LINE
  5
12F18
  8
0
 10
70.2354291416802283
 20
-31.0167080232830799
 30
0.0
 11
70.2452716613429828
 21
-31.0253745073209792
 31
0.0
  0
LINE
  5
12F19
  8
0
 10
70.2452716613429828
 20
-31.0253745073209792
 30
0.0
 11
70.2649567007341886
 21
-31.0212260263172297
 31
0.0
  0
LINE
  5
12F1A
  8
0
 10
70.2649567007341886
 20
-31.0212260263172297
 30
0.0
 11
70.2747992204139251
 21
-31.0091956872714505
 31
0.0
  0
LINE
  5
12F1B
  8
0
 10
70.2747992204139251
 20
-31.0091956872714505
 30
0.0
 11
70.2649567007107549
 21
-31.0008960423820703
 31
0.0
  0
LINE
  5
12F1C
  8
0
 10
70.2649567007107549
 20
-31.0008960423820703
 30
0.0
 11
70.2649567007341886
 21
-31.0212260263172297
 31
0.0
  0
LINE
  5
12F1D
  8
0
 10
70.2452716613429828
 20
-31.0253745073209792
 30
0.0
 11
70.2452716613341863
 21
-31.004687347820191
 31
0.0
  0
LINE
  5
12F1E
  8
0
 10
70.2927955503673161
 20
-31.011189477289971
 30
0.0
 11
70.2735094750649978
 21
-31.0158205253741386
 31
0.0
  0
LINE
  5
12F1F
  8
0
 10
70.2735094750649978
 20
-31.0158205253741386
 30
0.0
 11
70.2632679913089362
 21
-31.0275569892901295
 31
0.0
  0
LINE
  5
12F20
  8
0
 10
70.2632679913089362
 20
-31.0275569892901295
 30
0.0
 11
70.2731439329458993
 21
-31.0345142799157188
 31
0.0
  0
LINE
  5
12F21
  8
0
 10
70.2731439329458993
 20
-31.0345142799157188
 30
0.0
 11
70.2927955504547413
 21
-31.0298737007734893
 31
0.0
  0
LINE
  5
12F22
  8
0
 10
70.2927955504547413
 20
-31.0298737007734893
 30
0.0
 11
70.3026380699783999
 21
-31.0178952153624188
 31
0.0
  0
LINE
  5
12F23
  8
0
 10
70.3026380699783999
 20
-31.0178952153624188
 30
0.0
 11
70.2927955503673161
 21
-31.011189477289971
 31
0.0
  0
LINE
  5
12F24
  8
0
 10
70.2927955503673161
 20
-31.011189477289971
 30
0.0
 11
70.2927955504547413
 21
-31.0298737007734893
 31
0.0
  0
LINE
  5
12F25
  8
0
 10
70.2731439329458993
 20
-31.0345142799157188
 30
0.0
 11
70.2735094750649978
 21
-31.0158205253741386
 31
0.0
  0
LINE
  5
12F26
  8
0
 10
70.3206344000767558
 20
-31.0187973229029801
 30
0.0
 11
70.3015094270657812
 21
-31.0243152939549489
 31
0.0
  0
LINE
  5
12F27
  8
0
 10
70.3015094270657812
 20
-31.0243152939549489
 30
0.0
 11
70.2911068409708975
 21
-31.0357749420185414
 31
0.0
  0
LINE
  5
12F28
  8
0
 10
70.2911068409708975
 20
-31.0357749420185414
 30
0.0
 11
70.300949360634192
 21
-31.0414740348201903
 31
0.0
  0
LINE
  5
12F29
  8
0
 10
70.300949360634192
 20
-31.0414740348201903
 30
0.0
 11
70.3206344000023904
 21
-31.0358742488033812
 31
0.0
  0
LINE
  5
12F2A
  8
0
 10
70.3206344000023904
 20
-31.0358742488033812
 30
0.0
 11
70.330476919716574
 21
-31.024506081290891
 31
0.0
  0
LINE
  5
12F2B
  8
0
 10
70.330476919716574
 20
-31.024506081290891
 30
0.0
 11
70.3206344000767558
 21
-31.0187973229029801
 31
0.0
  0
LINE
  5
12F2C
  8
0
 10
70.3206344000767558
 20
-31.0187973229029801
 30
0.0
 11
70.3206344000023904
 21
-31.0358742488033812
 31
0.0
  0
LINE
  5
12F2D
  8
0
 10
70.300949360634192
 20
-31.0414740348201903
 30
0.0
 11
70.3015094270657812
 21
-31.0243152939549489
 31
0.0
  0
LINE
  5
12F2E
  8
0
 10
70.3206344000341943
 20
-30.9862869165387487
 30
0.0
 11
70.3010503027510367
 21
-30.9920975252405206
 31
0.0
  0
LINE
  5
12F2F
  8
0
 10
70.3010503027510367
 20
-30.9920975252405206
 30
0.0
 11
70.2911068409850088
 21
-31.0052634195287915
 31
0.0
  0
LINE
  5
12F30
  8
0
 10
70.2911068409850088
 20
-31.0052634195287915
 30
0.0
 11
70.3009493607104616
 21
-31.012620033094791
 31
0.0
  0
LINE
  5
12F31
  8
0
 10
70.3009493607104616
 20
-31.012620033094791
 30
0.0
 11
70.3206344000341943
 21
-31.0068939776201908
 31
0.0
  0
LINE
  5
12F32
  8
0
 10
70.3206344000341943
 20
-31.0068939776201908
 30
0.0
 11
70.330476919712325
 21
-30.9936998266708805
 31
0.0
  0
LINE
  5
12F33
  8
0
 10
70.330476919712325
 20
-30.9936998266708805
 30
0.0
 11
70.3206344000341943
 21
-30.9862869165387487
 31
0.0
  0
LINE
  5
12F34
  8
0
 10
70.3206344000341943
 20
-30.9862869165387487
 30
0.0
 11
70.3206344000341943
 21
-31.0068939776201908
 31
0.0
  0
LINE
  5
12F35
  8
0
 10
70.3009493607104616
 20
-31.012620033094791
 30
0.0
 11
70.3010503027510367
 21
-30.9920975252405206
 31
0.0
  0
LINE
  5
12F36
  8
0
 10
70.3484424509937867
 20
-30.9938739623673598
 30
0.0
 11
70.3287882103341957
 21
-31.000681604711481
 31
0.0
  0
LINE
  5
12F37
  8
0
 10
70.3287882103341957
 20
-31.000681604711481
 30
0.0
 11
70.3192204954841884
 21
-31.0131244806201885
 31
0.0
  0
LINE
  5
12F38
  8
0
 10
70.3192204954841884
 20
-31.0131244806201885
 30
0.0
 11
70.3287882102818287
 21
-31.019530328772781
 31
0.0
  0
LINE
  5
12F39
  8
0
 10
70.3287882102818287
 20
-31.019530328772781
 30
0.0
 11
70.3484732497341838
 21
-31.0128217259201087
 31
0.0
  0
LINE
  5
12F3A
  8
0
 10
70.3484732497341838
 20
-31.0128217259201087
 30
0.0
 11
70.3583157693967536
 21
-30.9999441791549408
 31
0.0
  0
LINE
  5
12F3B
  8
0
 10
70.3583157693967536
 20
-30.9999441791549408
 30
0.0
 11
70.3484424509937867
 21
-30.9938739623673598
 31
0.0
  0
LINE
  5
12F3C
  8
0
 10
70.3484424509937867
 20
-30.9938739623673598
 30
0.0
 11
70.3484732497341838
 21
-31.0128217259201087
 31
0.0
  0
LINE
  5
12F3D
  8
0
 10
70.3287882102818287
 20
-31.019530328772781
 30
0.0
 11
70.3287882103341957
 21
-31.000681604711481
 31
0.0
  0
LINE
  5
12F3E
  8
0
 10
70.3763120993342
 20
-30.9986491461201901
 30
0.0
 11
70.3566270599643815
 21
-31.0064931302189102
 31
0.0
  0
LINE
  5
12F3F
  8
0
 10
70.3566270599643815
 20
-31.0064931302189102
 30
0.0
 11
70.3467845403289118
 21
-31.0189723364977183
 31
0.0
  0
LINE
  5
12F40
  8
0
 10
70.3467845403289118
 20
-31.0189723364977183
 30
0.0
 11
70.3566270600341852
 21
-31.0237260007213287
 31
0.0
  0
LINE
  5
12F41
  8
0
 10
70.3566270600341852
 20
-31.0237260007213287
 30
0.0
 11
70.3763120993656202
 21
-31.0159853469464295
 31
0.0
  0
LINE
  5
12F42
  8
0
 10
70.3763120993656202
 20
-31.0159853469464295
 30
0.0
 11
70.3861546189846479
 21
-31.0033873558887905
 31
0.0
  0
LINE
  5
12F43
  8
0
 10
70.3861546189846479
 20
-31.0033873558887905
 30
0.0
 11
70.3763120993342
 21
-30.9986491461201901
 31
0.0
  0
LINE
  5
12F44
  8
0
 10
70.3763120993342
 20
-30.9986491461201901
 30
0.0
 11
70.3763120993656202
 21
-31.0159853469464295
 31
0.0
  0
LINE
  5
12F45
  8
0
 10
70.3566270600341852
 20
-31.0237260007213287
 30
0.0
 11
70.3566270599643815
 21
-31.0064931302189102
 31
0.0
  0
LINE
  5
12F46
  8
0
 10
70.2649567006804006
 20
-31.0329894250788598
 30
0.0
 11
70.2452716613341863
 21
-31.0366761435201894
 31
0.0
  0
LINE
  5
12F47
  8
0
 10
70.2452716613341863
 20
-31.0366761435201894
 30
0.0
 11
70.2354291417131833
 21
-31.0469400122661483
 31
0.0
  0
LINE
  5
12F48
  8
0
 10
70.2354291417131833
 20
-31.0469400122661483
 30
0.0
 11
70.2452716613759378
 21
-31.0535389191011184
 31
0.0
  0
LINE
  5
12F49
  8
0
 10
70.2452716613759378
 20
-31.0535389191011184
 30
0.0
 11
70.2649567007341886
 21
-31.0498952108201891
 31
0.0
  0
LINE
  5
12F4A
  8
0
 10
70.2649567007341886
 20
-31.0498952108201891
 30
0.0
 11
70.2747992203963037
 21
-31.0396098380008389
 31
0.0
  0
LINE
  5
12F4B
  8
0
 10
70.2747992203963037
 20
-31.0396098380008389
 30
0.0
 11
70.2649567006804006
 21
-31.0329894250788598
 31
0.0
  0
LINE
  5
12F4C
  8
0
 10
70.2649567006804006
 20
-31.0329894250788598
 30
0.0
 11
70.2649567007341886
 21
-31.0498952108201891
 31
0.0
  0
LINE
  5
12F4D
  8
0
 10
70.2452716613759378
 20
-31.0535389191011184
 30
0.0
 11
70.2452716613341863
 21
-31.0366761435201894
 31
0.0
  0
LINE
  5
12F4E
  8
0
 10
70.2371178510730942
 20
-31.0227377529244315
 30
0.0
 11
70.2174328116443149
 21
-31.0258718218420491
 31
0.0
  0
LINE
  5
12F4F
  8
0
 10
70.2174328116443149
 20
-31.0258718218420491
 30
0.0
 11
70.2075902920233119
 21
-31.0361356905880115
 31
0.0
  0
LINE
  5
12F50
  8
0
 10
70.2075902920233119
 20
-31.0361356905880115
 30
0.0
 11
70.2174328116754225
 21
-31.0439837694455107
 31
0.0
  0
LINE
  5
12F51
  8
0
 10
70.2174328116754225
 20
-31.0439837694455107
 30
0.0
 11
70.2371178511342009
 21
-31.0412484837201816
 31
0.0
  0
LINE
  5
12F52
  8
0
 10
70.2371178511342009
 20
-31.0412484837201816
 30
0.0
 11
70.2469603707642847
 21
-31.0306248989253
 31
0.0
  0
LINE
  5
12F53
  8
0
 10
70.2469603707642847
 20
-31.0306248989253
 30
0.0
 11
70.2371178510730942
 21
-31.0227377529244315
 31
0.0
  0
LINE
  5
12F54
  8
0
 10
70.2371178510730942
 20
-31.0227377529244315
 30
0.0
 11
70.2371178511342009
 21
-31.0412484837201816
 31
0.0
  0
LINE
  5
12F55
  8
0
 10
70.2174328116754225
 20
-31.0439837694455107
 30
0.0
 11
70.2174328116443149
 21
-31.0258718218420491
 31
0.0
  0
LINE
  5
12F56
  8
0
 10
70.2092790013049637
 20
-31.009842349052871
 30
0.0
 11
70.1895939620341949
 21
-31.01170949556737
 31
0.0
  0
LINE
  5
12F57
  8
0
 10
70.1895939620341949
 20
-31.01170949556737
 30
0.0
 11
70.1797514423343358
 21
-31.0227209403433406
 31
0.0
  0
LINE
  5
12F58
  8
0
 10
70.1797514423343358
 20
-31.0227209403433406
 30
0.0
 11
70.1895939620341949
 21
-31.0318439287588994
 31
0.0
  0
LINE
  5
12F59
  8
0
 10
70.1895939620341949
 20
-31.0318439287588994
 30
0.0
 11
70.209279001434183
 21
-31.0300099930193412
 31
0.0
  0
LINE
  5
12F5A
  8
0
 10
70.209279001434183
 20
-31.0300099930193412
 30
0.0
 11
70.2191215210983586
 21
-31.0190202885909585
 31
0.0
  0
LINE
  5
12F5B
  8
0
 10
70.2191215210983586
 20
-31.0190202885909585
 30
0.0
 11
70.2092790013049637
 21
-31.009842349052871
 31
0.0
  0
LINE
  5
12F5C
  8
0
 10
70.2092790013049637
 20
-31.009842349052871
 30
0.0
 11
70.209279001434183
 21
-31.0300099930193412
 31
0.0
  0
LINE
  5
12F5D
  8
0
 10
70.1895939620341949
 20
-31.0318439287588994
 30
0.0
 11
70.1895939620341949
 21
-31.01170949556737
 31
0.0
  0
LINE
  5
12F5E
  8
0
 10
70.181440151710035
 20
-30.9942381205409809
 30
0.0
 11
70.1617551124341929
 21
-30.9951850007048293
 31
0.0
  0
LINE
  5
12F5F
  8
0
 10
70.1617551124341929
 20
-30.9951850007048293
 30
0.0
 11
70.1519125927378298
 21
-31.0066246807870698
 31
0.0
  0
LINE
  5
12F60
  8
0
 10
70.1519125927378298
 20
-31.0066246807870698
 30
0.0
 11
70.1617551124341929
 21
-31.0170681624127411
 31
0.0
  0
LINE
  5
12F61
  8
0
 10
70.1617551124341929
 20
-31.0170681624127411
 30
0.0
 11
70.1814401518341953
 21
-31.0161413886897108
 31
0.0
  0
LINE
  5
12F62
  8
0
 10
70.1814401518341953
 20
-31.0161413886897108
 30
0.0
 11
70.1912826714425364
 21
-31.0047513483034791
 31
0.0
  0
LINE
  5
12F63
  8
0
 10
70.1912826714425364
 20
-31.0047513483034791
 30
0.0
 11
70.181440151710035
 21
-30.9942381205409809
 31
0.0
  0
LINE
  5
12F64
  8
0
 10
70.181440151710035
 20
-30.9942381205409809
 30
0.0
 11
70.1814401518341953
 21
-31.0161413886897108
 31
0.0
  0
LINE
  5
12F65
  8
0
 10
70.1617551124341929
 20
-31.0170681624127411
 30
0.0
 11
70.1617551124341929
 21
-30.9951850007048293
 31
0.0
  0
LINE
  5
12F66
  8
0
 10
70.1814401518341953
 20
-31.0288780603920884
 30
0.0
 11
70.1617728907796163
 21
-31.0297939124312911
 31
0.0
  0
LINE
  5
12F67
  8
0
 10
70.1617728907796163
 20
-31.0297939124312911
 30
0.0
 11
70.1519125927908362
 21
-31.0394670931850492
 31
0.0
  0
LINE
  5
12F68
  8
0
 10
70.1519125927908362
 20
-31.0394670931850492
 30
0.0
 11
70.1617551123157455
 21
-31.0482027277573991
 31
0.0
  0
LINE
  5
12F69
  8
0
 10
70.1617551123157455
 20
-31.0482027277573991
 30
0.0
 11
70.1814401517663669
 21
-31.0472994972232499
 31
0.0
  0
LINE
  5
12F6A
  8
0
 10
70.1814401517663669
 20
-31.0472994972232499
 30
0.0
 11
70.1912826714958129
 21
-31.03764761652263
 31
0.0
  0
LINE
  5
12F6B
  8
0
 10
70.1912826714958129
 20
-31.03764761652263
 30
0.0
 11
70.1814401518341953
 21
-31.0288780603920884
 31
0.0
  0
LINE
  5
12F6C
  8
0
 10
70.1814401518341953
 20
-31.0288780603920884
 30
0.0
 11
70.1814401517663669
 21
-31.0472994972232499
 31
0.0
  0
LINE
  5
12F6D
  8
0
 10
70.1617551123157455
 20
-31.0482027277573991
 30
0.0
 11
70.1617728907796163
 21
-31.0297939124312911
 31
0.0
  0
LINE
  5
12F6E
  8
0
 10
70.2092790013818444
 20
-31.0416912424960003
 30
0.0
 11
70.1895939620292069
 21
-31.0435083585708185
 31
0.0
  0
LINE
  5
12F6F
  8
0
 10
70.1895939620292069
 20
-31.0435083585708185
 30
0.0
 11
70.1797514424058164
 21
-31.0528106648872217
 31
0.0
  0
LINE
  5
12F70
  8
0
 10
70.1797514424058164
 20
-31.0528106648872217
 30
0.0
 11
70.1896599435485768
 21
-31.0602879827488216
 31
0.0
  0
LINE
  5
12F71
  8
0
 10
70.1896599435485768
 20
-31.0602879827488216
 30
0.0
 11
70.209279001434183
 21
-31.0584964289300807
 31
0.0
  0
LINE
  5
12F72
  8
0
 10
70.209279001434183
 20
-31.0584964289300807
 30
0.0
 11
70.2191215210652615
 21
-31.0491972041188014
 31
0.0
  0
LINE
  5
12F73
  8
0
 10
70.2191215210652615
 20
-31.0491972041188014
 30
0.0
 11
70.2092790013818444
 21
-31.0416912424960003
 31
0.0
  0
LINE
  5
12F74
  8
0
 10
70.2092790013818444
 20
-31.0416912424960003
 30
0.0
 11
70.209279001434183
 21
-31.0584964289300807
 31
0.0
  0
LINE
  5
12F75
  8
0
 10
70.1896599435485768
 20
-31.0602879827488216
 30
0.0
 11
70.1895939620292069
 21
-31.0435083585708185
 31
0.0
  0
LINE
  5
12F76
  8
0
 10
70.2148537793341916
 20
-30.9473879438201891
 30
0.0
 11
70.2092790014353483
 21
-30.9557414594521383
 31
0.0
  0
LINE
  5
12F77
  8
0
 10
70.2092790014353483
 20
-30.9557414594521383
 30
0.0
 11
70.1895939620296048
 21
-30.9577210946303012
 31
0.0
  0
LINE
  5
12F78
  8
0
 10
70.1895939620296048
 20
-30.9577210946303012
 30
0.0
 11
70.1801487865088518
 21
-30.9455369055158407
 31
0.0
  0
LINE
  5
12F79
  8
0
 10
70.1895966765380592
 20
-30.945907842787971
 30
0.0
 11
70.1895939620768274
 21
-30.9577210946264003
 31
0.0
  0
LINE
  5
12F7A
  8
0
 10
70.2092790014285413
 20
-30.9557414594621783
 30
0.0
 11
70.2092790014285413
 21
-30.9469973089136907
 31
0.0
  0
LINE
  5
12F7B
  8
0
 10
70.2951722907096723
 20
-30.9568791604874214
 30
0.0
 11
70.2927955504341924
 21
-30.9605808152808493
 31
0.0
  0
LINE
  5
12F7C
  8
0
 10
70.2927955504341924
 20
-30.9605808152808493
 30
0.0
 11
70.27311051103419
 21
-30.965552412961511
 31
0.0
  0
LINE
  5
12F7D
  8
0
 10
70.27311051103419
 20
-30.965552412961511
 30
0.0
 11
70.2632679913181164
 21
-30.9550186594543888
 31
0.0
  0
LINE
  5
12F7E
  8
0
 10
70.2632679913181164
 20
-30.9550186594543888
 30
0.0
 11
70.2649915901811539
 21
-30.9523463306805802
 31
0.0
  0
LINE
  5
12F7F
  8
0
 10
70.27311051103419
 20
-30.9655524129615216
 30
0.0
 11
70.27311051103419
 21
-30.9534416813335618
 31
0.0
  0
LINE
  5
12F80
  8
0
 10
70.2927955504480906
 20
-30.9605808153216984
 30
0.0
 11
70.2927955504480906
 21
-30.9564762541853291
 31
0.0
  0
LINE
  5
12F81
  8
0
 10
70.3265833973341898
 20
-30.9629525202201883
 30
0.0
 11
70.3206344000310537
 21
-30.9720498244114708
 31
0.0
  0
LINE
  5
12F82
  8
0
 10
70.3206344000310537
 20
-30.9720498244114708
 30
0.0
 11
70.3009493606310514
 21
-30.9779759934990899
 31
0.0
  0
LINE
  5
12F83
  8
0
 10
70.3009493606310514
 20
-30.9779759934990899
 30
0.0
 11
70.2911068410212039
 21
-30.9688360065831993
 31
0.0
  0
LINE
  5
12F84
  8
0
 10
70.2911068410212039
 20
-30.9688360065831993
 30
0.0
 11
70.2986337814396052
 21
-30.9574801083524918
 31
0.0
  0
LINE
  5
12F85
  8
0
 10
70.3009493606310514
 20
-30.9779759934991006
 30
0.0
 11
70.3009493606310514
 21
-30.9578915023304901
 31
0.0
  0
LINE
  5
12F86
  8
0
 10
70.3206344000449519
 20
-30.9720498244523199
 30
0.0
 11
70.3206344000449519
 21
-30.9616946689869685
 31
0.0
  0
LINE
  5
12F87
  8
0
 10
70.3556191798097359
 20
-30.97017633252797
 30
0.0
 11
70.3484732497202856
 21
-30.9807003820093492
 31
0.0
  0
LINE
  5
12F88
  8
0
 10
70.3484732497202856
 20
-30.9807003820093492
 30
0.0
 11
70.3287882103612958
 21
-30.9876068416186605
 31
0.0
  0
LINE
  5
12F89
  8
0
 10
70.3287882103612958
 20
-30.9876068416186605
 30
0.0
 11
70.3189456906223427
 21
-30.9798218521372917
 31
0.0
  0
LINE
  5
12F8A
  8
0
 10
70.3189456906223427
 20
-30.9798218521372917
 30
0.0
 11
70.3287882102518438
 21
-30.9650471789323483
 31
0.0
  0
LINE
  5
12F8B
  8
0
 10
70.3287882103612958
 20
-30.9876068416186605
 30
0.0
 11
70.3287882103612958
 21
-30.9650471788868487
 31
0.0
  0
LINE
  5
12F8C
  8
0
 10
70.3287882103612958
 20
-30.9634326618091791
 30
0.0
 11
70.3287882103612958
 21
-30.9634301147654512
 31
0.0
  0
LINE
  5
12F8D
  8
0
 10
70.3484732497341838
 20
-30.9807003820501983
 30
0.0
 11
70.3484732499702261
 21
-30.9682088427292896
 31
0.0
  0
LINE
  5
12F8E
  8
0
 10
70.3287882103612958
 20
-30.9650471787680708
 30
0.0
 11
70.3316533240583652
 21
-30.9640679368035308
 31
0.0
  0
LINE
  5
12F8F
  8
0
 10
70.3818466786126891
 20
-30.9784969150566205
 30
0.0
 11
70.3763120993203017
 21
-30.9865333037793391
 31
0.0
  0
LINE
  5
12F90
  8
0
 10
70.3763120993203017
 20
-30.9865333037793391
 30
0.0
 11
70.3566270600396138
 21
-30.994462046032389
 31
0.0
  0
LINE
  5
12F91
  8
0
 10
70.3566270600396138
 20
-30.994462046032389
 30
0.0
 11
70.3467845403561256
 21
-30.9880164504454392
 31
0.0
  0
LINE
  5
12F92
  8
0
 10
70.3467845403561256
 20
-30.9880164504454392
 30
0.0
 11
70.3566270600477992
 21
-30.973601489064329
 31
0.0
  0
LINE
  5
12F93
  8
0
 10
70.3566270600396138
 20
-30.994462046032389
 30
0.0
 11
70.3566270601572228
 21
-30.97360148901884
 31
0.0
  0
LINE
  5
12F94
  8
0
 10
70.3763120993342
 20
-30.9865333038201918
 30
0.0
 11
70.3763120996065936
 21
-30.9765943632187408
 31
0.0
  0
LINE
  5
12F95
  8
0
 10
70.3566270601572228
 20
-30.9736014889000586
 30
0.0
 11
70.361186883610003
 21
-30.9717969271646005
 31
0.0
  0
LINE
  5
12F96
  8
0
 10
70.4054233591171936
 20
-30.988001788530859
 30
0.0
 11
70.4041509490186712
 21
-30.9895008635956799
 31
0.0
  0
LINE
  5
12F97
  8
0
 10
70.4041509490186712
 20
-30.9895008635956799
 30
0.0
 11
70.3844659096341871
 21
-30.9985124788201816
 31
0.0
  0
LINE
  5
12F98
  8
0
 10
70.3844659096341871
 20
-30.9985124788201816
 30
0.0
 11
70.3746233899530864
 21
-30.9934129630361106
 31
0.0
  0
LINE
  5
12F99
  8
0
 10
70.3746233899530864
 20
-30.9934129630361106
 30
0.0
 11
70.3844020066592435
 21
-30.9794024054025705
 31
0.0
  0
LINE
  5
12F9A
  8
0
 10
70.3844659096342014
 20
-30.9985124788201887
 30
0.0
 11
70.3844020067686813
 21
-30.9794024053570816
 31
0.0
  0
LINE
  5
12F9B
  8
0
 10
70.4041509490325836
 20
-30.9895008636365183
 30
0.0
 11
70.404150949075003
 21
-30.9874073876636302
 31
0.0
  0
LINE
  5
12F9C
  8
0
 10
70.4375776414698862
 20
-31.0069420730413405
 30
0.0
 11
70.4319897986341914
 21
-31.0136044250756484
 31
0.0
  0
LINE
  5
12F9D
  8
0
 10
70.4319897986341914
 20
-31.0136044250756484
 30
0.0
 11
70.4123047591904907
 21
-31.0236414941790883
 31
0.0
  0
LINE
  5
12F9E
  8
0
 10
70.4123047591904907
 20
-31.0236414941790883
 30
0.0
 11
70.4024622396522233
 21
-31.0216100158796912
 31
0.0
  0
LINE
  5
12F9F
  8
0
 10
70.4024622396522233
 20
-31.0216100158796912
 30
0.0
 11
70.4123047592712368
 21
-31.0096514818396116
 31
0.0
  0
LINE
  5
12FA0
  8
0
 10
70.4123047592712368
 20
-31.0096514818396116
 30
0.0
 11
70.4291816570868292
 21
-31.0010491173052216
 31
0.0
  0
LINE
  5
12FA1
  8
0
 10
70.4320531408838804
 20
-31.002875439060201
 30
0.0
 11
70.4319897986341914
 21
-31.0136044252201906
 31
0.0
  0
LINE
  5
12FA2
  8
0
 10
70.4123047597194045
 20
-31.0096514816111686
 30
0.0
 11
70.4123047597194045
 21
-31.0236414939215592
 31
0.0
  0
LINE
  5
12FA3
  8
0
 10
70.3583157693407912
 20
-31.0281084879352314
 30
0.0
 11
70.3484732497428098
 21
-31.0237041079909694
 31
0.0
  0
LINE
  5
12FA4
  8
0
 10
70.3484732497428098
 20
-31.0237041079909694
 30
0.0
 11
70.328788210372565
 21
-31.0303588487907298
 31
0.0
  0
LINE
  5
12FA5
  8
0
 10
70.328788210372565
 20
-31.0303588487907298
 30
0.0
 11
70.3189456905868298
 21
-31.0413561567105916
 31
0.0
  0
LINE
  5
12FA6
  8
0
 10
70.3189456905868298
 20
-31.0413561567105916
 30
0.0
 11
70.358315769340777
 21
-31.0281084879352314
 31
0.0
  0
LINE
  5
12FA7
  8
0
 10
70.3026380701090403
 20
-31.0459807200299487
 30
0.0
 11
70.2927955503620439
 21
-31.0406218122004915
 31
0.0
  0
LINE
  5
12FA8
  8
0
 10
70.2927955503620439
 20
-31.0406218122004915
 30
0.0
 11
70.2731105109863705
 21
-31.0452345613895808
 31
0.0
  0
LINE
  5
12FA9
  8
0
 10
70.2731105109863705
 20
-31.0452345613895808
 30
0.0
 11
70.2637526097341976
 21
-31.0552858202745909
 31
0.0
  0
LINE
  5
12FAA
  8
0
 10
70.2637526097341976
 20
-31.0552858202745909
 30
0.0
 11
70.3026380701090261
 21
-31.0459807200299487
 31
0.0
  0
LINE
  5
12FAB
  8
0
 10
70.2469603707342003
 20
-31.058175179520191
 30
0.0
 11
70.2370962624838455
 21
-31.0519150070945003
 31
0.0
  0
LINE
  5
12FAC
  8
0
 10
70.2370962624838455
 20
-31.0519150070945003
 30
0.0
 11
70.217432811741304
 21
-31.0546270572537395
 31
0.0
  0
LINE
  5
12FAD
  8
0
 10
70.217432811741304
 20
-31.0546270572537395
 30
0.0
 11
70.2075902920578443
 21
-31.0635828309690787
 31
0.0
  0
LINE
  5
12FAE
  8
0
 10
70.2075902920578443
 20
-31.0635828309690787
 30
0.0
 11
70.2469603707341861
 21
-31.058175179520191
 31
0.0
  0
LINE
  5
12FAF
  8
0
 10
70.1912826714342089
 20
-31.0650668149201898
 30
0.0
 11
70.1814401518338968
 21
-31.0579189269538105
 31
0.0
  0
LINE
  5
12FB0
  8
0
 10
70.1814401518338968
 20
-31.0579189269538105
 30
0.0
 11
70.1617551123754168
 21
-31.0588157077199796
 31
0.0
  0
LINE
  5
12FB1
  8
0
 10
70.1617551123754168
 20
-31.0588157077199796
 30
0.0
 11
70.1519125926885749
 21
-31.0668528653305387
 31
0.0
  0
LINE
  5
12FB2
  8
0
 10
70.1519125926885749
 20
-31.0668528653305387
 30
0.0
 11
70.1912826714341946
 21
-31.0650668149201898
 31
0.0
  0
LINE
  5
12FB3
  8
0
 10
70.4139934687158728
 20
-31.0039414241904616
 30
0.0
 11
70.4041509490341895
 21
-31.0005817988201891
 31
0.0
  0
LINE
  5
12FB4
  8
0
 10
70.4041509490341895
 20
-31.0005817988201891
 30
0.0
 11
70.3844659096347129
 21
-31.0095145197708817
 31
0.0
  0
LINE
  5
12FB5
  8
0
 10
70.3844659096347129
 20
-31.0095145197708817
 30
0.0
 11
70.374623389934186
 21
-31.0217174113201892
 31
0.0
  0
LINE
  5
12FB6
  8
0
 10
70.374623389934186
 20
-31.0217174113201892
 30
0.0
 11
70.387535563234195
 21
-31.0166464206201908
 31
0.0
  0
LINE
  5
12FB7
  8
0
 10
70.387535563234195
 20
-31.0166464206201908
 30
0.0
 11
70.3924443882341961
 21
-31.0216550820201888
 31
0.0
  0
LINE
  5
12FB8
  8
0
 10
70.3924443882341961
 20
-31.0216550820201888
 30
0.0
 11
70.4041509490704129
 21
-31.0162946648926798
 31
0.0
  0
LINE
  5
12FB9
  8
0
 10
70.4041509490704129
 20
-31.0162946648926798
 30
0.0
 11
70.4139934687158728
 21
-31.0039414241904616
 31
0.0
  0
LINE
  5
12FBA
  8
0
 10
70.4041509503889529
 20
-31.0005817992826103
 30
0.0
 11
70.4041509503889529
 21
-31.0162946641934987
 31
0.0
  0
LINE
  5
12FBB
  8
0
 10
70.1912826714341946
 20
-31.1166829066201913
 30
0.0
 11
70.1907980530911004
 21
-31.1165747484201916
 31
0.0
  0
ARC
  5
12FBC
  8
0
 10
70.1437580034342432
 20
-30.5036313384212612
 30
0.0
 40
0.6147457930989239
 50
270.8052213318756003
 51
274.3885350116030963
  0
LINE
  5
12FBD
  8
0
 10
70.1523972110507827
 20
-31.118316423830521
 30
0.0
 11
70.1519125927341918
 21
-31.1184689570201911
 31
0.0
  0
LINE
  5
12FBE
  8
0
 10
70.1519125927341918
 20
-31.1184689570201911
 30
0.0
 11
70.1617551123754168
 21
-31.1209678900199798
 31
0.0
  0
LINE
  5
12FBF
  8
0
 10
70.1617551123754168
 20
-31.1209678900199798
 30
0.0
 11
70.1814401518341953
 21
-31.1200711092201914
 31
0.0
  0
LINE
  5
12FC0
  8
0
 10
70.1814401518341953
 20
-31.1200711092201914
 30
0.0
 11
70.1912826714867037
 21
-31.1166829066984398
 31
0.0
  0
LINE
  5
12FC1
  8
0
 10
70.1814401517990518
 20
-31.1200711093187188
 30
0.0
 11
70.1814401517990518
 21
-31.1172211409990389
 31
0.0
  0
LINE
  5
12FC2
  8
0
 10
70.1617551124341929
 20
-31.120967890017301
 30
0.0
 11
70.1617551124341929
 21
-31.1181136361324917
 31
0.0
  0
LINE
  5
12FC3
  8
0
 10
70.2469603707496759
 20
-31.109791271186289
 30
0.0
 11
70.2464757522598404
 21
-31.1097295980979993
 31
0.0
  0
ARC
  5
12FC4
  8
0
 10
70.1417700238137058
 20
-30.4897022900207801
 30
0.0
 40
0.6288061325487529
 50
276.0528443552739191
 51
279.5852621718714204
  0
LINE
  5
12FC5
  8
0
 10
70.2080749104341919
 20
-31.1150028692201914
 30
0.0
 11
70.2075902920373665
 21
-31.1151989227188999
 31
0.0
  0
LINE
  5
12FC6
  8
0
 10
70.2075902920373665
 20
-31.1151989227188999
 30
0.0
 11
70.2174328117341986
 21
-31.1167792396843197
 31
0.0
  0
LINE
  5
12FC7
  8
0
 10
70.2174328117341986
 20
-31.1167792396843197
 30
0.0
 11
70.237117851146067
 21
-31.1140638525974609
 31
0.0
  0
LINE
  5
12FC8
  8
0
 10
70.2371178511109235
 20
-31.1140638526959989
 30
0.0
 11
70.246960370802185
 21
-31.109791271264541
 31
0.0
  0
LINE
  5
12FC9
  8
0
 10
70.2371178511109235
 20
-31.1140638526959989
 30
0.0
 11
70.2371178511342009
 21
-31.11124078762019
 31
0.0
  0
LINE
  5
12FCA
  8
0
 10
70.2174328117929747
 20
-31.1167792396816409
 30
0.0
 11
70.2174328117929747
 21
-31.1139249857968316
 31
0.0
  0
LINE
  5
12FCB
  8
0
 10
70.4418323183577257
 20
-31.021567267443551
 30
0.0
 11
70.4319897986776766
 21
-31.0213841752132815
 31
0.0
  0
LINE
  5
12FCC
  8
0
 10
70.4319897986776766
 20
-31.0213841752132815
 30
0.0
 11
70.4123047593341909
 21
-31.0313989508581614
 31
0.0
  0
LINE
  5
12FCD
  8
0
 10
70.4123047593341909
 20
-31.0313989508581614
 30
0.0
 11
70.4024622396087381
 21
-31.0415998958665114
 31
0.0
  0
LINE
  5
12FCE
  8
0
 10
70.4024622396087381
 20
-31.0415998958665114
 30
0.0
 11
70.4123047593341909
 21
-31.0419350415201905
 31
0.0
  0
LINE
  5
12FCF
  8
0
 10
70.4123047593341909
 20
-31.0419350415201905
 30
0.0
 11
70.4319897986341914
 21
-31.0319202659216913
 31
0.0
  0
LINE
  5
12FD0
  8
0
 10
70.4319897986341914
 20
-31.0319202659216913
 30
0.0
 11
70.4418323183577257
 21
-31.021567267443551
 31
0.0
  0
LINE
  5
12FD1
  8
0
 10
70.4319897986776766
 20
-31.0213841752132709
 30
0.0
 11
70.4319897986776766
 21
-31.0319202658132696
 31
0.0
  0
LINE
  5
12FD2
  8
0
 10
70.4123047580236658
 20
-31.0313989495936795
 30
0.0
 11
70.4123047580236658
 21
-31.0419350420948597
 31
0.0
  0
ARC
  5
12FD3
  8
0
 10
70.417090981564229
 20
-30.9152574095532415
 30
0.0
 40
0.123126386987943
 50
276.9500647156513082
 51
281.5920853733169906
  0
LINE
  5
12FD4
  8
0
 10
70.4319897987107026
 20
-31.0374790623826016
 30
0.0
 11
70.412304759309535
 21
-31.0475161314841408
 31
0.0
  0
ARC
  5
12FD5
  8
0
 10
70.2061962498345906
 20
-30.818931313320661
 30
0.0
 40
0.3077852120993902
 50
309.6184393795847996
 51
312.0400930286393191
  0
LINE
  5
12FD6
  8
0
 10
70.40246223966912
 20
-31.0560207437500502
 30
0.0
 11
70.4123047593235611
 21
-31.0545983002689283
 31
0.0
  0
LINE
  5
12FD7
  8
0
 10
70.4123047593235611
 20
-31.0545983002689283
 30
0.0
 11
70.4319897986978987
 21
-31.0444898023608609
 31
0.0
  0
LINE
  5
12FD8
  8
0
 10
70.4319897986978987
 20
-31.0444898023608609
 30
0.0
 11
70.4418323183297588
 21
-31.0358723896666397
 31
0.0
  0
LINE
  5
12FD9
  8
0
 10
70.4319897988205526
 20
-31.0374790623265895
 30
0.0
 11
70.4319897988205526
 21
-31.0444898023311886
 31
0.0
  0
LINE
  5
12FDA
  8
0
 10
70.412304759309535
 20
-31.0475161314841408
 30
0.0
 11
70.412304759309535
 21
-31.0545983002758099
 31
0.0
  0
LINE
  5
12FDB
  8
0
 10
70.1519125927627414
 20
-31.1254939126979799
 30
0.0
 11
70.1617551123744931
 21
-31.1236934567991312
 31
0.0
  0
LINE
  5
12FDC
  8
0
 10
70.1617551123744931
 20
-31.1236934567991312
 30
0.0
 11
70.1814401517455195
 21
-31.1227902261210012
 31
0.0
  0
LINE
  5
12FDD
  8
0
 10
70.1814401517455195
 20
-31.1227902261210012
 30
0.0
 11
70.1912826712381843
 21
-31.1236744360970512
 31
0.0
  0
LINE
  5
12FDE
  8
0
 10
70.1912826712381843
 20
-31.1236744360970512
 30
0.0
 11
70.1814401517914632
 21
-31.1254409704680093
 31
0.0
  0
LINE
  5
12FDF
  8
0
 10
70.1814401517914632
 20
-31.1254409704680093
 30
0.0
 11
70.1617551124341929
 21
-31.1263573573547809
 31
0.0
  0
LINE
  5
12FE0
  8
0
 10
70.1617551124341929
 20
-31.1263573573547809
 30
0.0
 11
70.1519125927627414
 21
-31.1254939126979799
 31
0.0
  0
LINE
  5
12FE1
  8
0
 10
70.1797514423323889
 20
-31.1216321205208111
 30
0.0
 11
70.1895939620341949
 21
-31.1185783004287302
 31
0.0
  0
LINE
  5
12FE2
  8
0
 10
70.1895939620341949
 20
-31.1185783004287302
 30
0.0
 11
70.2092790014036581
 21
-31.11678179395998
 31
0.0
  0
LINE
  5
12FE3
  8
0
 10
70.2092790014036581
 20
-31.11678179395998
 30
0.0
 11
70.2191215210027337
 21
-31.1180186597227184
 31
0.0
  0
LINE
  5
12FE4
  8
0
 10
70.2191215210027337
 20
-31.1180186597227184
 30
0.0
 11
70.2092790014623063
 21
-31.1210487887026517
 31
0.0
  0
LINE
  5
12FE5
  8
0
 10
70.2092790014623063
 20
-31.1210487887026517
 30
0.0
 11
70.1895939620485336
 21
-31.1228659048713396
 31
0.0
  0
LINE
  5
12FE6
  8
0
 10
70.1895939620485336
 20
-31.1228659048713396
 30
0.0
 11
70.1797514423182633
 21
-31.1216321205185587
 31
0.0
  0
LINE
  5
12FE7
  8
0
 10
70.1797514424045232
 20
-31.1259531237054503
 30
0.0
 11
70.1895939620965805
 21
-31.1254777695320399
 31
0.0
  0
LINE
  5
12FE8
  8
0
 10
70.1895939620965805
 20
-31.1254777695320399
 30
0.0
 11
70.2092790014667969
 21
-31.1236106230347715
 31
0.0
  0
LINE
  5
12FE9
  8
0
 10
70.2092790014667969
 20
-31.1236106230347715
 30
0.0
 11
70.2191215211029203
 21
-31.1222524719578288
 31
0.0
  0
LINE
  5
12FEA
  8
0
 10
70.2191215211029203
 20
-31.1222524719578288
 30
0.0
 11
70.2092790014622778
 21
-31.1227060858518492
 31
0.0
  0
LINE
  5
12FEB
  8
0
 10
70.2092790014622778
 20
-31.1227060858518492
 30
0.0
 11
70.1895939620341949
 21
-31.1245400215589001
 31
0.0
  0
LINE
  5
12FEC
  8
0
 10
70.1895939620341949
 20
-31.1245400215589001
 30
0.0
 11
70.1797514423435018
 21
-31.1259531237600591
 31
0.0
  0
LINE
  5
12FED
  8
0
 10
70.2075902920414592
 20
-31.1221625101638502
 30
0.0
 11
70.2174328117341986
 21
-31.1194744983211784
 31
0.0
  0
LINE
  5
12FEE
  8
0
 10
70.2174328117341986
 20
-31.1194744983211784
 30
0.0
 11
70.2371178511342009
 21
-31.1167392127201907
 31
0.0
  0
LINE
  5
12FEF
  8
0
 10
70.2371178511342009
 20
-31.1167392127201907
 30
0.0
 11
70.246960370649191
 21
-31.1166517184908713
 31
0.0
  0
LINE
  5
12FF0
  8
0
 10
70.246960370649191
 20
-31.1166517184908713
 30
0.0
 11
70.2371178511342009
 21
-31.1193006629913214
 31
0.0
  0
LINE
  5
12FF1
  8
0
 10
70.2371178511342009
 20
-31.1193006629913214
 30
0.0
 11
70.2174328117497737
 21
-31.1220765640852406
 31
0.0
  0
LINE
  5
12FF2
  8
0
 10
70.2174328117497737
 20
-31.1220765640852406
 30
0.0
 11
70.2075902934386136
 21
-31.1221625097822887
 31
0.0
  0
LINE
  5
12FF3
  8
0
 10
70.4139934686581768
 20
-31.0555575159574495
 30
0.0
 11
70.4041509489698285
 21
-31.0573746660055185
 31
0.0
  0
LINE
  5
12FF4
  8
0
 10
70.4041509489698285
 20
-31.0573746660055185
 30
0.0
 11
70.3924443882341961
 21
-31.0627350831201916
 31
0.0
  0
LINE
  5
12FF5
  8
0
 10
70.3924443882341961
 20
-31.0627350831201916
 30
0.0
 11
70.387535563234195
 21
-31.0677437445201896
 31
0.0
  0
LINE
  5
12FF6
  8
0
 10
70.387535563234195
 20
-31.0677437445201896
 30
0.0
 11
70.3844659096342014
 21
-31.0690725826102891
 31
0.0
  0
LINE
  5
12FF7
  8
0
 10
70.3844659096342014
 20
-31.0690725826102891
 30
0.0
 11
70.3746233899118749
 21
-31.0733335029891897
 31
0.0
  0
LINE
  5
12FF8
  8
0
 10
70.3746233899118749
 20
-31.0733335029891897
 30
0.0
 11
70.3844659096342014
 21
-31.0716667021266488
 31
0.0
  0
LINE
  5
12FF9
  8
0
 10
70.3844659096342014
 20
-31.0716667021266488
 30
0.0
 11
70.4041509490174633
 21
-31.0627339811230989
 31
0.0
  0
LINE
  5
12FFA
  8
0
 10
70.4041509490174633
 20
-31.0627339811230989
 30
0.0
 11
70.4139934686976403
 21
-31.0555575159485393
 31
0.0
  0
LINE
  5
12FFB
  8
0
 10
70.4139934687069626
 20
-31.0612542386367885
 30
0.0
 11
70.4041509490342037
 21
-31.0649915924358098
 31
0.0
  0
LINE
  5
12FFC
  8
0
 10
70.4041509490342037
 20
-31.0649915924358098
 30
0.0
 11
70.3844659096342014
 21
-31.0740032078361992
 31
0.0
  0
LINE
  5
12FFD
  8
0
 10
70.3844659096342014
 20
-31.0740032078361992
 30
0.0
 11
70.3746233899486242
 21
-31.0794397825640907
 31
0.0
  0
LINE
  5
12FFE
  8
0
 10
70.3746233899486242
 20
-31.0794397825640907
 30
0.0
 11
70.3844659096726559
 21
-31.0758708722372603
 31
0.0
  0
LINE
  5
12FFF
  8
0
 10
70.3844659096726559
 20
-31.0758708722372603
 30
0.0
 11
70.4041509489820356
 21
-31.066697117060631
 31
0.0
  0
LINE
  5
13000
  8
0
 10
70.4041509489820356
 20
-31.066697117060631
 30
0.0
 11
70.4139934687069626
 21
-31.0612542386367885
 31
0.0
  0
LINE
  5
13001
  8
0
 10
70.3861546189033049
 20
-31.0722088116047992
 30
0.0
 11
70.3763120993342
 21
-31.0742707119071291
 31
0.0
  0
LINE
  5
13002
  8
0
 10
70.3763120993342
 20
-31.0742707119071291
 30
0.0
 11
70.3566270599573897
 21
-31.0820113656934005
 31
0.0
  0
LINE
  5
13003
  8
0
 10
70.3566270599573897
 20
-31.0820113656934005
 30
0.0
 11
70.3467845403274055
 21
-31.0877937921198786
 31
0.0
  0
LINE
  5
13004
  8
0
 10
70.3467845403274055
 20
-31.0877937921198786
 30
0.0
 11
70.3564583130064989
 21
-31.0858906463259288
 31
0.0
  0
LINE
  5
13005
  8
0
 10
70.3564583130064989
 20
-31.0858906463259288
 30
0.0
 11
70.3763120993342
 21
-31.0780066922835516
 31
0.0
  0
LINE
  5
13006
  8
0
 10
70.3763120993342
 20
-31.0780066922835516
 30
0.0
 11
70.3861546190567822
 21
-31.0722088115663517
 31
0.0
  0
LINE
  5
13007
  8
0
 10
70.3583157694086765
 20
-31.0797245796997714
 30
0.0
 11
70.3484732497341838
 21
-31.0831822793536787
 31
0.0
  0
LINE
  5
13008
  8
0
 10
70.3484732497341838
 20
-31.0831822793536787
 30
0.0
 11
70.3287882103341957
 21
-31.0897985108201915
 31
0.0
  0
LINE
  5
13009
  8
0
 10
70.3287882103341957
 20
-31.0897985108201915
 30
0.0
 11
70.318945690625398
 21
-31.0929722484674791
 31
0.0
  0
LINE
  5
1300A
  8
0
 10
70.318945690625398
 20
-31.0929722484674791
 30
0.0
 11
70.328788210372565
 21
-31.09251103109073
 31
0.0
  0
LINE
  5
1300B
  8
0
 10
70.328788210372565
 20
-31.09251103109073
 30
0.0
 11
70.3484732497154113
 21
-31.0858562903147018
 31
0.0
  0
LINE
  5
1300C
  8
0
 10
70.3484732497154113
 20
-31.0858562903147018
 30
0.0
 11
70.3583157693536805
 21
-31.0797245797190911
 31
0.0
  0
LINE
  5
1300D
  8
0
 10
70.3583157692485486
 20
-31.0859709986400183
 30
0.0
 11
70.3484732497341838
 21
-31.0883124549201888
 31
0.0
  0
LINE
  5
1300E
  8
0
 10
70.3484732497341838
 20
-31.0883124549201888
 30
0.0
 11
70.3287882102818287
 21
-31.0950210576727812
 31
0.0
  0
LINE
  5
1300F
  8
0
 10
70.3287882102818287
 20
-31.0950210576727812
 30
0.0
 11
70.3189456907497288
 21
-31.0994980579482601
 31
0.0
  0
LINE
  5
13010
  8
0
 10
70.3189456907497288
 20
-31.0994980579482601
 30
0.0
 11
70.3287882103341957
 21
-31.0972445148201899
 31
0.0
  0
LINE
  5
13011
  8
0
 10
70.3287882103341957
 20
-31.0972445148201899
 30
0.0
 11
70.3484732496570757
 21
-31.0904255902856583
 31
0.0
  0
LINE
  5
13012
  8
0
 10
70.3484732496570757
 20
-31.0904255902856583
 30
0.0
 11
70.3583157693784784
 21
-31.0859709985765704
 31
0.0
  0
LINE
  5
13013
  8
0
 10
70.3304769196899429
 20
-31.0933275369056012
 30
0.0
 11
70.3206344000085863
 21
-31.0941596136802509
 31
0.0
  0
LINE
  5
13014
  8
0
 10
70.3206344000085863
 20
-31.0941596136802509
 30
0.0
 11
70.300949360694716
 21
-31.0997593997577617
 31
0.0
  0
LINE
  5
13015
  8
0
 10
70.300949360694716
 20
-31.0997593997577617
 30
0.0
 11
70.2911068409893005
 21
-31.1045963976451603
 31
0.0
  0
LINE
  5
13016
  8
0
 10
70.2911068409893005
 20
-31.1045963976451603
 30
0.0
 11
70.300949360634192
 21
-31.1038241042459411
 31
0.0
  0
LINE
  5
13017
  8
0
 10
70.300949360634192
 20
-31.1038241042459411
 30
0.0
 11
70.3206344000341943
 21
-31.0981548691201901
 31
0.0
  0
LINE
  5
13018
  8
0
 10
70.3206344000341943
 20
-31.0981548691201901
 30
0.0
 11
70.3304769196899144
 21
-31.0933275369056084
 31
0.0
  0
LINE
  5
13019
  8
0
 10
70.3026380700955542
 20
-31.0975968117190718
 30
0.0
 11
70.2927955504341924
 21
-31.1000075572201915
 31
0.0
  0
LINE
  5
1301A
  8
0
 10
70.2927955504341924
 20
-31.1000075572201915
 30
0.0
 11
70.27311051103419
 21
-31.1045994641850889
 31
0.0
  0
LINE
  5
1301B
  8
0
 10
70.27311051103419
 20
-31.1045994641850889
 30
0.0
 11
70.2632679912983917
 21
-31.1067816772979207
 31
0.0
  0
LINE
  5
1301C
  8
0
 10
70.2632679912983917
 20
-31.1067816772979207
 30
0.0
 11
70.2731105109858731
 21
-31.1073867437270515
 31
0.0
  0
LINE
  5
1301D
  8
0
 10
70.2731105109858731
 20
-31.1073867437270515
 30
0.0
 11
70.2927955504341924
 21
-31.1027739945424599
 31
0.0
  0
LINE
  5
1301E
  8
0
 10
70.2927955504341924
 20
-31.1027739945424599
 30
0.0
 11
70.3026380700481184
 21
-31.0975968117463495
 31
0.0
  0
LINE
  5
1301F
  8
0
 10
70.3026380701285234
 20
-31.1042167940174608
 30
0.0
 11
70.2927955504017774
 21
-31.1053644296459417
 31
0.0
  0
LINE
  5
13020
  8
0
 10
70.2927955504017774
 20
-31.1053644296459417
 30
0.0
 11
70.2731105110255641
 21
-31.1100123111480684
 31
0.0
  0
LINE
  5
13021
  8
0
 10
70.2731105110255641
 20
-31.1100123111480684
 30
0.0
 11
70.2632679916008556
 21
-31.1135838087820709
 31
0.0
  0
LINE
  5
13022
  8
0
 10
70.2632679916008556
 20
-31.1135838087820709
 30
0.0
 11
70.27311051103419
 21
-31.1124720712201892
 31
0.0
  0
LINE
  5
13023
  8
0
 10
70.27311051103419
 20
-31.1124720712201892
 30
0.0
 11
70.2927955504396635
 21
-31.1077523874164896
 31
0.0
  0
LINE
  5
13024
  8
0
 10
70.2927955504396635
 20
-31.1077523874164896
 30
0.0
 11
70.3026380701285234
 21
-31.1042167940174608
 31
0.0
  0
LINE
  5
13025
  8
0
 10
70.2747992204304239
 20
-31.1084312936303391
 30
0.0
 11
70.2649567007843388
 21
-31.1081805758728009
 31
0.0
  0
LINE
  5
13026
  8
0
 10
70.2649567007843388
 20
-31.1081805758728009
 30
0.0
 11
70.2452716614083243
 21
-31.1118242840291508
 31
0.0
  0
LINE
  5
13027
  8
0
 10
70.2452716614083243
 20
-31.1118242840291508
 30
0.0
 11
70.2354291417336469
 21
-31.1157614679223187
 31
0.0
  0
LINE
  5
13028
  8
0
 10
70.2354291417336469
 20
-31.1157614679223187
 30
0.0
 11
70.2452716613341863
 21
-31.1160336898461409
 31
0.0
  0
LINE
  5
13029
  8
0
 10
70.2452716613341863
 20
-31.1160336898461409
 30
0.0
 11
70.2649567007341886
 21
-31.1123469712713394
 31
0.0
  0
LINE
  5
1302A
  8
0
 10
70.2649567007341886
 20
-31.1123469712713394
 30
0.0
 11
70.2747992204740086
 21
-31.1084312936115488
 31
0.0
  0
LINE
  5
1302B
  8
0
 10
70.4139934686959919
 20
-31.0268015214241402
 30
0.0
 11
70.4041509490341895
 21
-31.0251325060201886
 31
0.0
  0
LINE
  5
1302C
  8
0
 10
70.4041509490341895
 20
-31.0251325060201886
 30
0.0
 11
70.4005556222319342
 21
-31.0268039543083596
 31
0.0
  0
LINE
  5
1302D
  8
0
 10
70.4005556222319342
 20
-31.0268039543083596
 30
0.0
 11
70.4000502066106151
 21
-31.0245488084094703
 31
0.0
  0
ARC
  5
1302E
  8
0
 10
70.1442252136515947
 20
-30.4669138136986888
 30
0.0
 40
0.6135170856207478
 50
269.9559183345539282
 51
294.6441341582652171
  0
LINE
  5
1302F
  8
0
 10
70.3085799311967463
 20
-31.0580066500359493
 30
0.0
 11
70.327880808234184
 21
-31.0580066500359493
 31
0.0
  0
LINE
  5
13030
  8
0
 10
70.327880808234184
 20
-31.0580066500359493
 30
0.0
 11
70.327880808234184
 21
-31.0522973093039987
 31
0.0
  0
LINE
  5
13031
  8
0
 10
70.3206344000341943
 20
-31.0580109209201893
 30
0.0
 11
70.3206344000341943
 21
-31.0545216874618006
 31
0.0
  0
LINE
  5
13032
  8
0
 10
70.3493806517341937
 20
-31.0580109209201893
 30
0.0
 11
70.3493806517341937
 21
-31.0451131396873201
 31
0.0
  0
LINE
  5
13033
  8
0
 10
70.3493806517341937
 20
-31.0580109209201893
 30
0.0
 11
70.3835585076341914
 21
-31.0580109209201893
 31
0.0
  0
LINE
  5
13034
  8
0
 10
70.3835585076341914
 20
-31.0580109209201893
 30
0.0
 11
70.3835585076341914
 21
-31.0465263345201912
 31
0.0
  0
LINE
  5
13035
  8
0
 10
70.3722250720147713
 20
-31.0365118063640608
 30
0.0
 11
70.3763120993670697
 21
-31.0386793164999908
 31
0.0
  0
LINE
  5
13036
  8
0
 10
70.3763120993670697
 20
-31.0386793164999908
 30
0.0
 11
70.3835585076341914
 21
-31.0465263345201912
 31
0.0
  0
LINE
  5
13037
  8
0
 10
70.3835585076341914
 20
-31.0465263345201912
 30
0.0
 11
70.4000502067611365
 21
-31.0561804850078182
 31
0.0
  0
ARC
  5
13038
  8
0
 10
70.1442257909185543
 20
-30.4985481421514315
 30
0.0
 40
0.6135144346636815
 50
269.955864233416321
 51
294.644188438373817
  0
LINE
  5
13039
  8
0
 10
70.3763120993342
 20
-31.0580109209201893
 30
0.0
 11
70.376372125295461
 21
-31.0387111505928495
 31
0.0
  0
LINE
  5
1303A
  8
0
 10
70.3566270600341852
 20
-31.0580109209201893
 30
0.0
 11
70.3566270600341852
 21
-31.0424906287302207
 31
0.0
  0
LINE
  5
1303B
  8
0
 10
70.3753579803167213
 20
-31.0352278629023814
 30
0.0
 11
70.3844659096708227
 21
-31.0450896585050913
 31
0.0
  0
LINE
  5
1303C
  8
0
 10
70.3844659096708227
 20
-31.0450896585050913
 30
0.0
 11
70.4005556223583113
 21
-31.0545454087480799
 31
0.0
  0
LINE
  5
1303D
  8
0
 10
70.4005556223583113
 20
-31.0545454087480799
 30
0.0
 11
70.4041509490555342
 21
-31.0528739604953685
 31
0.0
  0
LINE
  5
1303E
  8
0
 10
70.4041509490555342
 20
-31.0528739604953685
 30
0.0
 11
70.4139934686423743
 21
-31.0440068853743298
 31
0.0
  0
LINE
  5
1303F
  8
0
 10
70.4139934686423743
 20
-31.0440068853743298
 30
0.0
 11
70.4041509490341895
 21
-31.0440442211201884
 31
0.0
  0
LINE
  5
13040
  8
0
 10
70.4041509490341895
 20
-31.0440442211201884
 30
0.0
 11
70.4021332001702831
 21
-31.0449826241741107
 31
0.0
  0
LINE
  5
13041
  8
0
 10
70.4021332001702831
 20
-31.0449826241741107
 30
0.0
 11
70.3844659096319987
 21
-31.03455356786084
 31
0.0
  0
LINE
  5
13042
  8
0
 10
70.3844659096319987
 20
-31.03455356786084
 30
0.0
 11
70.3772773218178003
 21
-31.0344434862514689
 31
0.0
  0
LINE
  5
13043
  8
0
 10
70.3844659097035787
 20
-31.0345535678627407
 30
0.0
 11
70.3844659096708654
 21
-31.0450896585051197
 31
0.0
  0
LINE
  5
13044
  8
0
 10
70.4000502016950804
 20
-31.0561804820421905
 30
0.0
 11
70.4005556223583113
 21
-31.0545454087480799
 31
0.0
  0
LINE
  5
13045
  8
0
 10
70.4139934687680835
 20
-31.0268015214337112
 30
0.0
 11
70.4041509490341895
 21
-31.0373749478819505
 31
0.0
  0
LINE
  5
13046
  8
0
 10
70.4041509490341895
 20
-31.0373749478819505
 30
0.0
 11
70.4021332000862685
 21
-31.0383133508651099
 31
0.0
  0
LINE
  5
13047
  8
0
 10
70.4021332000862685
 20
-31.0383133508651099
 30
0.0
 11
70.4021332460123119
 21
-31.0449826028541693
 31
0.0
  0
LINE
  5
13048
  8
0
 10
70.4021332001354665
 20
-31.0383133508649784
 30
0.0
 11
70.3880314744340581
 21
-31.0299073496756499
 31
0.0
  0
LINE
  5
13049
  8
0
 10
70.4041509513273667
 20
-31.0251325064090402
 30
0.0
 11
70.4041509513273667
 21
-31.0373749467090185
 31
0.0
  0
LINE
  5
1304A
  8
0
 10
70.1617551124341929
 20
-31.1263573573547809
 30
0.0
 11
70.1617551123744931
 21
-31.1236934567991312
 31
0.0
  0
LINE
  5
1304B
  8
0
 10
70.1814401517914632
 20
-31.1254409704680093
 30
0.0
 11
70.1814401517455195
 21
-31.1227902261210012
 31
0.0
  0
LINE
  5
1304C
  8
0
 10
70.1895939620485336
 20
-31.1228659048713396
 30
0.0
 11
70.1895939620341949
 21
-31.1185783004287302
 31
0.0
  0
LINE
  5
1304D
  8
0
 10
70.2092790014036581
 20
-31.11678179395998
 30
0.0
 11
70.2092790014623063
 21
-31.1210487887026517
 31
0.0
  0
LINE
  5
1304E
  8
0
 10
70.2174328117497737
 20
-31.1220765640852406
 30
0.0
 11
70.2174328117341986
 21
-31.1194744983211784
 31
0.0
  0
LINE
  5
1304F
  8
0
 10
70.2371178511342009
 20
-31.1193006629913214
 30
0.0
 11
70.2370950831418241
 21
-31.1167394151142886
 31
0.0
  0
LINE
  5
13050
  8
0
 10
70.1895939620341949
 20
-31.1245400215589001
 30
0.0
 11
70.1895939620341949
 21
-31.1254777695350491
 31
0.0
  0
LINE
  5
13051
  8
0
 10
70.2092790014622778
 20
-31.1227060858518492
 30
0.0
 11
70.2092790014622921
 21
-31.1236106230352014
 31
0.0
  0
LINE
  5
13052
  8
0
 10
70.2452716613341863
 20
-31.1160336898461409
 30
0.0
 11
70.2452716614083243
 21
-31.1118242840291508
 31
0.0
  0
LINE
  5
13053
  8
0
 10
70.2649567007341886
 20
-31.1123469712713394
 30
0.0
 11
70.2649567007843388
 21
-31.1081805758728009
 31
0.0
  0
LINE
  5
13054
  8
0
 10
70.27311051103419
 20
-31.1124720712201892
 30
0.0
 11
70.2731105110255641
 21
-31.1100123111480684
 31
0.0
  0
LINE
  5
13055
  8
0
 10
70.2731105109858731
 20
-31.1073867437270515
 30
0.0
 11
70.27311051103419
 21
-31.1045994641850889
 31
0.0
  0
LINE
  5
13056
  8
0
 10
70.2927955504396635
 20
-31.1077523874164896
 30
0.0
 11
70.2927955504017774
 21
-31.1053644296459417
 31
0.0
  0
LINE
  5
13057
  8
0
 10
70.2927955504341924
 20
-31.1027739945424599
 30
0.0
 11
70.2927955504341924
 21
-31.1000075572201915
 31
0.0
  0
LINE
  5
13058
  8
0
 10
70.300949360634192
 20
-31.1038241042459411
 30
0.0
 11
70.300949360694716
 21
-31.0997593997577617
 31
0.0
  0
LINE
  5
13059
  8
0
 10
70.3206344000341943
 20
-31.0981548691201901
 30
0.0
 11
70.3206344000085863
 21
-31.0941596136802509
 31
0.0
  0
LINE
  5
1305A
  8
0
 10
70.328788210372565
 20
-31.09251103109073
 30
0.0
 11
70.3287882103341957
 21
-31.0897985108201915
 31
0.0
  0
LINE
  5
1305B
  8
0
 10
70.3287882103341957
 20
-31.0972445148201899
 30
0.0
 11
70.3287882102818287
 21
-31.0950210576727812
 31
0.0
  0
LINE
  5
1305C
  8
0
 10
70.3484732496570757
 20
-31.0904255902856583
 30
0.0
 11
70.3484732497341838
 21
-31.0883124549201888
 31
0.0
  0
LINE
  5
1305D
  8
0
 10
70.3484732497154113
 20
-31.0858562903147018
 30
0.0
 11
70.3484732497341838
 21
-31.0831822793536787
 31
0.0
  0
LINE
  5
1305E
  8
0
 10
70.3564583130064989
 20
-31.0858906463259288
 30
0.0
 11
70.3566270599573897
 21
-31.0820113656934005
 31
0.0
  0
LINE
  5
1305F
  8
0
 10
70.3763120993342
 20
-31.0780066922835516
 30
0.0
 11
70.3763120993342
 21
-31.0742707119071291
 31
0.0
  0
LINE
  5
13060
  8
0
 10
70.3844659096726559
 20
-31.0758708722372603
 30
0.0
 11
70.3844659096342014
 21
-31.0740032078361992
 31
0.0
  0
LINE
  5
13061
  8
0
 10
70.3844659096342014
 20
-31.0716667021266488
 30
0.0
 11
70.3844659096342014
 21
-31.0690725826102891
 31
0.0
  0
LINE
  5
13062
  8
0
 10
70.4041509490174633
 20
-31.0627339811230989
 30
0.0
 11
70.4041509489698285
 21
-31.0573746660055185
 31
0.0
  0
LINE
  5
13063
  8
0
 10
70.4041509489820356
 20
-31.066697117060631
 30
0.0
 11
70.4041509490342037
 21
-31.0649915924358098
 31
0.0
  0
ARC
  5
13064
  8
0
 10
70.4085520572937469
 20
-31.0030451412666999
 30
0.0
 40
0.0521383333407297
 50
311.2340014828703261
 51
332.6033340647923069
  0
ARC
  5
13065
  8
0
 10
70.3502931104864331
 20
-30.9365761134412516
 30
0.0
 40
0.1405251906395216
 50
301.0418427074425836
 51
311.2340014828700987
  0
ARC
  5
13066
  8
0
 10
70.3330222052809404
 20
-30.9078799906986497
 30
0.0
 40
0.174017751411663
 50
294.1259707499211231
 51
301.0418427074425836
  0
ARC
  5
13067
  8
0
 10
70.1527292528260062
 20
-30.5624086957278713
 30
0.0
 40
0.5633340792396647
 50
285.2548136389356728
 51
294.2906926780249819
  0
ARC
  5
13068
  8
0
 10
70.1315685582399624
 20
-30.4848178547953808
 30
0.0
 40
0.6437586624961185
 50
280.173167265585505
 51
285.2548136389356728
  0
ARC
  5
13069
  8
0
 10
70.1682455997061254
 20
-30.6892094503256097
 30
0.0
 40
0.4361023847338003
 50
276.2578111977961157
 51
280.173167265585505
  0
ARC
  5
1306A
  8
0
 10
70.1359268471193502
 20
-30.0294576032460085
 30
0.0
 40
1.116175964142835
 50
270.4017468712477807
 51
278.8833580716229221
  0
ARC
  5
1306B
  8
0
 10
70.2193537786040309
 20
-30.6073340538292591
 30
0.0
 40
0.5323917825893976
 50
279.6164237358148057
 51
292.3724658316355089
  0
ARC
  5
1306C
  8
0
 10
70.3704092601875573
 20
-30.9743225974567906
 30
0.0
 40
0.1355311651551584
 50
292.3724658316355089
 51
312.6045582465058033
  0
ARC
  5
1306D
  8
0
 10
70.4239947642058723
 20
-31.0325870913599502
 30
0.0
 40
0.0563721006667002
 50
312.6045582465058033
 51
339.4156092703116769
  0
ARC
  5
1306E
  8
0
 10
70.4492747107336896
 20
-31.0420813392485684
 30
0.0
 40
0.0293680928267592
 50
339.4156092703103127
 51
23.4106657088040606
  0
ARC
  5
1306F
  8
0
 10
70.4184105492634274
 20
-31.0554442764466785
 30
0.0
 40
0.0630008826875942
 50
23.4106657088040606
 51
55.1716793199790274
  0
ARC
  5
13070
  8
0
 10
70.3182948995917911
 20
-31.199339995223621
 30
0.0
 40
0.2382981193786045
 50
55.1716793199790274
 51
73.3653438038978436
  0
ARC
  5
13071
  8
0
 10
70.1790731478977818
 20
-31.6653204012557801
 30
0.0
 40
0.7246317856517158
 50
73.3653438038978436
 51
82.401155187503619
  0
ARC
  5
13072
  8
0
 10
70.1558234673396726
 20
-31.8395954549107785
 30
0.0
 40
0.9004508459737079
 50
82.401155187503619
 51
87.5823212197897334
  0
ARC
  5
13073
  8
0
 10
70.1381737759544137
 20
-32.2576214436359905
 30
0.0
 40
1.31884926716538
 50
87.5823212197897334
 51
89.7576084323555676
  0
ARC
  5
13074
  8
0
 10
70.1459853559236848
 20
-31.9594677271049683
 30
0.0
 40
1.0309618080276
 50
82.2170025540808638
 51
90.1240527774222357
  0
ARC
  5
13075
  8
0
 10
70.1932563306693851
 20
-31.6136179426079202
 30
0.0
 40
0.6818964581429963
 50
73.3450959647345684
 51
82.2170025540808638
  0
ARC
  5
13076
  8
0
 10
70.3107213060652327
 20
-31.2209642275759194
 30
0.0
 40
0.2720489738598971
 50
56.8062048718302322
 51
73.3450959647345684
  0
ARC
  5
13077
  8
0
 10
70.421902569556508
 20
-31.0510212833363397
 30
0.0
 40
0.0689680105759633
 50
35.000903351794932
 51
56.8062048718305519
  0
ARC
  5
13078
  8
0
 10
70.4409021244680247
 20
-31.0377172053345589
 30
0.0
 40
0.0457735806775114
 50
4.1052240255384476
 51
35.000903351794932
  0
ARC
  5
13079
  8
0
 10
70.4628220475484426
 20
-31.0361439568482496
 30
0.0
 40
0.0237972721010002
 50
336.298967075175824
 51
4.1052240255384476
  0
ARC
  5
1307A
  8
0
 10
70.407593977466675
 20
-31.0118993415267994
 30
0.0
 40
0.0841126192113353
 50
326.5261299453372885
 51
336.298967075175824
  0
ARC
  5
1307B
  8
0
 10
70.4105003261138904
 20
-31.0061156891322582
 30
0.0
 40
0.0851213441609339
 50
308.8545561049559751
 51
322.1956953515729083
  0
ARC
  5
1307C
  8
0
 10
70.4019627023340036
 20
-30.9931170363471402
 30
0.0
 40
0.100375095601688
 50
313.6307623648664276
 51
330.6356455315884091
  0
ARC
  5
1307D
  8
0
 10
70.4333874635914015
 20
-31.0107982307545704
 30
0.0
 40
0.0643176379021016
 50
330.6356455315884091
 51
350.710811162231721
  0
ARC
  5
1307E
  8
0
 10
70.4025327441661091
 20
-31.0057515546054283
 30
0.0
 40
0.0955823568512388
 50
350.710811162231721
 51
358.6736374270000169
  0
ARC
  5
1307F
  8
0
 10
70.4657148958951893
 20
-31.0072144444554496
 30
0.0
 40
0.0323832718592053
 50
358.6736374269992211
 51
28.0755972944060801
  0
ARC
  5
13080
  8
0
 10
70.429461741035368
 20
-31.0265519882902296
 30
0.0
 40
0.0734713703653698
 50
28.0755972944060801
 51
55.9654212343145474
  0
ARC
  5
13081
  8
0
 10
70.3272700238566131
 20
-31.1778603829269798
 30
0.0
 40
0.2560566308534296
 50
55.9654212343151301
 51
73.407255947003776
  0
ARC
  5
13082
  8
0
 10
70.1811507359997506
 20
-31.6682346070915592
 30
0.0
 40
0.7677379047034765
 50
73.407255947003776
 51
83.3460629838666165
  0
ARC
  5
13083
  8
0
 10
70.1472105110472057
 20
-31.9591723511664405
 30
0.0
 40
1.0606486586836059
 50
83.3460629838666165
 51
88.8787367119481928
  0
ARC
  5
13084
  8
0
 10
70.1419237777763556
 20
-32.2129703651190198
 30
0.0
 40
1.314501729247965
 50
88.8066742559679057
 51
89.9202604745733538
  0
LINE
  5
13085
  8
0
 10
70.4980894930342004
 20
-31.0079804258201897
 30
0.0
 11
70.4980894911341949
 21
-30.9523314795201898
 31
0.0
  0
ARC
  5
13086
  8
0
 10
70.4628576531439705
 20
-30.9523314807230889
 30
0.0
 40
0.0352318379902226
 50
0.0000019562273824
 51
24.4204074788169088
  0
ARC
  5
13087
  8
0
 10
70.4412410846454407
 20
-30.9621464762223084
 30
0.0
 40
0.0589723133498623
 50
24.4204074788172782
 51
50.6892224176048671
  0
ARC
  5
13088
  8
0
 10
70.3551141827393565
 20
-31.0673326134039094
 30
0.0
 40
0.1949207104979152
 50
50.6892224176048671
 51
72.3773357839289844
  0
ARC
  5
13089
  8
0
 10
70.1701889660688352
 20
-31.6494916684951306
 30
0.0
 40
0.8057451543320926
 50
72.3773357839289844
 51
82.2456885202682173
  0
ARC
  5
1308A
  8
0
 10
70.1154971017224398
 20
-33.4031348381698976
 30
0.0
 40
2.5604533963810399
 50
88.135994946675126
 51
89.3676949640097433
  0
ARC
  5
1308B
  8
0
 10
70.1456303455925223
 20
-31.94641410345994
 30
0.0
 40
1.128382975865327
 50
81.6786831283982053
 51
90.0953160708987468
  0
ARC
  5
1308C
  8
0
 10
70.2095425700797762
 20
-31.5094499009678408
 30
0.0
 40
0.6867694721106609
 50
72.001742303288367
 51
81.6786831283982053
  0
ARC
  5
1308D
  8
0
 10
70.3392276606778069
 20
-31.1102789309966212
 30
0.0
 40
0.2670604228977804
 50
55.8286805853644807
 51
72.001742303288367
  0
ARC
  5
1308E
  8
0
 10
70.446366388043657
 20
-30.9524592057128487
 30
0.0
 40
0.0763098722033799
 50
28.5161828765436915
 51
55.8286805853644807
  0
ARC
  5
1308F
  8
0
 10
70.4816764802129825
 20
-30.9332744747025288
 30
0.0
 40
0.0361245948876223
 50
354.6579999710460243
 51
28.516182876544601
  0
ARC
  5
13090
  8
0
 10
70.4778290691850202
 20
-30.9329147164063585
 30
0.0
 40
0.0399887891955842
 50
338.4635016402972951
 51
354.6579999710456264
  0
ARC
  5
13091
  8
0
 10
70.4560980845188851
 20
-30.9219681544553886
 30
0.0
 40
0.0642588598958308
 50
310.8519357587529157
 51
336.4970444964233138
  0
ARC
  5
13092
  8
0
 10
70.1451884682755065
 20
-32.1779500119675674
 30
0.0
 40
1.384250006401011
 50
82.2713981469869822
 51
90.0594078317837727
  0
ARC
  5
13093
  8
0
 10
70.2192242709473931
 20
-31.6324205339833817
 30
0.0
 40
0.8337196153897817
 50
70.0548955678331993
 51
82.2713981469869822
  0
ARC
  5
13094
  8
0
 10
70.4273243959448649
 20
-31.0589611929752785
 30
0.0
 40
0.223669389741601
 50
48.7624666701734597
 51
70.0548955678328156
  0
ARC
  5
13095
  8
0
 10
70.5301112246591941
 20
-30.9417038207990487
 30
0.0
 40
0.0677385605678153
 50
16.1600206051395894
 51
48.7624666701740423
  0
ARC
  5
13096
  8
0
 10
70.5574816252486983
 20
-30.9337726904636696
 30
0.0
 40
0.0392422159456189
 50
340.587167207423704
 51
16.1600206051382997
  0
ARC
  5
13097
  8
0
 10
70.5267077781067684
 20
-30.9229277602197286
 30
0.0
 40
0.0718710709655307
 50
324.3391511502143203
 51
340.587167207423704
  0
ARC
  5
13098
  8
0
 10
70.5227558538239236
 20
-30.9200921073019686
 30
0.0
 40
0.0767350850493293
 50
311.3080777644702835
 51
324.3391511502138087
  0
ARC
  5
13099
  8
0
 10
70.4459151962067693
 20
-30.8326510878447984
 30
0.0
 40
0.1931413501158916
 50
301.4766304244449202
 51
311.3080777644697719
  0
ARC
  5
1309A
  8
0
 10
70.3840514236775334
 20
-30.7205222505324116
 30
0.0
 40
0.3211251598975728
 50
290.5666513560015005
 51
300.4439682150027124
  0
ARC
  5
1309B
  8
0
 10
70.4803131075200042
 20
-30.851316950724911
 30
0.0
 40
0.1567780082595126
 50
307.2162619425399726
 51
323.4470299901381054
  0
ARC
  5
1309C
  8
0
 10
70.5664463283054459
 20
-30.9151754969635597
 30
0.0
 40
0.0495546635505068
 50
323.4470299901381054
 51
346.1621115648898126
  0
ARC
  5
1309D
  8
0
 10
70.5659630692949662
 20
-30.91505645826226
 30
0.0
 40
0.0500523677634878
 50
346.1621115648903242
 51
20.6089203458780297
  0
ARC
  5
1309E
  8
0
 10
70.5448754804410925
 20
-30.9229865089936915
 30
0.0
 40
0.0725817287902166
 50
20.6089203458780297
 51
56.0181339326492989
  0
ARC
  5
1309F
  8
0
 10
70.1441688235833141
 20
-32.3429538244435406
 30
0.0
 40
1.5651636695091691
 50
86.3309535245056026
 51
90.0152149836282831
  0
ARC
  5
130A0
  8
0
 10
70.155827016132406
 20
-32.1565118260601892
 30
0.0
 40
1.3783575341316281
 50
80.2117951946778618
 51
86.4219612825889669
  0
ARC
  5
130A1
  8
0
 10
70.2468078100932303
 20
-31.6291419426212315
 30
0.0
 40
0.8431972788546191
 50
73.5626850303750643
 51
80.2117951946778618
  0
ARC
  5
130A2
  8
0
 10
70.3377845647132744
 20
-31.3207710684425784
 30
0.0
 40
0.5216862122909544
 50
64.5054088035285957
 51
73.5626850303750643
  0
ARC
  5
130A3
  8
0
 10
70.4741785514835897
 20
-31.0347456435252695
 30
0.0
 40
0.2048047465561708
 50
57.0932143778350607
 51
64.5054088035285957
  0
ARC
  5
130A4
  8
0
 10
70.1453960297174319
 20
-32.3371752254580827
 30
0.0
 40
1.5624274321313649
 50
85.3932888513793671
 51
90.0602445187612659
  0
ARC
  5
130A5
  8
0
 10
70.1681118219660505
 20
-32.0555135789175267
 30
0.0
 40
1.279851265703148
 50
76.8408829621599523
 51
85.3942093717980271
  0
ARC
  5
130A6
  8
0
 10
70.3337443838515242
 20
-31.3470621082120999
 30
0.0
 40
0.5522953352748236
 50
65.1434945272817458
 51
76.8408829621599523
  0
ARC
  5
130A7
  8
0
 10
70.4839502662706963
 20
-31.0305874542268789
 30
0.0
 40
0.2020255524869514
 50
44.7595712598060018
 51
66.068688343268434
  0
ARC
  5
130A8
  8
0
 10
70.5848456220823266
 20
-30.9319205738996708
 30
0.0
 40
0.0609163138146518
 50
1.929999750537323
 51
45.6847650757931802
  0
ARC
  5
130A9
  8
0
 10
70.5838779280118302
 20
-30.9272268717757903
 30
0.0
 40
0.0619058598566266
 50
316.2843925395575866
 51
357.553881312174326
  0
ARC
  5
130AA
  8
0
 10
70.520149425127812
 20
-30.8725085435005617
 30
0.0
 40
0.1458513795335689
 50
303.0629402439121236
 51
318.049371392383307
  0
ARC
  5
130AB
  8
0
 10
70.4272830622190327
 20
-30.7288932172420388
 30
0.0
 40
0.3168759328273547
 50
291.4721111599802157
 51
302.9685368992725785
  0
ARC
  5
130AC
  8
0
 10
70.3307858749892318
 20
-30.4948167109594905
 30
0.0
 40
0.5700440543809212
 50
286.1600645473290001
 51
291.8858764069137237
  0
ARC
  5
130AD
  8
0
 10
70.3721613535362849
 20
-30.6305070456107416
 30
0.0
 40
0.4240968843945993
 50
286.410989338763784
 51
299.6843046955941077
  0
ARC
  5
130AE
  8
0
 10
70.5245423497338209
 20
-30.8912178534280493
 30
0.0
 40
0.1221815399159839
 50
298.1487075575615222
 51
330.7520492235294114
  0
ARC
  5
130AF
  8
0
 10
70.5867297585814413
 20
-30.9299401067089512
 30
0.0
 40
0.0491207973800339
 50
334.722871822156776
 51
15.8205072726277098
  0
ARC
  5
130B0
  8
0
 10
70.5437446010023734
 20
-30.9517826012143082
 30
0.0
 40
0.0968795548699436
 50
21.3269270092855088
 51
44.4624646690321228
  0
ARC
  5
130B1
  8
0
 10
70.50798937751685
 20
-30.9930451054339997
 30
0.0
 40
0.151364491624114
 50
46.1301126933487211
 51
58.2848040109085304
  0
ARC
  5
130B2
  8
0
 10
69.4975008152792952
 20
-29.9418735416526509
 30
0.0
 40
1.5176235048538791
 50
324.7604955418465238
 51
339.7508298965205995
  0
ARC
  5
130B3
  8
0
 10
69.8590796377584837
 20
-30.1973128849613488
 30
0.0
 40
1.0749176171864361
 50
317.0393146432995195
 51
324.7604955418465238
  0
ARC
  5
130B4
  8
0
 10
70.0457358665225058
 20
-33.0335023937267422
 30
0.0
 40
2.194808591730506
 50
83.9015919165763933
 51
86.0014725314303519
  0
ARC
  5
130B5
  8
0
 10
69.6486477677859739
 20
-30.8090347973004306
 30
0.0
 40
0.0985244751996154
 50
163.9298329651020083
 51
184.9499599978547906
  0
ARC
  5
130B6
  8
0
 10
69.7316301755880517
 20
-30.832939638408341
 30
0.0
 40
0.1848814172079216
 50
137.0673254853271885
 51
163.9298329651020083
  0
ARC
  5
130B7
  8
0
 10
69.7602796175334561
 20
-30.8595928053447892
 30
0.0
 40
0.2240117357796618
 50
107.5141752359799057
 51
137.0673254853278138
  0
ARC
  5
130B8
  8
0
 10
70.1494178950624985
 20
-32.8122085451617735
 30
0.0
 40
2.2138311903620198
 50
90.1467348612034129
 51
101.9013622137488966
  0
ARC
  5
130B9
  8
0
 10
70.1375554568062682
 20
-32.8171534868281682
 30
0.0
 40
2.2187775144060322
 50
78.111785614633007
 51
89.8400820957244548
  0
ARC
  5
130BA
  8
0
 10
70.5320386533124406
 20
-30.8509062933697109
 30
0.0
 40
0.2142856433855733
 50
25.6377265119933995
 51
73.0166756434161357
  0
ARC
  5
130BB
  8
0
 10
70.6137311037784201
 20
-30.8111802936718604
 30
0.0
 40
0.1234482560916081
 50
357.0490177733673818
 51
25.4204015766146192
  0
LINE
  5
130BC
  8
0
 10
70.1244970268800216
 20
-30.9450494362649913
 30
0.0
 11
70.1240625620341831
 21
-30.9456581181201891
 31
0.0
  0
LINE
  5
130BD
  8
0
 10
70.1240625620341831
 20
-30.9456581181201891
 30
0.0
 11
70.1339050817341985
 21
-30.9595240944874988
 31
0.0
  0
LINE
  5
130BE
  8
0
 10
70.1339050817341985
 20
-30.9595240944874988
 30
0.0
 11
70.1535901211341866
 21
-30.9595240943237187
 31
0.0
  0
LINE
  5
130BF
  8
0
 10
70.1535901211341866
 20
-30.9595240943237187
 30
0.0
 11
70.1634326408342019
 21
-30.9456581181201891
 31
0.0
  0
LINE
  5
130C0
  8
0
 10
70.1634326408342019
 20
-30.9456581181201891
 30
0.0
 11
70.1629944635693334
 21
-30.9450491460127886
 31
0.0
  0
LINE
  5
130C1
  8
0
 10
70.1339050817341985
 20
-30.9758142089201911
 30
0.0
 11
70.1240625620627185
 21
-30.9877309617645516
 31
0.0
  0
LINE
  5
130C2
  8
0
 10
70.1240625620627185
 20
-30.9877309617645516
 30
0.0
 11
70.1339050816742997
 21
-30.9995637453958111
 31
0.0
  0
LINE
  5
130C3
  8
0
 10
70.1339050816742997
 20
-30.9995637453958111
 30
0.0
 11
70.1535901211341866
 21
-30.9995637454201898
 31
0.0
  0
LINE
  5
130C4
  8
0
 10
70.1535901211341866
 20
-30.9995637454201898
 30
0.0
 11
70.1634326408583604
 21
-30.9877309617353802
 31
0.0
  0
LINE
  5
130C5
  8
0
 10
70.1634326408583604
 20
-30.9877309617353802
 30
0.0
 11
70.1535901211341866
 21
-30.9758142088897017
 31
0.0
  0
LINE
  5
130C6
  8
0
 10
70.1535901211341866
 20
-30.9758142088897017
 30
0.0
 11
70.1339050817590248
 21
-30.9758142088901316
 31
0.0
  0
LINE
  5
130C7
  8
0
 10
70.1339050817341985
 20
-31.013410749279501
 30
0.0
 11
70.1240625621109928
 21
-31.0234841907803407
 31
0.0
  0
LINE
  5
130C8
  8
0
 10
70.1240625621109928
 20
-31.0234841907803407
 30
0.0
 11
70.1339050817341985
 21
-31.0335151195201888
 31
0.0
  0
LINE
  5
130C9
  8
0
 10
70.1339050817341985
 20
-31.0335151195201888
 30
0.0
 11
70.1535901210513089
 21
-31.0335151194978813
 31
0.0
  0
LINE
  5
130CA
  8
0
 10
70.1535901210513089
 20
-31.0335151194978813
 30
0.0
 11
70.163432640746592
 21
-31.0234841908394507
 31
0.0
  0
LINE
  5
130CB
  8
0
 10
70.163432640746592
 20
-31.0234841908394507
 30
0.0
 11
70.1535901211341866
 21
-31.0134107494251587
 31
0.0
  0
LINE
  5
130CC
  8
0
 10
70.1535901211341866
 20
-31.0134107494251587
 30
0.0
 11
70.1339050817341985
 21
-31.0134107494251587
 31
0.0
  0
LINE
  5
130CD
  8
0
 10
70.1240625619929148
 20
-31.05355607635029
 30
0.0
 11
70.1339050817341985
 21
-31.0619302318131005
 31
0.0
  0
LINE
  5
130CE
  8
0
 10
70.1339050817341985
 20
-31.0619302318131005
 30
0.0
 11
70.1535901211341866
 21
-31.0619302318131005
 31
0.0
  0
LINE
  5
130CF
  8
0
 10
70.1535901211341866
 20
-31.0619302318131005
 30
0.0
 11
70.1634326408222648
 21
-31.0535560764395413
 31
0.0
  0
LINE
  5
130D0
  8
0
 10
70.1634326408222648
 20
-31.0535560764395413
 30
0.0
 11
70.1535901211341866
 21
-31.0451643198201914
 31
0.0
  0
LINE
  5
130D1
  8
0
 10
70.1535901211341866
 20
-31.0451643198201914
 30
0.0
 11
70.1339050817341985
 21
-31.0451643198201914
 31
0.0
  0
LINE
  5
130D2
  8
0
 10
70.1339050817341985
 20
-31.0451643198201914
 30
0.0
 11
70.1240625620536235
 21
-31.0535560764079683
 31
0.0
  0
LINE
  5
130D3
  8
0
 10
70.1339050817341985
 20
-31.0619302318131005
 30
0.0
 11
70.1339050817341985
 21
-31.0451643198201914
 31
0.0
  0
LINE
  5
130D4
  8
0
 10
70.1535901211341866
 20
-31.0451643198201914
 30
0.0
 11
70.1535901211341866
 21
-31.0619302318131005
 31
0.0
  0
LINE
  5
130D5
  8
0
 10
70.1535901210513089
 20
-31.0335151194978813
 30
0.0
 11
70.1535901210513089
 21
-31.0134107494251587
 31
0.0
  0
LINE
  5
130D6
  8
0
 10
70.1339050817341985
 20
-31.0134107494251587
 30
0.0
 11
70.1339050817569785
 21
-31.0335151195201888
 31
0.0
  0
LINE
  5
130D7
  8
0
 10
70.1339050816742997
 20
-30.9995637453958111
 30
0.0
 11
70.1339050817341985
 21
-30.9758142089201911
 31
0.0
  0
LINE
  5
130D8
  8
0
 10
70.1535901211341866
 20
-30.9758142088897017
 30
0.0
 11
70.1535901211341866
 21
-30.9995637454201898
 31
0.0
  0
LINE
  5
130D9
  8
0
 10
70.1339050817341985
 20
-30.9595240944874988
 30
0.0
 11
70.1339050817341985
 21
-30.9449120496573187
 31
0.0
  0
LINE
  5
130DA
  8
0
 10
70.1535901211341866
 20
-30.9595240943237187
 30
0.0
 11
70.1535901211341866
 21
-30.944911941149261
 31
0.0
  0
LINE
  5
130DB
  8
0
 10
69.1508835822353944
 20
-34.0027350277201919
 30
0.0
 11
69.1508835822353376
 21
-34.3964358151198297
 31
0.0
  0
LINE
  5
130DC
  8
0
 10
71.1366228016328535
 20
-34.0027350277201919
 30
0.0
 11
71.1366228016327966
 21
-34.3964358151201921
 31
0.0
  0
LINE
  5
130DD
  8
0
 10
66.4232863415341939
 20
-34.3964358151201921
 30
0.0
 11
64.4154123257341951
 21
-34.3964358151201921
 31
0.0
  0
LINE
  5
130DE
  8
0
 10
64.4154123257341951
 20
-34.0027350277201919
 30
0.0
 11
66.4232863415341939
 21
-34.0027350277201919
 31
0.0
  0
LINE
  5
130DF
  8
0
 10
64.4154123257341951
 20
-34.3964358151201921
 30
0.0
 11
64.4154123257341951
 21
-34.0027350277201919
 31
0.0
  0
LINE
  5
130E0
  8
0
 10
66.4232863415341939
 20
-34.3964358151201921
 30
0.0
 11
66.4232863415341939
 21
-34.0027350277201919
 31
0.0
  0
LINE
  5
130E1
  8
0
 10
66.1083257116368088
 20
-34.0027350277201919
 30
0.0
 11
66.1083257116368088
 21
-32.6050972324201922
 31
0.0
  0
LINE
  5
130E2
  8
0
 10
66.1083257116368088
 20
-32.569664161520187
 30
0.0
 11
66.1083257116368088
 21
-31.2392481790908896
 31
0.0
  0
ARC
  5
130E3
  8
0
 10
66.088640629863832
 20
-31.2392481793804002
 30
0.0
 40
0.0196850817729775
 50
0.0000008426835355
 51
89.7054414882521769
  0
ARC
  5
130E4
  8
0
 10
-4716.0448195867647883
 20
-930198.023219671100378
 30
0.0
 40
930179.0964247698429972
 50
89.7054359980850649
 51
89.705631560080306
  0
ARC
  5
130E5
  8
0
 10
62.9138720350332505
 20
-31.2229159198016717
 30
0.0
 40
0.0196651953035639
 50
180.0071091889984132
 51
190.2199208573887859
  0
ARC
  5
130E6
  8
0
 10
62.9138758101504365
 20
-31.2229153549270393
 30
0.0
 40
0.0196689704989077
 50
89.9417443371791734
 51
180.0087533062369971
  0
ARC
  5
130E7
  8
0
 10
63.1700975209219635
 20
-31.1798353569577493
 30
0.0
 40
0.2794858523332843
 50
189.5917234993218017
 51
206.9381631120818952
  0
ARC
  5
130E8
  8
0
 10
63.1185176345419876
 20
-31.1979165451730012
 30
0.0
 40
0.2254278406323066
 50
208.7806295682142093
 51
241.1950262471322048
  0
ARC
  5
130E9
  8
0
 10
63.2744615455370578
 20
-30.8553609403364995
 30
0.0
 40
0.6014068794297983
 50
243.9021953306570936
 51
263.843344875115406
  0
ARC
  5
130EA
  8
0
 10
63.6276603484528991
 20
-26.8058407517234301
 30
0.0
 40
4.6661912804915611
 50
264.8642456814262118
 51
268.8335824847252979
  0
ARC
  5
130EB
  8
0
 10
62.3198041686057422
 20
-74.4033797270160164
 30
0.0
 40
42.9494433957522403
 50
87.7446719969606761
 51
88.3817828092259532
  0
ARC
  5
130EC
  8
0
 10
64.0216938187903963
 20
-32.5962529192545674
 30
0.0
 40
1.109108973189725
 50
70.9703730949905349
 51
90.6050232216948785
  0
ARC
  5
130ED
  8
0
 10
64.2538820391926748
 20
-31.9085338633109608
 30
0.0
 40
0.3832963586318566
 50
36.2323620123613566
 51
70.2623392666291977
  0
ARC
  5
130EE
  8
0
 10
63.9808852788382509
 20
-32.1355537889999709
 30
0.0
 40
0.7380064505552242
 50
5.6723575321863331
 51
37.9221556328646727
  0
ARC
  5
130EF
  8
0
 10
62.8448294369599481
 20
-32.3017250747267823
 30
0.0
 40
1.885670714683658
 50
359.2959507851459762
 51
7.285099977169982
  0
ARC
  5
130F0
  8
0
 10
-423.9511671358063722
 20
-32.4472798656542096
 30
0.0
 40
488.6815402512277728
 50
359.9856509748631765
 51
0.0143490251368579
  0
LINE
  5
130F1
  8
0
 10
64.730357790598319
 20
-32.569664161520187
 30
0.0
 11
66.1083257116368088
 21
-32.569664161520187
 31
0.0
  0
LINE
  5
130F2
  8
0
 10
66.1083257116368088
 20
-32.6050972324201922
 30
0.0
 11
64.7303729556341949
 21
-32.6050972324201922
 31
0.0
  0
LINE
  5
130F3
  8
0
 10
64.7303729556341949
 20
-32.6050972324201922
 30
0.0
 11
64.7303729556341949
 21
-34.0027350277201919
 31
0.0
  0
LINE
  5
130F4
  8
0
 10
66.0000579950341972
 20
-32.6050972324201922
 30
0.0
 11
66.0000579950341972
 21
-32.569664161520187
 31
0.0
  0
LINE
  5
130F5
  8
0
 10
64.8386406722341917
 20
-32.569664161520187
 30
0.0
 11
64.8386406722341917
 21
-32.6050972324201922
 31
0.0
  0
LINE
  5
130F6
  8
0
 10
71.4375307303412654
 20
-32.3087621982200091
 30
0.0
 11
71.1366786130839017
 21
-32.3087621982200091
 31
0.0
  0
LINE
  5
130F7
  8
0
 10
71.4375307303414644
 20
-32.4743119720200113
 30
0.0
 11
71.1366731587029761
 21
-32.4743119720200113
 31
0.0
  0
ARC
  5
130F8
  8
0
 10
71.1212948795942452
 20
-32.3971613065323325
 30
0.0
 40
0.3994980505677482
 50
0.8066492316116955
 51
9.1282939112086812
  0
ARC
  5
130F9
  8
0
 10
71.4862077817396653
 20
-32.344658422126713
 30
0.0
 40
0.0314650775472444
 50
20.2211711698801899
 51
81.3832465716549933
  0
ARC
  5
130FA
  8
0
 10
71.4398359004877648
 20
-32.5832313951789772
 30
0.0
 40
0.2744788769444872
 50
79.2735386487606064
 51
90.4811957648031751
  0
ARC
  5
130FB
  8
0
 10
71.137765336141797
 20
-32.3873444200902867
 30
0.0
 40
0.3830109509319284
 50
350.6922629679688725
 51
359.3727938892106977
  0
ARC
  5
130FC
  8
0
 10
71.4862077817396653
 20
-32.4384157481133002
 30
0.0
 40
0.0314650775472444
 50
278.6167534283450209
 51
339.7788288301197781
  0
ARC
  5
130FD
  8
0
 10
71.4398359004877648
 20
-32.1998427750610432
 30
0.0
 40
0.2744788769444872
 50
269.5188042351967965
 51
280.7264613512393794
  0
ENDSEC
  0
EOF
