  0
SECTION
  2
HEADER
  9
$ACADVER
  1
AC1009
  9
$INSBASE
 10
371.2889200156815264
 20
54.0141920331387269
 30
0.0
  9
$EXTMIN
 10
370.284982993422318
 20
52.8724597497170024
 30
0.0
  9
$EXTMAX
 10
372.2928570379410758
 20
55.1559243165604514
 30
0.0
  9
$LIMMIN
 10
0.0
 20
0.0
  9
$LIMMAX
 10
11.6929133858000007
 20
8.2677165353999982
  9
$ORTHOMODE
 70
     0
  9
$REGENMODE
 70
     1
  9
$FILLMODE
 70
     1
  9
$QTEXTMODE
 70
     0
  9
$MIRRTEXT
 70
     0
  9
$DRAGMODE
 70
     2
  9
$LTSCALE
 40
0.6431102362
  9
$OSMODE
 70
   575
  9
$ATTMODE
 70
     1
  9
$TEXTSIZE
 40
0.2
  9
$TRACEWID
 40
0.05
  9
$TEXTSTYLE
  7
STANDARD
  9
$CLAYER
  8
0
  9
$CELTYPE
  6
BYLAYER
  9
$CECOLOR
 62
   256
  9
$DIMSCALE
 40
1.0
  9
$DIMASZ
 40
0.1875
  9
$DIMEXO
 40
0.0625
  9
$DIMDLI
 40
0.4443307087
  9
$DIMRND
 40
0.0
  9
$DIMDLE
 40
0.0
  9
$DIMEXE
 40
0.125
  9
$DIMTP
 40
0.01
  9
$DIMTM
 40
0.01
  9
$DIMTXT
 40
1.0
  9
$DIMCEN
 40
0.1052362205
  9
$DIMTSZ
 40
0.0
  9
$DIMTOL
 70
     1
  9
$DIMLIM
 70
     0
  9
$DIMTIH
 70
     0
  9
$DIMTOH
 70
     1
  9
$DIMSE1
 70
     0
  9
$DIMSE2
 70
     0
  9
$DIMTAD
 70
     0
  9
$DIMZIN
 70
     0
  9
$DIMBLK
  1

  9
$DIMASO
 70
     1
  9
$DIMSHO
 70
     1
  9
$DIMPOST
  1
\X
  9
$DIMAPOST
  1

  9
$DIMALT
 70
     1
  9
$DIMALTD
 70
     2
  9
$DIMALTF
 40
25.3999999999999986
  9
$DIMLFAC
 40
1.0
  9
$DIMTOFL
 70
     0
  9
$DIMTVP
 40
0.0
  9
$DIMTIX
 70
     0
  9
$DIMSOXD
 70
     0
  9
$DIMSAH
 70
     0
  9
$DIMBLK1
  1

  9
$DIMBLK2
  1

  9
$DIMSTYLE
  2
STANDARD
  9
$DIMCLRD
 70
     0
  9
$DIMCLRE
 70
     0
  9
$DIMCLRT
 70
     0
  9
$DIMTFAC
 40
1.0
  9
$DIMGAP
 40
0.09
  9
$LUNITS
 70
     2
  9
$LUPREC
 70
     4
  9
$SKETCHINC
 40
0.1
  9
$FILLETRAD
 40
0.0
  9
$AUNITS
 70
     0
  9
$AUPREC
 70
     0
  9
$MENU
  1
.
  9
$ELEVATION
 40
0.0
  9
$PELEVATION
 40
0.0
  9
$THICKNESS
 40
0.0
  9
$LIMCHECK
 70
     0
  9
$BLIPMODE
 70
     0
  9
$CHAMFERA
 40
0.0
  9
$CHAMFERB
 40
0.0
  9
$SKPOLY
 70
     0
  9
$TDCREATE
 40
2458172.5207638889551163
  9
$TDUPDATE
 40
2459593.6649768520146608
  9
$TDINDWG
 40
0.3012587731
  9
$TDUSRTIMER
 40
0.3012587731
  9
$USRTIMER
 70
     1
  9
$ANGBASE
 50
0.0
  9
$ANGDIR
 70
     0
  9
$PDMODE
 70
     0
  9
$PDSIZE
 40
0.3125
  9
$PLINEWID
 40
0.0
  9
$COORDS
 70
     1
  9
$SPLFRAME
 70
     0
  9
$SPLINETYPE
 70
     6
  9
$SPLINESEGS
 70
     8
  9
$ATTDIA
 70
     1
  9
$ATTREQ
 70
     1
  9
$HANDLING
 70
     1
  9
$HANDSEED
  5
1188D
  9
$SURFTAB1
 70
     6
  9
$SURFTAB2
 70
     6
  9
$SURFTYPE
 70
     6
  9
$SURFU
 70
     6
  9
$SURFV
 70
     6
  9
$UCSNAME
  2

  9
$UCSORG
 10
0.0
 20
0.0
 30
0.0
  9
$UCSXDIR
 10
1.0
 20
0.0
 30
0.0
  9
$UCSYDIR
 10
0.0
 20
1.0
 30
0.0
  9
$PUCSNAME
  2

  9
$PUCSORG
 10
0.0
 20
0.0
 30
0.0
  9
$PUCSXDIR
 10
1.0
 20
0.0
 30
0.0
  9
$PUCSYDIR
 10
0.0
 20
1.0
 30
0.0
  9
$USERI1
 70
     0
  9
$USERI2
 70
     0
  9
$USERI3
 70
     0
  9
$USERI4
 70
     0
  9
$USERI5
 70
     0
  9
$USERR1
 40
0.0
  9
$USERR2
 40
0.0
  9
$USERR3
 40
0.0
  9
$USERR4
 40
0.0
  9
$USERR5
 40
0.0
  9
$WORLDVIEW
 70
     1
  9
$SHADEDGE
 70
     3
  9
$SHADEDIF
 70
    70
  9
$TILEMODE
 70
     1
  9
$MAXACTVP
 70
    64
  9
$PLIMCHECK
 70
     0
  9
$PEXTMIN
 10
1.0000000000000000E+20
 20
1.0000000000000000E+20
 30
1.0000000000000000E+20
  9
$PEXTMAX
 10
-1.0000000000000000E+20
 20
-1.0000000000000000E+20
 30
-1.0000000000000000E+20
  9
$PLIMMIN
 10
0.0
 20
0.0
  9
$PLIMMAX
 10
12.0
 20
9.0
  9
$UNITMODE
 70
     0
  9
$VISRETAIN
 70
     1
  9
$PLINEGEN
 70
     0
  9
$PSLTSCALE
 70
     1
  0
ENDSEC
  0
SECTION
  2
TABLES
  0
TABLE
  2
VPORT
 70
     1
  0
VPORT
  2
*ACTIVE
 70
     0
 10
0.0
 20
0.0
 11
1.0
 21
1.0
 12
-56.6282092066987772
 22
-15.9287889805372007
 13
0.0
 23
0.0
 14
1.0
 24
1.0
 15
0.0
 25
0.0
 16
0.0
 26
0.0
 36
14.6338572656650907
 17
429.6292891080536833
 27
69.7025415122186871
 37
0.0
 40
4.6056289986322261
 41
2.469551282051281
 42
50.0
 43
0.0
 44
0.0
 50
0.0
 51
0.0
 71
     0
 72
   100
 73
     1
 74
     1
 75
     0
 76
     0
 77
     0
 78
     0
  0
ENDTAB
  0
TABLE
  2
LTYPE
 70
     2
  0
LTYPE
  2
CONTINUOUS
 70
     0
  3
Solid line
 72
    65
 73
     0
 40
0.0
  0
LTYPE
  2
PHANTOM2
 70
     0
  3
___ _ _ ___ _ _ ___ _ _ ___ _ _
 72
    65
 73
     6
 40
1.25
 49
0.625
 49
-0.125
 49
0.125
 49
-0.125
 49
0.125
 49
-0.125
  0
ENDTAB
  0
TABLE
  2
LAYER
 70
     2
  0
LAYER
  2
0
 70
     0
 62
   255
  6
CONTINUOUS
  0
LAYER
  2
DEFPOINTS
 70
     0
 62
     7
  6
CONTINUOUS
  0
ENDTAB
  0
TABLE
  2
STYLE
 70
     1
  0
STYLE
  2
STANDARD
 70
     0
 40
0.0
 41
0.8
 50
0.0
 71
     0
 42
0.2
  3
txt
  4

  0
ENDTAB
  0
TABLE
  2
VIEW
 70
     0
  0
ENDTAB
  0
TABLE
  2
UCS
 70
     0
  0
ENDTAB
  0
TABLE
  2
APPID
 70
    10
  0
APPID
  2
ACAD
 70
     0
  0
APPID
  2
ACAD_MLEADERVER
 70
     0
  0
APPID
  2
ACAD_EXEMPT_FROM_CAD_STANDARDS
 70
     0
  0
APPID
  2
ACAD_DSTYLE_DIMJAG
 70
     0
  0
APPID
  2
ACAD_DSTYLE_DIMTALN
 70
     0
  0
APPID
  2
ACAD_NAV_VCDISPLAY
 70
     0
  0
APPID
  2
ACAECLAYERSTANDARD
 70
     0
  0
APPID
  2
ACCMTRANSPARENCY
 70
     0
  0
APPID
  2
DCO15
 70
     0
  0
APPID
  2
ACDBATTR
 70
     0
  0
ENDTAB
  0
TABLE
  2
DIMSTYLE
 70
     1
  0
DIMSTYLE
  2
STANDARD
 70
     0
  3

  4

  5

  6

  7

 40
1.0
 41
0.1875
 42
0.0625
 43
0.38
 44
0.125
 45
0.0
 46
0.0
 47
0.01
 48
0.01
140
0.15625
141
0.09
142
0.0
143
25.3999999999999986
144
1.0
145
0.0
146
1.0
147
0.09
 71
     1
 72
     0
 73
     1
 74
     1
 75
     0
 76
     0
 77
     0
 78
     4
170
     0
171
     2
172
     0
173
     0
174
     0
175
     0
176
     0
177
     0
178
     0
  0
ENDTAB
  0
ENDSEC
  0
SECTION
  2
BLOCKS
  0
BLOCK
  8
0
  2
$MODEL_SPACE
 70
     0
 10
0.0
 20
0.0
 30
0.0
  3
$MODEL_SPACE
  1

  0
ENDBLK
  5
21
  8
0
  0
BLOCK
 67
     1
  8
0
  2
$PAPER_SPACE
 70
     0
 10
0.0
 20
0.0
 30
0.0
  3
$PAPER_SPACE
  1

  0
ENDBLK
  5
1D
 67
     1
  8
0
  0
ENDSEC
  0
SECTION
  2
ENTITIES
  0
LINE
  5
11750
  8
0
 10
370.4030658686160109
 20
55.1559243165604514
 30
0.0
 11
372.1747693978842904
 21
55.1559243165604514
 31
0.0
  0
ARC
  5
11751
  8
0
 10
370.4030708341222748
 20
55.0378364759648591
 30
0.0
 40
0.1180878406999991
 50
90.0024092451533164
 51
180.0000000000003979
  0
LINE
  5
11752
  8
0
 10
370.284982993422318
 20
55.0378364759648591
 30
0.0
 11
370.284982993422318
 21
52.9905475901533194
 31
0.0
  0
ARC
  5
11753
  8
0
 10
370.4030708337509736
 20
52.9905475900457432
 30
0.0
 40
0.118087840328748
 50
179.9999999478039001
 51
270.0000002286432732
  0
LINE
  5
11754
  8
0
 10
370.4030708342223193
 20
52.8724597497170024
 30
0.0
 11
372.1747691185290137
 21
52.8724597497170024
 31
0.0
  0
ARC
  5
11755
  8
0
 10
372.1743866203386233
 20
52.990930167411328
 30
0.0
 40
0.1184710351669818
 50
270.1849867355523998
 51
359.814999453864516
  0
LINE
  5
11756
  8
0
 10
372.2928570379406779
 20
52.9905476406648575
 30
0.0
 11
372.2928570379406779
 21
55.0378285188648491
 31
0.0
  0
ARC
  5
11757
  8
0
 10
372.174761559461615
 20
55.0378288383410492
 30
0.0
 40
0.1180954784795421
 50
359.9998450013690103
 51
89.9961970725453142
  0
ARC
  5
11758
  8
0
 10
370.6614215026060037
 20
54.7394822441629714
 30
0.0
 40
0.029481993298545
 50
89.9260671492519634
 51
180.0829943480457871
  0
LINE
  5
11759
  8
0
 10
370.6319395402373971
 20
54.7394395387843602
 30
0.0
 11
370.6319401586820277
 21
53.2889445269074713
 31
0.0
  0
ARC
  5
1175A
  8
0
 10
371.3446544976624182
 20
75.4765911323652858
 30
0.0
 40
20.7337350882986904
 50
268.1541494748767036
 51
271.210223326551386
  0
ARC
  5
1175B
  8
0
 10
371.7825678003806047
 20
54.717961692261639
 30
0.0
 40
0.0295194097369006
 50
0.7270610153410501
 51
90.0000000000097771
  0
ARC
  5
1175C
  8
0
 10
-1680.9677237943760701
 20
29.1105356733746703
 30
0.0
 40
2052.9395271565099392
 50
0.6754018250804902
 51
0.714710262296409
  0
ARC
  5
1175D
  8
0
 10
371.7663988105106796
 20
53.3236796353006213
 30
0.0
 40
0.0642454170607796
 50
270.1827210608569771
 51
347.7031375470266994
  0
LINE
  5
1175E
  8
0
 10
371.9295137353523728
 20
53.2889481325869099
 30
0.0
 11
371.9295131139733144
 21
54.7394353123679096
 31
0.0
  0
ARC
  5
1175F
  8
0
 10
371.9000342734223068
 20
54.7394822380169828
 30
0.0
 40
0.0294788779000014
 50
359.9087942632107797
 51
89.9999999999348574
  0
ARC
  5
11760
  8
0
 10
370.816265043249814
 20
54.7538076819280093
 30
0.0
 40
0.0001914220117768
 50
120.4375651388450024
 51
238.125863099725791
  0
ARC
  5
11761
  8
0
 10
370.8192557832564944
 20
54.747552482267011
 30
0.0
 40
0.0071241465216094
 50
96.8299449214344463
 51
115.6845009398139013
  0
ARC
  5
11762
  8
0
 10
370.8483671199962259
 20
54.5185147811069086
 30
0.0
 40
0.2380043217352108
 50
92.4488376640919682
 51
97.2312321824290251
  0
ARC
  5
11763
  8
0
 10
371.1314986248349896
 20
46.4125722181428984
 30
0.0
 40
8.3488830308945339
 50
90.1760756584902623
 51
92.0132459984225477
  0
ARC
  5
11764
  8
0
 10
371.3020982882611065
 20
24.7075380701659597
 30
0.0
 40
30.0545185421205616
 50
89.6258548156665711
 51
90.3741451843334431
  0
LINE
  5
11765
  8
0
 10
371.4983548635223087
 20
54.7614158258788706
 30
0.0
 11
371.9000342734223068
 21
54.7689611159169871
 31
0.0
  0
ARC
  5
11766
  8
0
 10
370.8213370523483832
 20
54.7669189394015135
 30
0.0
 40
0.0142462285985393
 50
248.7080703197894138
 51
265.4425973080927861
  0
ARC
  5
11767
  8
0
 10
370.9462870928965117
 20
56.6021454002976228
 30
0.0
 40
1.853720392323466
 50
266.0999788183056012
 51
269.3103477065457128
  0
ARC
  5
11768
  8
0
 10
371.266664839104692
 20
74.18161061270321
 30
0.0
 40
19.4360726484715194
 50
268.989728934609218
 51
270.0973254168400786
  0
ARC
  5
11769
  8
0
 10
371.9375116869862268
 20
-45.2018711450932074
 30
0.0
 40
99.9494723458869601
 50
90.0888212224758433
 51
90.3656379299619203
  0
ARC
  5
1176A
  8
0
 10
371.1627513227463169
 20
53.316911080291149
 30
0.0
 40
0.0550911288445481
 50
262.9996581358258254
 51
266.6386243351980738
  0
ARC
  5
1176B
  8
0
 10
371.1566354862947037
 20
53.2671040463722818
 30
0.0
 40
0.0049100160300814
 50
252.6937722797088952
 51
262.9996581358323056
  0
ARC
  5
1176C
  8
0
 10
371.1552053494831966
 20
53.262514162915231
 30
0.0
 40
0.0001024884483633
 50
98.8142030920224812
 51
252.6937722799783046
  0
ARC
  5
1176D
  8
0
 10
371.1639227112827939
 20
53.2062956138749428
 30
0.0
 40
0.0569928888067708
 50
91.8945333791223078
 51
98.8142030920224812
  0
ARC
  5
1176E
  8
0
 10
371.2854969862004282
 20
48.6551764658074006
 30
0.0
 40
4.6097344190490013
 50
89.5852540470483234
 51
91.5346858124263036
  0
ARC
  5
1176F
  8
0
 10
371.3215747675836269
 20
50.5024606681935069
 30
0.0
 40
2.762330774557856
 50
87.9839039260922533
 51
90.0562034915473646
  0
ARC
  5
11770
  8
0
 10
371.4183143271616814
 20
53.2418185397482802
 30
0.0
 40
0.021267524821585
 50
80.132108295943965
 51
88.8147009372851812
  0
ARC
  5
11771
  8
0
 10
371.42147243370772
 20
53.25905261638826
 30
0.0
 40
0.0037505141147462
 50
71.2900375100182089
 51
82.5444021350902801
  0
ARC
  5
11772
  8
0
 10
371.422568395060182
 20
53.2623390866230224
 30
0.0
 40
0.0002866161935938
 50
46.6177527467250883
 51
68.0535529624464601
  0
ARC
  5
11773
  8
0
 10
371.4227329024411119
 20
53.2625131563064613
 30
0.0
 40
0.0000471105922654
 50
319.2734919279151882
 51
46.6177527465684065
  0
ARC
  5
11774
  8
0
 10
371.4225008485083777
 20
53.2627795970242417
 30
0.0
 40
0.0004000099497865
 50
284.9192973393691091
 51
312.0186936223327052
  0
ARC
  5
11775
  8
0
 10
371.398734400115984
 20
53.507924777322792
 30
0.0
 40
0.2466892141676133
 50
270.6742455667085778
 51
275.5525771682496838
  0
ARC
  5
11776
  8
0
 10
371.2969915717866911
 20
58.2913456526703229
 30
0.0
 40
5.0311814130041901
 50
269.871121260468783
 51
271.1918060256691092
  0
ARC
  5
11777
  8
0
 10
371.2713164956193168
 20
56.7977880999450804
 30
0.0
 40
3.5376402700811971
 50
268.1890559493147066
 51
270.2325459704221089
  0
LINE
  5
11778
  8
0
 10
371.1946090448363975
 20
53.2640148006028014
 30
0.0
 11
371.1964003162223094
 21
53.2622235292170032
 31
0.0
  0
LINE
  5
11779
  8
0
 10
371.1964003162223094
 20
53.2622235292170032
 30
0.0
 11
371.3814396863223237
 21
53.2622235292170032
 31
0.0
  0
LINE
  5
1177A
  8
0
 10
371.3814396863223237
 20
53.2622235292170032
 30
0.0
 11
371.3833174870543985
 21
53.264101329949078
 31
0.0
  0
ARC
  5
1177B
  8
0
 10
371.2951401491833963
 20
5811.0181459689783878
 30
0.0
 40
5756.2492166356405505
 50
269.9936925551917852
 51
270.0060209138158029
  0
ARC
  5
1177C
  8
0
 10
370.6614188171673163
 20
53.2888997817613514
 30
0.0
 40
0.0294786924441808
 50
179.9130317935536141
 51
270.0791799506649795
  0
ARC
  5
1177D
  8
0
 10
371.2835602504831058
 20
-5669.2746816538838175
 30
0.0
 40
5722.534136585853048
 50
89.9938280747286683
 51
90.0062286643446754
  0
ARC
  5
1177E
  8
0
 10
371.9000316611137009
 20
53.2889038142285472
 30
0.0
 40
0.0294821075490871
 50
269.9268355204242198
 51
0.0861287084438794
  0
ARC
  5
1177F
  8
0
 10
370.6870550888257867
 20
54.6993769502824634
 30
0.0
 40
0.0551971471410476
 50
100.6982067877960958
 51
176.8838660604633901
  0
ATTDEF
  5
11781
  8
DEFPOINTS
 10
371.2889675695857932
 20
54.0176255342841287
 30
0.0
 40
0.001
  1
K-98347BR
  3

  2
MODELNUMBER
 70
     0
1001
ACDBATTR
1070
     0
1070
     1
  0
ATTDEF
  5
11782
  8
DEFPOINTS
 10
371.2889675695857932
 20
54.0159588676174707
 30
0.0
 40
0.001
  1
AWAKEN
  3

  2
TRADENAME
 70
     0
1001
ACDBATTR
1070
     0
1070
     1
  0
ATTDEF
  5
11783
  8
DEFPOINTS
 10
371.2889675695857932
 20
54.0142922009508126
 30
0.0
 40
0.001
  1
WALL BRACKET
  3

  2
PRODUCT
 70
     0
1001
ACDBATTR
1070
     0
1070
     1
  0
ENDSEC
  0
EOF
