  0
SECTION
  2
HEADER
  9
$ACADVER
  1
AC1009
  9
$INSBASE
 10
3547.9117583728998397
 20
163.8156725700584104
 30
0.0
  9
$EXTMIN
 10
3542.3734601037472203
 20
162.6893500481920114
 30
-0.0000000000000058
  9
$EXTMAX
 10
3553.447086737220161
 20
164.9421768632425938
 30
0.0000000000000104
  9
$LIMMIN
 10
0.0
 20
0.0
  9
$LIMMAX
 10
11.6929133858000007
 20
8.2677165353999982
  9
$ORTHOMODE
 70
     0
  9
$REGENMODE
 70
     1
  9
$FILLMODE
 70
     1
  9
$QTEXTMODE
 70
     0
  9
$MIRRTEXT
 70
     0
  9
$DRAGMODE
 70
     2
  9
$LTSCALE
 40
0.6431102362
  9
$OSMODE
 70
  4095
  9
$ATTMODE
 70
     1
  9
$TEXTSIZE
 40
0.2
  9
$TRACEWID
 40
0.05
  9
$TEXTSTYLE
  7
STANDARD
  9
$CLAYER
  8
0
  9
$CELTYPE
  6
BYLAYER
  9
$CECOLOR
 62
   256
  9
$DIMSCALE
 40
1.0
  9
$DIMASZ
 40
0.1875
  9
$DIMEXO
 40
0.0625
  9
$DIMDLI
 40
0.4443307087
  9
$DIMRND
 40
0.0
  9
$DIMDLE
 40
0.0
  9
$DIMEXE
 40
0.125
  9
$DIMTP
 40
0.01
  9
$DIMTM
 40
0.01
  9
$DIMTXT
 40
2.0
  9
$DIMCEN
 40
0.1052362205
  9
$DIMTSZ
 40
0.0
  9
$DIMTOL
 70
     1
  9
$DIMLIM
 70
     0
  9
$DIMTIH
 70
     1
  9
$DIMTOH
 70
     1
  9
$DIMSE1
 70
     0
  9
$DIMSE2
 70
     0
  9
$DIMTAD
 70
     0
  9
$DIMZIN
 70
     0
  9
$DIMBLK
  1

  9
$DIMASO
 70
     1
  9
$DIMSHO
 70
     1
  9
$DIMPOST
  1
\X
  9
$DIMAPOST
  1

  9
$DIMALT
 70
     1
  9
$DIMALTD
 70
     2
  9
$DIMALTF
 40
25.3999999999999986
  9
$DIMLFAC
 40
1.0
  9
$DIMTOFL
 70
     0
  9
$DIMTVP
 40
0.0
  9
$DIMTIX
 70
     0
  9
$DIMSOXD
 70
     0
  9
$DIMSAH
 70
     0
  9
$DIMBLK1
  1

  9
$DIMBLK2
  1

  9
$DIMSTYLE
  2
STANDARD
  9
$DIMCLRD
 70
     0
  9
$DIMCLRE
 70
     0
  9
$DIMCLRT
 70
     0
  9
$DIMTFAC
 40
1.0
  9
$DIMGAP
 40
0.09
  9
$LUNITS
 70
     2
  9
$LUPREC
 70
     4
  9
$SKETCHINC
 40
0.1
  9
$FILLETRAD
 40
0.0
  9
$AUNITS
 70
     0
  9
$AUPREC
 70
     0
  9
$MENU
  1
.
  9
$ELEVATION
 40
0.0
  9
$PELEVATION
 40
0.0
  9
$THICKNESS
 40
0.0
  9
$LIMCHECK
 70
     0
  9
$BLIPMODE
 70
     0
  9
$CHAMFERA
 40
0.0
  9
$CHAMFERB
 40
0.0
  9
$SKPOLY
 70
     0
  9
$TDCREATE
 40
2458060.468368056230247
  9
$TDUPDATE
 40
2459478.8051620367914438
  9
$TDINDWG
 40
0.5888380787
  9
$TDUSRTIMER
 40
0.5888380787
  9
$USRTIMER
 70
     1
  9
$ANGBASE
 50
0.0
  9
$ANGDIR
 70
     0
  9
$PDMODE
 70
     0
  9
$PDSIZE
 40
0.3125
  9
$PLINEWID
 40
0.0
  9
$COORDS
 70
     1
  9
$SPLFRAME
 70
     0
  9
$SPLINETYPE
 70
     6
  9
$SPLINESEGS
 70
     8
  9
$ATTDIA
 70
     1
  9
$ATTREQ
 70
     1
  9
$HANDLING
 70
     1
  9
$HANDSEED
  5
1413E
  9
$SURFTAB1
 70
     6
  9
$SURFTAB2
 70
     6
  9
$SURFTYPE
 70
     6
  9
$SURFU
 70
     6
  9
$SURFV
 70
     6
  9
$UCSNAME
  2

  9
$UCSORG
 10
0.0
 20
0.0
 30
0.0
  9
$UCSXDIR
 10
1.0
 20
0.0
 30
0.0
  9
$UCSYDIR
 10
0.0
 20
1.0
 30
0.0
  9
$PUCSNAME
  2

  9
$PUCSORG
 10
0.0
 20
0.0
 30
0.0
  9
$PUCSXDIR
 10
1.0
 20
0.0
 30
0.0
  9
$PUCSYDIR
 10
0.0
 20
1.0
 30
0.0
  9
$USERI1
 70
     0
  9
$USERI2
 70
     0
  9
$USERI3
 70
     0
  9
$USERI4
 70
     0
  9
$USERI5
 70
     0
  9
$USERR1
 40
0.0
  9
$USERR2
 40
0.0
  9
$USERR3
 40
0.0
  9
$USERR4
 40
0.0
  9
$USERR5
 40
0.0
  9
$WORLDVIEW
 70
     1
  9
$SHADEDGE
 70
     3
  9
$SHADEDIF
 70
    70
  9
$TILEMODE
 70
     1
  9
$MAXACTVP
 70
    64
  9
$PLIMCHECK
 70
     0
  9
$PEXTMIN
 10
1.0000000000000000E+20
 20
1.0000000000000000E+20
 30
1.0000000000000000E+20
  9
$PEXTMAX
 10
-1.0000000000000000E+20
 20
-1.0000000000000000E+20
 30
-1.0000000000000000E+20
  9
$PLIMMIN
 10
0.0
 20
0.0
  9
$PLIMMAX
 10
12.0
 20
9.0
  9
$UNITMODE
 70
     0
  9
$VISRETAIN
 70
     1
  9
$PLINEGEN
 70
     0
  9
$PSLTSCALE
 70
     1
  0
ENDSEC
  0
SECTION
  2
TABLES
  0
TABLE
  2
VPORT
 70
     1
  0
VPORT
  2
*ACTIVE
 70
     0
 10
0.0
 20
0.0
 11
1.0
 21
1.0
 12
32.4110058423584704
 22
3.1338252843306118
 13
0.0
 23
0.0
 14
1.0
 24
1.0
 15
0.0
 25
0.0
 16
0.0
 26
0.0
 36
20.9203132949307395
 17
3515.499267578125
 27
160.6819381713866903
 37
0.0
 40
6.659841300580438
 41
1.67063492063492
 42
50.0
 43
0.0
 44
0.0
 50
0.0
 51
0.0
 71
     0
 72
   100
 73
     1
 74
     1
 75
     0
 76
     0
 77
     0
 78
     0
  0
ENDTAB
  0
TABLE
  2
LTYPE
 70
     2
  0
LTYPE
  2
CONTINUOUS
 70
     0
  3
Solid line
 72
    65
 73
     0
 40
0.0
  0
LTYPE
  2
PHANTOM2
 70
     0
  3
___ _ _ ___ _ _ ___ _ _ ___ _ _
 72
    65
 73
     6
 40
1.25
 49
0.625
 49
-0.125
 49
0.125
 49
-0.125
 49
0.125
 49
-0.125
  0
ENDTAB
  0
TABLE
  2
LAYER
 70
     2
  0
LAYER
  2
0
 70
     0
 62
   255
  6
CONTINUOUS
  0
LAYER
  2
DEFPOINTS
 70
     0
 62
     7
  6
CONTINUOUS
  0
ENDTAB
  0
TABLE
  2
STYLE
 70
     1
  0
STYLE
  2
STANDARD
 70
     0
 40
0.0
 41
0.8
 50
0.0
 71
     0
 42
0.2
  3
txt
  4

  0
ENDTAB
  0
TABLE
  2
VIEW
 70
     0
  0
ENDTAB
  0
TABLE
  2
UCS
 70
     0
  0
ENDTAB
  0
TABLE
  2
APPID
 70
     9
  0
APPID
  2
ACAD
 70
     0
  0
APPID
  2
ACAD_MLEADERVER
 70
     0
  0
APPID
  2
ACAD_EXEMPT_FROM_CAD_STANDARDS
 70
     0
  0
APPID
  2
ACAD_NAV_VCDISPLAY
 70
     0
  0
APPID
  2
ACAECLAYERSTANDARD
 70
     0
  0
APPID
  2
ACCMTRANSPARENCY
 70
     0
  0
APPID
  2
ACAD_DSTYLE_DIMJAG
 70
     0
  0
APPID
  2
ACAD_DSTYLE_DIMTALN
 70
     0
  0
APPID
  2
ACDBATTR
 70
     0
  0
ENDTAB
  0
TABLE
  2
DIMSTYLE
 70
     1
  0
DIMSTYLE
  2
STANDARD
 70
     0
  3

  4

  5

  6

  7

 40
1.0
 41
0.1875
 42
0.0625
 43
0.38
 44
0.125
 45
0.0
 46
0.0
 47
0.01
 48
0.01
140
0.15625
141
0.09
142
0.0
143
25.3999999999999986
144
1.0
145
0.0
146
1.0
147
0.09
 71
     1
 72
     0
 73
     1
 74
     1
 75
     0
 76
     0
 77
     0
 78
     4
170
     0
171
     2
172
     0
173
     0
174
     0
175
     0
176
     0
177
     0
178
     0
  0
ENDTAB
  0
ENDSEC
  0
SECTION
  2
BLOCKS
  0
BLOCK
  8
0
  2
$MODEL_SPACE
 70
     0
 10
0.0
 20
0.0
 30
0.0
  3
$MODEL_SPACE
  1

  0
ENDBLK
  5
21
  8
0
  0
BLOCK
 67
     1
  8
0
  2
$PAPER_SPACE
 70
     0
 10
0.0
 20
0.0
 30
0.0
  3
$PAPER_SPACE
  1

  0
ENDBLK
  5
1D
 67
     1
  8
0
  0
ENDSEC
  0
SECTION
  2
ENTITIES
  0
ATTDEF
  5
12BEB
  8
DEFPOINTS
 10
3547.9071089481840318
 20
163.8139234823489971
 30
0.0
 40
0.001
  1
K-98068BR-4
  3

  2
MODELNUMBER
 70
     0
1001
ACDBATTR
1070
     0
1070
     1
  0
ATTDEF
  5
12BEC
  8
DEFPOINTS
 10
3547.9071089481840318
 20
163.8122568156823036
 30
0.0
 40
0.001
  1
ARTIFACTS
  3

  2
TRADENAME
 70
     0
1001
ACDBATTR
1070
     0
1070
     1
  0
ATTDEF
  5
12BED
  8
DEFPOINTS
 10
3547.9071089481840318
 20
163.81059014901561
 30
0.0
 40
0.001
  1
BATHROOM SINK FAUCET HANDLES
  3

  2
PRODUCT
 70
     0
1001
ACDBATTR
1070
     0
1070
     1
  0
ARC
  5
14037
  8
0
 10
3549.8802623097999458
 20
163.8156725700584104
 30
0.0
 40
1.1200000000000001
 50
13.6287230844154497
 51
346.371276915584474
  0
ARC
  5
14038
  8
0
 10
3549.8802623097999458
 20
163.8156725700584104
 30
0.0
 40
0.8189999999999994
 50
26.8025690157275811
 51
333.1974309842725006
  0
ARC
  5
14039
  8
0
 10
3549.8802623097999458
 20
163.8156725700584104
 30
0.0
 40
0.4749999999999989
 50
29.3084437400639111
 51
330.6915562599360783
  0
LINE
  5
1403A
  8
0
 10
3553.2028843571001744
 20
163.9188533691070973
 30
0.0
 11
3553.2028843571001744
 21
163.7124917710096099
 31
0.0
  0
ARC
  5
1403B
  8
0
 10
3549.8802623097999458
 20
163.8156725700584104
 30
0.0
 40
0.2838465655999993
 50
102.0352421614344962
 51
77.9647578385655038
  0
LINE
  5
1403C
  8
0
 10
3549.8210765252179044
 20
164.0932800550195054
 30
0.0
 11
3549.8215323201097817
 21
164.0894377456752977
 31
0.0
  0
ARC
  5
1403D
  8
0
 10
3549.826704510017862
 20
164.0910594897623014
 30
0.0
 40
0.0054204798981132
 50
197.4088561993341955
 51
289.5473467803236076
  0
CIRCLE
  5
1403E
  8
0
 10
3549.8802623097999458
 20
163.8156725700584104
 30
0.0
 40
0.3448074623999995
  0
CIRCLE
  5
1403F
  8
0
 10
3549.8802623097999458
 20
163.8156725700584104
 30
0.0
 40
0.3825005138076436
  0
ARC
  5
14040
  8
0
 10
3550.3636152743160892
 20
164.0884610449259924
 30
0.0
 40
0.0800253392033454
 50
210.2136075196843876
 51
276.9545005028074911
  0
ARC
  5
14041
  8
0
 10
3550.3562000331689887
 20
164.2748822196016931
 30
0.0
 40
0.2664074141901056
 50
273.6812313264381942
 51
337.1102596216576899
  0
ARC
  5
14042
  8
0
 10
3550.626461276559894
 20
164.1640448398161993
 30
0.0
 40
0.0258592227099232
 50
75.465987863768504
 51
163.7969377414875112
  0
ARC
  5
14043
  8
0
 10
3550.6126104371801375
 20
163.9939974020070963
 30
0.0
 40
0.1961366823523685
 50
25.7554404321012207
 51
84.047445383118017
  0
LINE
  5
14044
  8
0
 10
3550.7892623098000513
 20
164.1011056409583944
 30
0.0
 11
3550.7892623098000513
 21
163.5302394991583981
 31
0.0
  0
LINE
  5
14045
  8
0
 10
3550.812884357099847
 20
164.1011056409583944
 30
0.0
 11
3550.812884357099847
 21
163.5302394991583981
 31
0.0
  0
LINE
  5
14046
  8
0
 10
3550.7892623098000513
 20
164.1011056409583944
 30
0.0
 11
3550.812884357099847
 21
164.1011056409583944
 31
0.0
  0
ARC
  5
14047
  8
0
 10
3550.8628843571000289
 20
164.0756725700584013
 30
0.0
 40
0.0499999999999986
 50
23.3539058536496498
 51
180.0
  0
ARC
  5
14048
  8
0
 10
3550.9363302640508664
 20
164.1073853249102967
 30
0.0
 40
0.0300000004263116
 50
203.3539058536497066
 51
273.9999992703307043
  0
LINE
  5
14049
  8
0
 10
3550.9384229579118255
 20
164.0774584029506116
 30
0.0
 11
3552.4632375910691735
 21
164.1840838095384072
 31
0.0
  0
ARC
  5
1404A
  8
0
 10
3552.4611448982568618
 20
164.2140107165012921
 30
0.0
 40
0.0299999853929338
 50
273.9999992703307043
 51
339.253966677030121
  0
ARC
  5
1404B
  8
0
 10
3552.535957622711976
 20
164.1856726334025041
 30
0.0
 40
0.0499999564454306
 50
59.999941297118589
 51
159.2539666770300926
  0
ARC
  5
1404C
  8
0
 10
3552.5759576559507877
 20
164.2549545593469986
 30
0.0
 40
0.0299999680649811
 50
239.9999412971185961
 51
327.7958311637506199
  0
ARC
  5
1404D
  8
0
 10
3552.6859576453011869
 20
164.1856726910671966
 30
0.0
 40
0.0999999355089887
 50
32.2041688543726465
 51
147.7958311637505915
  0
ARC
  5
1404E
  8
0
 10
3552.7959576346629547
 20
164.2549545594040126
 30
0.0
 40
0.0299999681067534
 50
212.2041688543727105
 51
300.0000586233048239
  0
ARC
  5
1404F
  8
0
 10
3552.8359576695561373
 20
164.1856726303732046
 30
0.0
 40
0.0499999599032977
 50
16.2005275217974614
 51
120.000058623304696
  0
ARC
  5
14050
  8
0
 10
3552.9127808611151522
 20
164.2079925977546964
 30
0.0
 40
0.0299999382546332
 50
196.2005275217958911
 51
248.8622961824675031
  0
ARC
  5
14051
  8
0
 10
3552.8257548403630608
 20
163.96566571679719
 30
0.0
 40
0.2274897515501752
 50
27.9793975688793104
 51
70.4278212394355307
  0
ARC
  5
14052
  8
0
 10
3553.0535557824000534
 20
164.0856725700583922
 30
0.0
 40
0.0299999999999933
 50
206.272268077594191
 51
270.0
  0
ARC
  5
14053
  8
0
 10
3553.0644967309499407
 20
164.2470121354722039
 30
0.0
 40
0.1916521162104362
 50
266.7273454517593905
 51
273.2726545482407232
  0
ARC
  5
14054
  8
0
 10
3553.0754376794989184
 20
164.02567257005839
 30
0.0
 40
0.029999999999999
 50
9.7011947309922562
 51
90.0
  0
ARC
  5
14055
  8
0
 10
3553.2068108537650915
 20
164.0457343697507895
 30
0.0
 40
0.1029022742686383
 50
188.3854936365287074
 51
255.9835432236824886
  0
ARC
  5
14056
  8
0
 10
3553.172814858755828
 20
163.9171790144268925
 30
0.0
 40
0.0301160786662946
 50
3.187099759064997
 51
72.466234228014045
  0
LINE
  5
14057
  8
0
 10
3549.9394480943810777
 20
164.0932800550193917
 30
0.0
 11
3549.9389922994892004
 21
164.0894377456752977
 31
0.0
  0
ARC
  5
14058
  8
0
 10
3549.9338201095811201
 20
164.0910594897623014
 30
0.0
 40
0.0054204798981132
 50
250.4526532196763924
 51
342.5911438006658045
  0
ARC
  5
14059
  8
0
 10
3549.8802623097999458
 20
163.7331384214027139
 30
0.0
 40
0.3565872555715253
 50
81.6563820776963212
 51
98.343617922303693
  0
ARC
  5
1405A
  8
0
 10
3550.3636152743160892
 20
163.5428840951906864
 30
0.0
 40
0.0800253392033454
 50
83.0454994971925231
 51
149.7863924803156124
  0
ARC
  5
1405B
  8
0
 10
3550.3562000331689887
 20
163.3564629205150993
 30
0.0
 40
0.2664074141901056
 50
22.8897403783423705
 51
86.3187686735617916
  0
ARC
  5
1405C
  8
0
 10
3550.626461276559894
 20
163.4673003003005078
 30
0.0
 40
0.0258592227099232
 50
196.2030622585124888
 51
284.5340121362315244
  0
ARC
  5
1405D
  8
0
 10
3550.6126104371801375
 20
163.6373477381096109
 30
0.0
 40
0.1961366823523685
 50
275.9525546168820256
 51
334.2445595678988184
  0
LINE
  5
1405E
  8
0
 10
3550.7892623098000513
 20
163.5302394991583981
 30
0.0
 11
3550.812884357099847
 21
163.5302394991583981
 31
0.0
  0
ARC
  5
1405F
  8
0
 10
3550.8628843571000289
 20
163.5556725700583911
 30
0.0
 40
0.0499999999999986
 50
180.0
 51
336.6460941463503218
  0
ARC
  5
14060
  8
0
 10
3550.9363302640508664
 20
163.5239598152064104
 30
0.0
 40
0.0300000004263116
 50
86.0000007296693099
 51
156.6460941463502934
  0
LINE
  5
14061
  8
0
 10
3550.9384229579118255
 20
163.5538867371660956
 30
0.0
 11
3552.4632375910691735
 21
163.4472613305784137
 31
0.0
  0
ARC
  5
14062
  8
0
 10
3552.4611448982568618
 20
163.4173344236153866
 30
0.0
 40
0.0299999853929338
 50
20.746033322969911
 51
86.0000007296693099
  0
ARC
  5
14063
  8
0
 10
3552.535957622711976
 20
163.4456725067142884
 30
0.0
 40
0.0499999564454306
 50
200.7460333229699074
 51
300.0000587028814039
  0
ARC
  5
14064
  8
0
 10
3552.5759576559507877
 20
163.3763905807697085
 30
0.0
 40
0.0299999680649811
 50
32.2041688362493517
 51
120.0000587028814039
  0
ARC
  5
14065
  8
0
 10
3552.6859576453011869
 20
163.4456724490495105
 30
0.0
 40
0.0999999355089887
 50
212.2041688362492948
 51
327.7958311456274032
  0
ARC
  5
14066
  8
0
 10
3552.7959576346629547
 20
163.3763905807126946
 30
0.0
 40
0.0299999681067534
 50
59.9999413766952685
 51
147.7958311456272895
  0
ARC
  5
14067
  8
0
 10
3552.8359576695561373
 20
163.4456725097435879
 30
0.0
 40
0.0499999599032977
 50
239.9999413766952046
 51
343.7994724782025173
  0
ARC
  5
14068
  8
0
 10
3552.9127808611151522
 20
163.4233525423620108
 30
0.0
 40
0.0299999382546332
 50
111.1377038175324969
 51
163.7994724782041089
  0
ARC
  5
14069
  8
0
 10
3552.8257548403630608
 20
163.6656794233194887
 30
0.0
 40
0.2274897515501752
 50
289.5721787605644977
 51
332.0206024311207216
  0
ARC
  5
1406A
  8
0
 10
3553.0535557824000534
 20
163.5456725700584002
 30
0.0
 40
0.0299999999999933
 50
90.0
 51
153.727731922405809
  0
ARC
  5
1406B
  8
0
 10
3553.0644967309499407
 20
163.3843330046445033
 30
0.0
 40
0.1916521162104362
 50
86.7273454517593336
 51
93.2726545482406806
  0
ARC
  5
1406C
  8
0
 10
3553.0754376794989184
 20
163.6056725700584025
 30
0.0
 40
0.029999999999999
 50
270.0
 51
350.298805269007687
  0
ARC
  5
1406D
  8
0
 10
3553.2068108537650915
 20
163.5856107703658893
 30
0.0
 40
0.1029022742686383
 50
104.0164567763174972
 51
171.6145063634679957
  0
ARC
  5
1406E
  8
0
 10
3553.172814858755828
 20
163.7141661256897862
 30
0.0
 40
0.0301160786662946
 50
287.5337657719858839
 51
356.8129002409349937
  0
LINE
  5
1406F
  8
0
 10
3550.9087880486999893
 20
164.0954930417352102
 30
0.0
 11
3550.9087880486999893
 21
163.5358520983814969
 31
0.0
  0
LINE
  5
14070
  8
0
 10
3552.4891996767000819
 20
164.2033839328811098
 30
0.0
 11
3552.4891996767000819
 21
163.4279612072355974
 31
0.0
  0
LINE
  5
14071
  8
0
 10
3552.601342260698857
 20
164.2389664410821979
 30
0.0
 11
3552.601342260698857
 21
163.3923786990345945
 31
0.0
  0
LINE
  5
14072
  8
0
 10
3552.7705730298998787
 20
164.238966441084898
 30
0.0
 11
3552.7705730298998787
 21
163.3923786990318092
 31
0.0
  0
LINE
  5
14073
  8
0
 10
3552.8839721868998822
 20
164.1996226165584005
 30
0.0
 11
3552.8839721868998822
 21
163.4317225235583919
 31
0.0
  0
LINE
  5
14074
  8
0
 10
3553.1050086782001927
 20
164.0307278678303931
 30
0.0
 11
3553.1050086782001927
 21
163.6006172722863141
 31
0.0
  0
LINE
  5
14075
  8
0
 10
3553.0266547589999391
 20
164.0723934533598936
 30
0.0
 11
3553.0266547589999391
 21
163.5589516867568136
 31
0.0
  0
LINE
  5
14076
  8
0
 10
3550.6015409443998578
 20
164.171051840559187
 30
0.0
 11
3550.6015409443998578
 21
163.4602932995574918
 31
0.0
  0
LINE
  5
14077
  8
0
 10
3550.2939388738991511
 20
164.0491178533999062
 30
0.0
 11
3550.2939388738991511
 21
163.582227286716801
 31
0.0
  0
ARC
  5
14078
  8
0
 10
3545.9432544358000996
 20
163.8156725700584104
 30
0.0
 40
1.1200000000000001
 50
193.6287230844137923
 51
166.3712769155845024
  0
ARC
  5
14079
  8
0
 10
3545.9432544358000996
 20
163.8156725700584104
 30
0.0
 40
0.8189999999999994
 50
206.8025690157276131
 51
153.1974309842723869
  0
ARC
  5
1407A
  8
0
 10
3545.9432544358000996
 20
163.8156725700584104
 30
0.0
 40
0.4749999999999989
 50
209.3084437400638933
 51
150.6915562599361067
  0
LINE
  5
1407B
  8
0
 10
3542.620632388499871
 20
163.9188533691070973
 30
0.0
 11
3542.620632388499871
 21
163.7124917710096952
 31
0.0
  0
ARC
  5
1407C
  8
0
 10
3545.9432544358000996
 20
163.8156725700584104
 30
0.0
 40
0.2838465655999993
 50
102.0352421615412055
 51
77.9647578385655038
  0
LINE
  5
1407D
  8
0
 10
3546.0024402203807767
 20
164.0932800550195054
 30
0.0
 11
3546.0019844254888994
 21
164.0894377456752977
 31
0.0
  0
ARC
  5
1407E
  8
0
 10
3545.9968122355808191
 20
164.0910594897623014
 30
0.0
 40
0.0054204798981132
 50
250.4526532196763924
 51
342.5911438006658045
  0
CIRCLE
  5
1407F
  8
0
 10
3545.9432544358000996
 20
163.8156725700584104
 30
0.0
 40
0.3448074623999995
  0
CIRCLE
  5
14080
  8
0
 10
3545.9432544358000996
 20
163.8156725700584104
 30
0.0
 40
0.3825005138076436
  0
ARC
  5
14081
  8
0
 10
3545.4599014712839562
 20
164.0884610449259924
 30
0.0
 40
0.0800253392033454
 50
263.0454994971925089
 51
329.7863924803156124
  0
ARC
  5
14082
  8
0
 10
3545.4673167124310567
 20
164.2748822196016931
 30
0.0
 40
0.2664074141901056
 50
202.8897403783423954
 51
266.3187686735616921
  0
ARC
  5
14083
  8
0
 10
3545.1970554690401514
 20
164.164044839816313
 30
0.0
 40
0.0258592227099232
 50
16.2030622585125101
 51
104.534012136231496
  0
ARC
  5
14084
  8
0
 10
3545.2109063084189984
 20
163.9939974020070963
 30
0.0
 40
0.1961366823523685
 50
95.9525546168819972
 51
154.24455956789879
  0
LINE
  5
14085
  8
0
 10
3545.0342544357999941
 20
164.1011056409583944
 30
0.0
 11
3545.0342544357999941
 21
163.5302394991583981
 31
0.0
  0
LINE
  5
14086
  8
0
 10
3545.0106323885001984
 20
164.1011056409583944
 30
0.0
 11
3545.0106323885001984
 21
163.5302394991583981
 31
0.0
  0
LINE
  5
14087
  8
0
 10
3545.0342544357999941
 20
164.1011056409583944
 30
0.0
 11
3545.0106323885001984
 21
164.1011056409583944
 31
0.0
  0
ARC
  5
14088
  8
0
 10
3544.9606323885000165
 20
164.0756725700584013
 30
0.0
 40
0.0499999999999986
 50
0.0
 51
156.6460941463502934
  0
ARC
  5
14089
  8
0
 10
3544.8871864815478148
 20
164.1073853249102967
 30
0.0
 40
0.0300000004263116
 50
266.0000007296692957
 51
336.6460941463503218
  0
LINE
  5
1408A
  8
0
 10
3544.8850937876882199
 20
164.0774584029506116
 30
0.0
 11
3543.3602791545299624
 21
164.1840838095384072
 31
0.0
  0
ARC
  5
1408B
  8
0
 10
3543.3623718473418194
 20
164.2140107165014058
 30
0.0
 40
0.0299999853929338
 50
200.7460333229699074
 51
266.0000007296692957
  0
ARC
  5
1408C
  8
0
 10
3543.2875591228871599
 20
164.1856726334025041
 30
0.0
 40
0.0499999564454306
 50
20.746033322969911
 51
120.0000587028814039
  0
ARC
  5
1408D
  8
0
 10
3543.2475590896488029
 20
164.2549545593469986
 30
0.0
 40
0.0299999680649811
 50
212.2041688362492948
 51
300.0000587028814039
  0
ARC
  5
1408E
  8
0
 10
3543.1375591002988585
 20
164.1856726910673103
 30
0.0
 40
0.0999999355089887
 50
32.2041688362493517
 51
147.7958311456272895
  0
ARC
  5
1408F
  8
0
 10
3543.0275591109361812
 20
164.2549545594040126
 30
0.0
 40
0.0299999681067534
 50
239.9999413766952046
 51
327.7958311456274032
  0
ARC
  5
14090
  8
0
 10
3542.9875590760439081
 20
164.1856726303732046
 30
0.0
 40
0.0499999599032977
 50
59.9999413766952685
 51
163.7994724782024889
  0
ARC
  5
14091
  8
0
 10
3542.9107358844839837
 20
164.20799259775481
 30
0.0
 40
0.0299999382546332
 50
291.1377038175324969
 51
343.7994724782041089
  0
ARC
  5
14092
  8
0
 10
3542.9977619052369846
 20
163.96566571679719
 30
0.0
 40
0.2274897515501752
 50
109.5721787605644977
 51
152.0206024311206932
  0
ARC
  5
14093
  8
0
 10
3542.7699609631990825
 20
164.0856725700583922
 30
0.0
 40
0.0299999999999933
 50
270.0
 51
333.7277319224057806
  0
ARC
  5
14094
  8
0
 10
3542.7590200146501047
 20
164.2470121354722892
 30
0.0
 40
0.1916521162104362
 50
266.7273454517593905
 51
273.2726545482407232
  0
ARC
  5
14095
  8
0
 10
3542.7480790660988532
 20
164.02567257005839
 30
0.0
 40
0.029999999999999
 50
90.0
 51
170.298805269007687
  0
ARC
  5
14096
  8
0
 10
3542.6167058918340445
 20
164.0457343697507895
 30
0.0
 40
0.1029022742686383
 50
284.0164567763175114
 51
351.6145063634663757
  0
ARC
  5
14097
  8
0
 10
3542.6507018868442174
 20
163.9171790144270062
 30
0.0
 40
0.0301160786662946
 50
107.5337657719859976
 51
176.8129002409349937
  0
LINE
  5
14098
  8
0
 10
3545.8840686512180582
 20
164.0932800550193917
 30
0.0
 11
3545.884524446110845
 21
164.0894377456752977
 31
0.0
  0
ARC
  5
14099
  8
0
 10
3545.8896966360180159
 20
164.0910594897623014
 30
0.0
 40
0.0054204798981132
 50
197.4088561993341955
 51
289.5473467803236076
  0
ARC
  5
1409A
  8
0
 10
3545.9432544358000996
 20
163.7331384214027992
 30
0.0
 40
0.3565872555715253
 50
81.6563820776963212
 51
98.343617922303693
  0
ARC
  5
1409B
  8
0
 10
3545.4599014712839562
 20
163.5428840951908001
 30
0.0
 40
0.0800253392033454
 50
30.2136075196843983
 51
96.9545005028074911
  0
ARC
  5
1409C
  8
0
 10
3545.4673167124310567
 20
163.3564629205150993
 30
0.0
 40
0.2664074141901056
 50
93.6812313264382084
 51
157.1102596216576046
  0
ARC
  5
1409D
  8
0
 10
3545.1970554690401514
 20
163.4673003003005078
 30
0.0
 40
0.0258592227099232
 50
255.465987863768504
 51
343.7969377414875112
  0
ARC
  5
1409E
  8
0
 10
3545.2109063084189984
 20
163.6373477381096961
 30
0.0
 40
0.1961366823523685
 50
205.75544043210121
 51
264.0474453831179744
  0
LINE
  5
1409F
  8
0
 10
3545.0342544357999941
 20
163.5302394991583981
 30
0.0
 11
3545.0106323885001984
 21
163.5302394991583981
 31
0.0
  0
ARC
  5
140A0
  8
0
 10
3544.9606323885000165
 20
163.5556725700583911
 30
0.0
 40
0.0499999999999986
 50
203.3539058536497066
 51
0.0
  0
ARC
  5
140A1
  8
0
 10
3544.8871864815478148
 20
163.5239598152064957
 30
0.0
 40
0.0300000004263116
 50
23.3539058536496498
 51
93.9999992703307043
  0
LINE
  5
140A2
  8
0
 10
3544.8850937876882199
 20
163.5538867371662093
 30
0.0
 11
3543.3602791545299624
 21
163.4472613305784137
 31
0.0
  0
ARC
  5
140A3
  8
0
 10
3543.3623718473418194
 20
163.4173344236153866
 30
0.0
 40
0.0299999853929338
 50
93.9999992703307043
 51
159.2539666770300926
  0
ARC
  5
140A4
  8
0
 10
3543.2875591228871599
 20
163.4456725067142884
 30
0.0
 40
0.0499999564454306
 50
239.9999412971185961
 51
339.2539666770285862
  0
ARC
  5
140A5
  8
0
 10
3543.2475590896488029
 20
163.3763905807697938
 30
0.0
 40
0.0299999680649811
 50
59.999941297118589
 51
147.7958311637505915
  0
ARC
  5
140A6
  8
0
 10
3543.1375591002988585
 20
163.4456724490495105
 30
0.0
 40
0.0999999355089887
 50
212.2041688543727105
 51
327.7958311637506199
  0
ARC
  5
140A7
  8
0
 10
3543.0275591109361812
 20
163.3763905807128083
 30
0.0
 40
0.0299999681067534
 50
32.2041688543726465
 51
120.000058623304696
  0
ARC
  5
140A8
  8
0
 10
3542.9875590760439081
 20
163.4456725097435879
 30
0.0
 40
0.0499999599032977
 50
196.2005275217973974
 51
300.0000586233048239
  0
ARC
  5
140A9
  8
0
 10
3542.9107358844839837
 20
163.4233525423620108
 30
0.0
 40
0.0299999382546332
 50
16.2005275217958911
 51
68.8622961824675315
  0
ARC
  5
140AA
  8
0
 10
3542.9977619052369846
 20
163.6656794233196024
 30
0.0
 40
0.2274897515501752
 50
207.9793975688793068
 51
250.4278212394355023
  0
ARC
  5
140AB
  8
0
 10
3542.7699609631990825
 20
163.5456725700584002
 30
0.0
 40
0.0299999999999933
 50
26.2722680775942194
 51
90.0
  0
ARC
  5
140AC
  8
0
 10
3542.7590200146501047
 20
163.3843330046445885
 30
0.0
 40
0.1916521162104362
 50
86.7273454517593336
 51
93.2726545482406806
  0
ARC
  5
140AD
  8
0
 10
3542.7480790660988532
 20
163.6056725700584025
 30
0.0
 40
0.029999999999999
 50
189.7011947309921993
 51
270.0
  0
ARC
  5
140AE
  8
0
 10
3542.6167058918340445
 20
163.585610770366003
 30
0.0
 40
0.1029022742686383
 50
8.3854936365319865
 51
75.9835432236824744
  0
ARC
  5
140AF
  8
0
 10
3542.6507018868442174
 20
163.7141661256897862
 30
0.0
 40
0.0301160786662946
 50
183.1870997590650063
 51
252.4662342280140024
  0
LINE
  5
140B0
  8
0
 10
3544.9147286969000561
 20
164.0954930417352102
 30
0.0
 11
3544.9147286969000561
 21
163.5358520983816106
 31
0.0
  0
LINE
  5
140B1
  8
0
 10
3543.334317068899054
 20
164.2033839328811951
 30
0.0
 11
3543.334317068899054
 21
163.4279612072357111
 31
0.0
  0
LINE
  5
140B2
  8
0
 10
3543.2221744848989147
 20
164.2389664410821979
 30
0.0
 11
3543.2221744848989147
 21
163.3923786990345945
 31
0.0
  0
LINE
  5
140B3
  8
0
 10
3543.0529437157001666
 20
164.238966441084898
 30
0.0
 11
3543.0529437157001666
 21
163.3923786990318945
 31
0.0
  0
LINE
  5
140B4
  8
0
 10
3542.9395445587001632
 20
164.1996226165584005
 30
0.0
 11
3542.9395445587001632
 21
163.4317225235583919
 31
0.0
  0
LINE
  5
140B5
  8
0
 10
3542.7185080673989432
 20
164.0307278678305067
 30
0.0
 11
3542.7185080673989432
 21
163.6006172722863994
 31
0.0
  0
LINE
  5
140B6
  8
0
 10
3542.7968619866001063
 20
164.0723934533600072
 30
0.0
 11
3542.7968619866001063
 21
163.5589516867568136
 31
0.0
  0
LINE
  5
140B7
  8
0
 10
3545.2219758012001876
 20
164.1710518405593007
 30
0.0
 11
3545.2219758012001876
 21
163.4602932995576055
 31
0.0
  0
LINE
  5
140B8
  8
0
 10
3545.5295778716990753
 20
164.0491178533999914
 30
0.0
 11
3545.5295778716990753
 21
163.5822272867168863
 31
0.0
  0
ENDSEC
  0
EOF
