  0
SECTION
  2
HEADER
  9
$ACADVER
  1
AC1009
  9
$INSBASE
 10
3547.6232016650719743
 20
161.6674294961607927
 30
0.0
  9
$EXTMIN
 10
3542.1033715487537847
 20
161.6573287376805865
 30
-0.0000000000000058
  9
$EXTMAX
 10
3553.1769981822271802
 20
165.3197456353809116
 30
0.0000000000000104
  9
$LIMMIN
 10
0.0
 20
0.0
  9
$LIMMAX
 10
11.6929133858000007
 20
8.2677165353999982
  9
$ORTHOMODE
 70
     0
  9
$REGENMODE
 70
     1
  9
$FILLMODE
 70
     1
  9
$QTEXTMODE
 70
     0
  9
$MIRRTEXT
 70
     0
  9
$DRAGMODE
 70
     2
  9
$LTSCALE
 40
0.6431102362
  9
$OSMODE
 70
  4095
  9
$ATTMODE
 70
     1
  9
$TEXTSIZE
 40
0.2
  9
$TRACEWID
 40
0.05
  9
$TEXTSTYLE
  7
STANDARD
  9
$CLAYER
  8
0
  9
$CELTYPE
  6
BYLAYER
  9
$CECOLOR
 62
   256
  9
$DIMSCALE
 40
1.0
  9
$DIMASZ
 40
0.1875
  9
$DIMEXO
 40
0.0625
  9
$DIMDLI
 40
0.4443307087
  9
$DIMRND
 40
0.0
  9
$DIMDLE
 40
0.0
  9
$DIMEXE
 40
0.125
  9
$DIMTP
 40
0.01
  9
$DIMTM
 40
0.01
  9
$DIMTXT
 40
2.0
  9
$DIMCEN
 40
0.1052362205
  9
$DIMTSZ
 40
0.0
  9
$DIMTOL
 70
     1
  9
$DIMLIM
 70
     0
  9
$DIMTIH
 70
     1
  9
$DIMTOH
 70
     1
  9
$DIMSE1
 70
     0
  9
$DIMSE2
 70
     0
  9
$DIMTAD
 70
     0
  9
$DIMZIN
 70
     0
  9
$DIMBLK
  1

  9
$DIMASO
 70
     1
  9
$DIMSHO
 70
     1
  9
$DIMPOST
  1
\X
  9
$DIMAPOST
  1

  9
$DIMALT
 70
     1
  9
$DIMALTD
 70
     2
  9
$DIMALTF
 40
25.3999999999999986
  9
$DIMLFAC
 40
1.0
  9
$DIMTOFL
 70
     0
  9
$DIMTVP
 40
0.0
  9
$DIMTIX
 70
     0
  9
$DIMSOXD
 70
     0
  9
$DIMSAH
 70
     0
  9
$DIMBLK1
  1

  9
$DIMBLK2
  1

  9
$DIMSTYLE
  2
STANDARD
  9
$DIMCLRD
 70
     0
  9
$DIMCLRE
 70
     0
  9
$DIMCLRT
 70
     0
  9
$DIMTFAC
 40
1.0
  9
$DIMGAP
 40
0.09
  9
$LUNITS
 70
     2
  9
$LUPREC
 70
     4
  9
$SKETCHINC
 40
0.1
  9
$FILLETRAD
 40
0.0
  9
$AUNITS
 70
     0
  9
$AUPREC
 70
     0
  9
$MENU
  1
.
  9
$ELEVATION
 40
0.0
  9
$PELEVATION
 40
0.0
  9
$THICKNESS
 40
0.0
  9
$LIMCHECK
 70
     0
  9
$BLIPMODE
 70
     0
  9
$CHAMFERA
 40
0.0
  9
$CHAMFERB
 40
0.0
  9
$SKPOLY
 70
     0
  9
$TDCREATE
 40
2458060.468368056230247
  9
$TDUPDATE
 40
2459478.8068518522195518
  9
$TDINDWG
 40
0.588108912
  9
$TDUSRTIMER
 40
0.588108912
  9
$USRTIMER
 70
     1
  9
$ANGBASE
 50
0.0
  9
$ANGDIR
 70
     0
  9
$PDMODE
 70
     0
  9
$PDSIZE
 40
0.3125
  9
$PLINEWID
 40
0.0
  9
$COORDS
 70
     1
  9
$SPLFRAME
 70
     0
  9
$SPLINETYPE
 70
     6
  9
$SPLINESEGS
 70
     8
  9
$ATTDIA
 70
     1
  9
$ATTREQ
 70
     1
  9
$HANDLING
 70
     1
  9
$HANDSEED
  5
14298
  9
$SURFTAB1
 70
     6
  9
$SURFTAB2
 70
     6
  9
$SURFTYPE
 70
     6
  9
$SURFU
 70
     6
  9
$SURFV
 70
     6
  9
$UCSNAME
  2

  9
$UCSORG
 10
0.0
 20
0.0
 30
0.0
  9
$UCSXDIR
 10
1.0
 20
0.0
 30
0.0
  9
$UCSYDIR
 10
0.0
 20
1.0
 30
0.0
  9
$PUCSNAME
  2

  9
$PUCSORG
 10
0.0
 20
0.0
 30
0.0
  9
$PUCSXDIR
 10
1.0
 20
0.0
 30
0.0
  9
$PUCSYDIR
 10
0.0
 20
1.0
 30
0.0
  9
$USERI1
 70
     0
  9
$USERI2
 70
     0
  9
$USERI3
 70
     0
  9
$USERI4
 70
     0
  9
$USERI5
 70
     0
  9
$USERR1
 40
0.0
  9
$USERR2
 40
0.0
  9
$USERR3
 40
0.0
  9
$USERR4
 40
0.0
  9
$USERR5
 40
0.0
  9
$WORLDVIEW
 70
     1
  9
$SHADEDGE
 70
     3
  9
$SHADEDIF
 70
    70
  9
$TILEMODE
 70
     1
  9
$MAXACTVP
 70
    64
  9
$PLIMCHECK
 70
     0
  9
$PEXTMIN
 10
1.0000000000000000E+20
 20
1.0000000000000000E+20
 30
1.0000000000000000E+20
  9
$PEXTMAX
 10
-1.0000000000000000E+20
 20
-1.0000000000000000E+20
 30
-1.0000000000000000E+20
  9
$PLIMMIN
 10
0.0
 20
0.0
  9
$PLIMMAX
 10
12.0
 20
9.0
  9
$UNITMODE
 70
     0
  9
$VISRETAIN
 70
     1
  9
$PLINEGEN
 70
     0
  9
$PSLTSCALE
 70
     1
  0
ENDSEC
  0
SECTION
  2
TABLES
  0
TABLE
  2
VPORT
 70
     1
  0
VPORT
  2
*ACTIVE
 70
     0
 10
0.0
 20
0.0
 11
1.0
 21
1.0
 12
32.1409172873654825
 22
2.8065990151440579
 13
0.0
 23
0.0
 14
1.0
 24
1.0
 15
0.0
 25
0.0
 16
0.0
 26
0.0
 36
20.9203132949307395
 17
3515.499267578125
 27
160.6819381713866903
 37
0.0
 40
6.659841300580438
 41
1.67063492063492
 42
50.0
 43
0.0
 44
0.0
 50
0.0
 51
0.0
 71
     0
 72
   100
 73
     1
 74
     1
 75
     0
 76
     0
 77
     0
 78
     0
  0
ENDTAB
  0
TABLE
  2
LTYPE
 70
     2
  0
LTYPE
  2
CONTINUOUS
 70
     0
  3
Solid line
 72
    65
 73
     0
 40
0.0
  0
LTYPE
  2
PHANTOM2
 70
     0
  3
___ _ _ ___ _ _ ___ _ _ ___ _ _
 72
    65
 73
     6
 40
1.25
 49
0.625
 49
-0.125
 49
0.125
 49
-0.125
 49
0.125
 49
-0.125
  0
ENDTAB
  0
TABLE
  2
LAYER
 70
     2
  0
LAYER
  2
0
 70
     0
 62
   255
  6
CONTINUOUS
  0
LAYER
  2
DEFPOINTS
 70
     0
 62
     7
  6
CONTINUOUS
  0
ENDTAB
  0
TABLE
  2
STYLE
 70
     1
  0
STYLE
  2
STANDARD
 70
     0
 40
0.0
 41
0.8
 50
0.0
 71
     0
 42
0.2
  3
txt
  4

  0
ENDTAB
  0
TABLE
  2
VIEW
 70
     0
  0
ENDTAB
  0
TABLE
  2
UCS
 70
     0
  0
ENDTAB
  0
TABLE
  2
APPID
 70
     9
  0
APPID
  2
ACAD
 70
     0
  0
APPID
  2
ACAD_MLEADERVER
 70
     0
  0
APPID
  2
ACAD_EXEMPT_FROM_CAD_STANDARDS
 70
     0
  0
APPID
  2
ACAD_NAV_VCDISPLAY
 70
     0
  0
APPID
  2
ACAECLAYERSTANDARD
 70
     0
  0
APPID
  2
ACCMTRANSPARENCY
 70
     0
  0
APPID
  2
ACAD_DSTYLE_DIMJAG
 70
     0
  0
APPID
  2
ACAD_DSTYLE_DIMTALN
 70
     0
  0
APPID
  2
ACDBATTR
 70
     0
  0
ENDTAB
  0
TABLE
  2
DIMSTYLE
 70
     1
  0
DIMSTYLE
  2
STANDARD
 70
     0
  3

  4

  5

  6

  7

 40
1.0
 41
0.1875
 42
0.0625
 43
0.38
 44
0.125
 45
0.0
 46
0.0
 47
0.01
 48
0.01
140
0.15625
141
0.09
142
0.0
143
25.3999999999999986
144
1.0
145
0.0
146
1.0
147
0.09
 71
     1
 72
     0
 73
     1
 74
     1
 75
     0
 76
     0
 77
     0
 78
     4
170
     0
171
     2
172
     0
173
     0
174
     0
175
     0
176
     0
177
     0
178
     0
  0
ENDTAB
  0
ENDSEC
  0
SECTION
  2
BLOCKS
  0
BLOCK
  8
0
  2
$MODEL_SPACE
 70
     0
 10
0.0
 20
0.0
 30
0.0
  3
$MODEL_SPACE
  1

  0
ENDBLK
  5
21
  8
0
  0
BLOCK
 67
     1
  8
0
  2
$PAPER_SPACE
 70
     0
 10
0.0
 20
0.0
 30
0.0
  3
$PAPER_SPACE
  1

  0
ENDBLK
  5
1D
 67
     1
  8
0
  0
ENDSEC
  0
SECTION
  2
ENTITIES
  0
ATTDEF
  5
12BEB
  8
DEFPOINTS
 10
3547.6192072790850034
 20
161.6717830949856989
 30
0.0
 40
0.001
  1
K-98068BR-4
  3

  2
MODELNUMBER
 70
     0
1001
ACDBATTR
1070
     0
1070
     1
  0
ATTDEF
  5
12BEC
  8
DEFPOINTS
 10
3547.6192072790850034
 20
161.6701164283190053
 30
0.0
 40
0.001
  1
ARTIFACTS
  3

  2
TRADENAME
 70
     0
1001
ACDBATTR
1070
     0
1070
     1
  0
ATTDEF
  5
12BED
  8
DEFPOINTS
 10
3547.6192072790850034
 20
161.668449761652397
 30
0.0
 40
0.001
  1
BATHROOM SINK FAUCET HANDLES
  3

  2
PRODUCT
 70
     0
1001
ACDBATTR
1070
     0
1070
     1
  0
LINE
  5
140C3
  8
0
 10
3548.4717056020717791
 20
161.6674294961607075
 30
0.0
 11
3550.7117056020720156
 21
161.6674294961607075
 31
0.0
  0
ARC
  5
140C4
  8
0
 10
3549.5917056020721247
 20
164.6129105237720012
 30
0.0
 40
0.4749999999999989
 50
151.3894398640192094
 51
223.9765223918059007
  0
LINE
  5
140C5
  8
0
 10
3552.9143276493718986
 20
164.716091322820688
 30
0.0
 11
3552.9143276493718986
 21
164.5097297247232859
 31
0.0
  0
ARC
  5
140C6
  8
0
 10
3550.0750585665878134
 20
164.8856989986396968
 30
0.0
 40
0.0800253392033454
 50
209.4623338560749062
 51
276.9545005028074911
  0
ARC
  5
140C7
  8
0
 10
3550.0676433254411677
 20
165.0721201733153123
 30
0.0
 40
0.2664074141901056
 50
273.6812313264381942
 51
337.1102596216576899
  0
ARC
  5
140C8
  8
0
 10
3550.337904568832073
 20
164.9612827935299038
 30
0.0
 40
0.0258592227099232
 50
75.465987863768504
 51
163.7969377414875112
  0
ARC
  5
140C9
  8
0
 10
3550.324053729453226
 20
164.7912353557208007
 30
0.0
 40
0.1961366823523685
 50
25.7554404321012207
 51
84.047445383118017
  0
LINE
  5
140CA
  8
0
 10
3550.5007056020717755
 20
164.8983435946720135
 30
0.0
 11
3550.5007056020717755
 21
164.3274774528719888
 31
0.0
  0
LINE
  5
140CB
  8
0
 10
3550.5243276493720259
 20
164.8983435946720135
 30
0.0
 11
3550.5243276493720259
 21
164.3274774528719888
 31
0.0
  0
LINE
  5
140CC
  8
0
 10
3550.5007056020717755
 20
164.8983435946720135
 30
0.0
 11
3550.5243276493720259
 21
164.8983435946720135
 31
0.0
  0
ARC
  5
140CD
  8
0
 10
3550.5743276493722078
 20
164.8729105237719921
 30
0.0
 40
0.0499999999999986
 50
23.3539058536496498
 51
180.0
  0
ARC
  5
140CE
  8
0
 10
3550.6477735563230453
 20
164.9046232786240012
 30
0.0
 40
0.0300000004263116
 50
203.3539058536497066
 51
273.9999992703307043
  0
LINE
  5
140CF
  8
0
 10
3550.6498662501840045
 20
164.8746963566642023
 30
0.0
 11
3552.1746808833418072
 21
164.9813217632519979
 31
0.0
  0
ARC
  5
140D0
  8
0
 10
3552.1725881905290407
 20
165.0112486702149965
 30
0.0
 40
0.0299999853929338
 50
273.9999992703307043
 51
339.253966677030121
  0
ARC
  5
140D1
  8
0
 10
3552.247400914984155
 20
164.9829105871160948
 30
0.0
 40
0.0499999564454306
 50
59.999941297118589
 51
159.2539666770300926
  0
ARC
  5
140D2
  8
0
 10
3552.2874009482229667
 20
165.0521925130605894
 30
0.0
 40
0.0299999680649811
 50
239.9999412971185961
 51
327.7958311637506199
  0
ARC
  5
140D3
  8
0
 10
3552.3974009375729111
 20
164.9829106447809011
 30
0.0
 40
0.0999999355089887
 50
32.2041688543726465
 51
147.7958311637505915
  0
ARC
  5
140D4
  8
0
 10
3552.5074009269351336
 20
165.0521925131176886
 30
0.0
 40
0.0299999681067534
 50
212.2041688543727105
 51
300.0000586233048239
  0
ARC
  5
140D5
  8
0
 10
3552.5474009618278615
 20
164.9829105840867953
 30
0.0
 40
0.0499999599032977
 50
16.2005275217974614
 51
120.000058623304696
  0
ARC
  5
140D6
  8
0
 10
3552.6242241533868764
 20
165.0052305514684008
 30
0.0
 40
0.0299999382546332
 50
196.2005275217958911
 51
248.8622961824675031
  0
ARC
  5
140D7
  8
0
 10
3552.537198132634785
 20
164.7629036705108092
 30
0.0
 40
0.2274897515501752
 50
27.9793975688793104
 51
70.4278212394355307
  0
ARC
  5
140D8
  8
0
 10
3552.7649990746717776
 20
164.8829105237720114
 30
0.0
 40
0.0299999999999933
 50
206.272268077594191
 51
270.0
  0
ARC
  5
140D9
  8
0
 10
3552.7759400232221196
 20
165.0442500891859083
 30
0.0
 40
0.1916521162104362
 50
266.7273454517593905
 51
273.2726545482407232
  0
ARC
  5
140DA
  8
0
 10
3552.7868809717720069
 20
164.8229105237720091
 30
0.0
 40
0.029999999999999
 50
9.7011947309922562
 51
90.0
  0
ARC
  5
140DB
  8
0
 10
3552.9182541460381799
 20
164.8429723234644086
 30
0.0
 40
0.1029022742686383
 50
188.3854936365287074
 51
255.9835432236824886
  0
ARC
  5
140DC
  8
0
 10
3552.884258151028007
 20
164.714416968140597
 30
0.0
 40
0.0301160786662946
 50
3.187099759064997
 51
72.466234228014045
  0
ARC
  5
140DD
  8
0
 10
3550.0750585665878134
 20
164.3401220489043908
 30
0.0
 40
0.0800253392033454
 50
83.0454994971925231
 51
149.7863924803156124
  0
ARC
  5
140DE
  8
0
 10
3550.0676433254411677
 20
164.1537008742286901
 30
0.0
 40
0.2664074141901056
 50
22.8897403783423705
 51
86.3187686735617916
  0
ARC
  5
140DF
  8
0
 10
3550.337904568832073
 20
164.2645382540142123
 30
0.0
 40
0.0258592227099232
 50
196.2030622585124888
 51
284.5340121362315244
  0
ARC
  5
140E0
  8
0
 10
3550.324053729453226
 20
164.4345856918232869
 30
0.0
 40
0.1961366823523685
 50
275.9525546168820256
 51
334.2445595678988184
  0
LINE
  5
140E1
  8
0
 10
3550.5007056020717755
 20
164.3274774528719888
 30
0.0
 11
3550.5243276493720259
 21
164.3274774528719888
 31
0.0
  0
ARC
  5
140E2
  8
0
 10
3550.5743276493722078
 20
164.3529105237720103
 30
0.0
 40
0.0499999999999986
 50
180.0
 51
336.6460941463503218
  0
ARC
  5
140E3
  8
0
 10
3550.6477735563230453
 20
164.3211977689200864
 30
0.0
 40
0.0300000004263116
 50
86.0000007296693099
 51
156.6460941463502934
  0
LINE
  5
140E4
  8
0
 10
3550.6498662501840045
 20
164.3511246908798
 30
0.0
 11
3552.1746808833418072
 21
164.2444992842920044
 31
0.0
  0
ARC
  5
140E5
  8
0
 10
3552.1725881905290407
 20
164.2145723773290911
 30
0.0
 40
0.0299999853929338
 50
20.746033322969911
 51
86.0000007296693099
  0
ARC
  5
140E6
  8
0
 10
3552.247400914984155
 20
164.2429104604279075
 30
0.0
 40
0.0499999564454306
 50
200.7460333229699074
 51
300.0000587028814039
  0
ARC
  5
140E7
  8
0
 10
3552.2874009482229667
 20
164.173628534483413
 30
0.0
 40
0.0299999680649811
 50
32.2041688362493517
 51
120.0000587028814039
  0
ARC
  5
140E8
  8
0
 10
3552.3974009375729111
 20
164.2429104027631013
 30
0.0
 40
0.0999999355089887
 50
212.2041688362492948
 51
327.7958311456274032
  0
ARC
  5
140E9
  8
0
 10
3552.5074009269351336
 20
164.173628534426399
 30
0.0
 40
0.0299999681067534
 50
59.9999413766952685
 51
147.7958311456272895
  0
ARC
  5
140EA
  8
0
 10
3552.5474009618278615
 20
164.242910463457207
 30
0.0
 40
0.0499999599032977
 50
239.9999413766952046
 51
343.7994724782025173
  0
ARC
  5
140EB
  8
0
 10
3552.6242241533868764
 20
164.2205904960756868
 30
0.0
 40
0.0299999382546332
 50
111.1377038175324969
 51
163.7994724782041089
  0
ARC
  5
140EC
  8
0
 10
3552.537198132634785
 20
164.4629173770331931
 30
0.0
 40
0.2274897515501752
 50
289.5721787605644977
 51
332.0206024311207216
  0
ARC
  5
140ED
  8
0
 10
3552.7649990746717776
 20
164.3429105237719909
 30
0.0
 40
0.0299999999999933
 50
90.0
 51
153.727731922405809
  0
ARC
  5
140EE
  8
0
 10
3552.7759400232221196
 20
164.1815709583582077
 30
0.0
 40
0.1916521162104362
 50
86.7273454517593336
 51
93.2726545482406806
  0
ARC
  5
140EF
  8
0
 10
3552.7868809717720069
 20
164.4029105237719932
 30
0.0
 40
0.029999999999999
 50
270.0
 51
350.298805269007687
  0
ARC
  5
140F0
  8
0
 10
3552.9182541460381799
 20
164.3828487240795937
 30
0.0
 40
0.1029022742686383
 50
104.0164567763174972
 51
171.6145063634695873
  0
ARC
  5
140F1
  8
0
 10
3552.884258151028007
 20
164.5114040794034054
 30
0.0
 40
0.0301160786662946
 50
287.5337657719858839
 51
356.8129002409349937
  0
LINE
  5
140F2
  8
0
 10
3550.6202313409721683
 20
164.8927309954488862
 30
0.0
 11
3550.6202313409721683
 21
164.3330900520952014
 31
0.0
  0
LINE
  5
140F3
  8
0
 10
3552.2006429689718061
 20
165.0006218865947858
 30
0.0
 11
3552.2006429689718061
 21
164.2251991609493018
 31
0.0
  0
LINE
  5
140F4
  8
0
 10
3552.3127855529719454
 20
165.0362043947957886
 30
0.0
 11
3552.3127855529719454
 21
164.1896166527482137
 31
0.0
  0
LINE
  5
140F5
  8
0
 10
3552.4820163221720577
 20
165.0362043947986024
 30
0.0
 11
3552.4820163221720577
 21
164.1896166527455136
 31
0.0
  0
LINE
  5
140F6
  8
0
 10
3552.5954154791720612
 20
164.9968605702719913
 30
0.0
 11
3552.5954154791720612
 21
164.2289604772720111
 31
0.0
  0
LINE
  5
140F7
  8
0
 10
3552.8164519704719169
 20
164.8279658215440975
 30
0.0
 11
3552.8164519704719169
 21
164.3978552259999901
 31
0.0
  0
LINE
  5
140F8
  8
0
 10
3552.738098051272118
 20
164.869631407073598
 30
0.0
 11
3552.738098051272118
 21
164.3561896404704896
 31
0.0
  0
LINE
  5
140F9
  8
0
 10
3550.3129842366720368
 20
164.9682897942728914
 30
0.0
 11
3550.3129842366720368
 21
164.2575312532711109
 31
0.0
  0
LINE
  5
140FA
  8
0
 10
3550.0053821661717848
 20
164.8463384328443055
 30
0.0
 11
3550.0053821661717848
 21
164.3794652404305054
 31
0.0
  0
LINE
  5
140FB
  8
0
 10
3548.7727056020721648
 20
162.0870003622719935
 30
0.0
 11
3548.7727056020721648
 21
162.1499425279720015
 31
0.0
  0
LINE
  5
140FC
  8
0
 10
3548.8286120846241829
 20
161.9874294961607859
 30
0.0
 11
3550.3547991195191571
 21
161.9874294961607859
 31
0.0
  0
LINE
  5
140FD
  8
0
 10
3548.8027056020719101
 20
162.0570003622719923
 30
0.0
 11
3550.3807056020718846
 21
162.0570003622719923
 31
0.0
  0
LINE
  5
140FE
  8
0
 10
3548.798694709234951
 20
162.1796731979719937
 30
0.0
 11
3550.3847164949088437
 21
162.1796731979719937
 31
0.0
  0
LINE
  5
140FF
  8
0
 10
3549.1714751770718976
 20
162.5277854870720091
 30
0.0
 11
3550.0119360270718971
 21
162.5277854870720091
 31
0.0
  0
LINE
  5
14100
  8
0
 10
3549.2360879550719801
 20
162.6242792638720118
 30
0.0
 11
3549.9473232490718146
 21
162.6242792638720118
 31
0.0
  0
LINE
  5
14101
  8
0
 10
3549.2457056020380151
 20
162.8284004869719865
 30
0.0
 11
3549.9377056021057797
 21
162.8284004869719865
 31
0.0
  0
LINE
  5
14102
  8
0
 10
3549.2930363799719089
 20
162.9401991214720056
 30
0.0
 11
3549.8903748241727953
 21
162.9401991214720056
 31
0.0
  0
LINE
  5
14103
  8
0
 10
3549.2917056022561155
 20
163.9869199632719869
 30
0.0
 11
3549.8917056018890435
 21
163.9869199632719869
 31
0.0
  0
LINE
  5
14104
  8
0
 10
3549.2329019857847925
 20
164.944759998971989
 30
0.0
 11
3549.9505092183590023
 21
164.944759998971989
 31
0.0
  0
LINE
  5
14105
  8
0
 10
3549.2772997640718131
 20
165.0639467667720055
 30
0.0
 11
3549.9061114400719816
 21
165.0639467667720055
 31
0.0
  0
LINE
  5
14106
  8
0
 10
3549.2843406778461031
 20
165.1955003622720142
 30
0.0
 11
3549.8990705262981464
 21
165.1955003622720142
 31
0.0
  0
LINE
  5
14107
  8
0
 10
3549.3078590364721094
 20
165.2025003622719908
 30
0.0
 11
3549.8755521676721401
 21
165.2025003622719908
 31
0.0
  0
ARC
  5
14108
  8
0
 10
3548.841781619737958
 20
161.6137063364789128
 30
0.0
 40
0.3739551266364359
 50
92.0181962606036592
 51
171.7401909234486084
  0
ARC
  5
14109
  8
0
 10
3548.9656718602859655
 20
162.0189175797569874
 30
0.0
 40
0.03290340593788
 50
286.8660760038425224
 51
344.5522179604138842
  0
ARC
  5
1410A
  8
0
 10
3548.8027056020719101
 20
162.0870003622719935
 30
0.0
 40
0.0300000000000029
 50
180.0000000000048885
 51
270.0
  0
ARC
  5
1410B
  8
0
 10
3548.8027056020719101
 20
162.1499425279720015
 30
0.0
 40
0.030000000000002
 50
97.6832473904021157
 51
179.9999999999984084
  0
ARC
  5
1410C
  8
0
 10
3548.7725847290039383
 20
162.4464181925202979
 30
0.0
 40
0.2680198186407328
 50
275.5905121942647042
 51
328.5609007473960901
  0
ARC
  5
1410D
  8
0
 10
3551.1440314308370034
 20
161.1946981997068917
 30
0.0
 40
2.4140942639548268
 50
148.1570140390809911
 51
152.574404487411897
  0
ARC
  5
1410E
  8
0
 10
3549.2301744408600825
 20
162.3693558926740934
 30
0.0
 40
0.1689542540165101
 50
110.3300173557594945
 51
144.1284189494575969
  0
ARC
  5
1410F
  8
0
 10
3549.1527056019258453
 20
162.5847741093257071
 30
0.0
 40
0.0600000001461837
 50
288.2296363579292233
 51
359.9999999487300784
  0
ARC
  5
14110
  8
0
 10
3549.2890986721508852
 20
162.5898961812220023
 30
0.0
 40
0.0765645921902776
 50
176.1641217942971878
 51
183.8358782056930067
  0
ARC
  5
14111
  8
0
 10
3549.2427056020392229
 20
162.5950182531813084
 30
0.0
 40
0.0299999999670266
 50
102.743585056687607
 51
180.0000000177564914
  0
ARC
  5
14112
  8
0
 10
3549.2127056020540294
 20
162.7276681683592869
 30
0.0
 40
0.1060000000175407
 50
282.7435852623787014
 51
71.8611566574365952
  0
ARC
  5
14113
  8
0
 10
3549.3066930782852069
 20
162.8684992228197927
 30
0.0
 40
0.0729889092638646
 50
100.7839699524656965
 51
213.3245723167262895
  0
ARC
  5
14114
  8
0
 10
3549.2816856875028861
 20
162.9991359687392105
 30
0.0
 40
0.06001991490603
 50
280.9011666539798853
 51
359.993928502893084
  0
LINE
  5
14115
  8
0
 10
3549.3417056020721247
 20
162.999129608571991
 30
0.0
 11
3549.3417056020721247
 21
163.927759165471997
 31
0.0
  0
ARC
  5
14116
  8
0
 10
3549.2817056020721793
 20
163.927759165471997
 30
0.0
 40
0.0599999999999978
 50
359.9999999999984084
 51
80.405931773095574
  0
ARC
  5
14117
  8
0
 10
3549.296705602072052
 20
164.0165003622186077
 30
0.0
 40
0.0300000000000728
 50
179.9999998979307065
 51
260.405931773095574
  0
LINE
  5
14118
  8
0
 10
3549.2667056020718519
 20
164.0165003622720121
 30
0.0
 11
3549.2667056024729391
 21
164.2414270118416084
 31
0.0
  0
ARC
  5
14119
  8
0
 10
3549.2067055997181342
 20
164.2414270098445002
 30
0.0
 40
0.0600000027544834
 50
0.000001907034939
 51
43.9752092750744126
  0
ARC
  5
1411A
  8
0
 10
3548.8801001584902224
 20
165.0084642605185934
 30
0.0
 40
0.3391893097521122
 50
330.2914509465308015
 51
345.1429468340215863
  0
ARC
  5
1411B
  8
0
 10
3549.236223635395163
 20
164.9161845823433907
 30
0.0
 40
0.0287678256326018
 50
96.6303913624141018
 51
169.3659107865572935
  0
ARC
  5
1411C
  8
0
 10
3549.2300340507108558
 20
165.027285996210594
 30
0.0
 40
0.0825758152960592
 50
271.9903361290889166
 51
333.9647385100965948
  0
ARC
  5
1411D
  8
0
 10
3549.2575588582299133
 20
165.0152279980432866
 30
0.0
 40
0.0525663560644843
 50
332.6055240276730274
 51
67.9421474251842739
  0
ARC
  5
1411E
  8
0
 10
3549.2855815674338373
 20
165.0927809777004995
 30
0.0
 40
0.0299999997799531
 50
205.946643897924389
 51
253.9748000016865888
  0
ARC
  5
1411F
  8
0
 10
3549.3628047311099181
 20
165.1304689999529103
 30
0.0
 40
0.1159290482423634
 50
155.9584593644653978
 51
205.9967509285195888
  0
ARC
  5
14120
  8
0
 10
3549.2843406778461031
 20
165.165500362359893
 30
0.0
 40
0.029999999912161
 50
89.9999999502868491
 51
156.0085664898201117
  0
ARC
  5
14121
  8
0
 10
3549.316859036472124
 20
165.2005003622720096
 30
0.0
 40
0.004999999999999
 50
179.9999999999787974
 51
270.0
  0
LINE
  5
14122
  8
0
 10
3549.3118590364720149
 20
165.2005003622720096
 30
0.0
 11
3549.3118590364720149
 21
165.2025003622719908
 31
0.0
  0
LINE
  5
14123
  8
0
 10
3549.3078590364721094
 20
165.2025003622719908
 30
0.0
 11
3549.3091872213722127
 21
165.2066028630719927
 31
0.0
  0
LINE
  5
14124
  8
0
 10
3549.2498831721732131
 20
164.2830887136719866
 30
0.0
 11
3549.9335280319710364
 21
164.2830887136719866
 31
0.0
  0
ARC
  5
14125
  8
0
 10
3549.5917056020721247
 20
164.6129105237720012
 30
0.0
 40
0.4749999999999989
 50
316.0234776081941277
 51
330.6915562599303939
  0
LINE
  5
14126
  8
0
 10
3550.4107056020720847
 20
162.0870003622719935
 30
0.0
 11
3550.4107056020720847
 21
162.1499425279720015
 31
0.0
  0
ARC
  5
14127
  8
0
 10
3550.3416295844058368
 20
161.6137063364789128
 30
0.0
 40
0.3739551266364359
 50
8.2598090765513383
 51
87.981803739396355
  0
ARC
  5
14128
  8
0
 10
3550.2177393438591935
 20
162.0189175797569874
 30
0.0
 40
0.032903405937885
 50
195.4477820395906917
 51
253.1339239961571081
  0
ARC
  5
14129
  8
0
 10
3550.3807056020718846
 20
162.0870003622719935
 30
0.0
 40
0.0300000000000029
 50
270.0
 51
359.9999999999951115
  0
ARC
  5
1412A
  8
0
 10
3550.3807056020718846
 20
162.1499425279720015
 30
0.0
 40
0.030000000000002
 50
0.0000000000016284
 51
82.3167526095978843
  0
ARC
  5
1412B
  8
0
 10
3550.4108264751398565
 20
162.4464181925202979
 30
0.0
 40
0.2680198186407328
 50
211.4390992526039952
 51
264.4094878057351821
  0
ARC
  5
1412C
  8
0
 10
3548.0393797733058818
 20
161.1946981997068917
 30
0.0
 40
2.4140942639548268
 50
27.4255955125880817
 51
31.8429859609189982
  0
ARC
  5
1412D
  8
0
 10
3549.9532367632850764
 20
162.3693558926740934
 30
0.0
 40
0.1689542540165101
 50
35.8715810505424102
 51
69.6699826442404486
  0
ARC
  5
1412E
  8
0
 10
3550.0307056022179495
 20
162.5847741093257071
 30
0.0
 40
0.0600000001461837
 50
180.0000000512698932
 51
251.7703636420708904
  0
ARC
  5
1412F
  8
0
 10
3549.894312531992
 20
162.5898961812220023
 30
0.0
 40
0.0765645921902776
 50
356.1641217943069933
 51
3.8358782057027572
  0
ARC
  5
14130
  8
0
 10
3549.9407056021050266
 20
162.5950182531813084
 30
0.0
 40
0.0299999999670266
 50
359.9999999822434233
 51
77.2564149433124214
  0
ARC
  5
14131
  8
0
 10
3549.9707056020902201
 20
162.7276681683592869
 30
0.0
 40
0.1060000000175407
 50
108.1388433425634048
 51
257.2564147376211849
  0
ARC
  5
14132
  8
0
 10
3549.8767181258590426
 20
162.8684992228197927
 30
0.0
 40
0.0729889092638646
 50
326.6754276832735968
 51
79.2160300475342751
  0
ARC
  5
14133
  8
0
 10
3549.9017255166409086
 20
162.9991359687392105
 30
0.0
 40
0.06001991490603
 50
180.0060714971068876
 51
259.098833346020001
  0
LINE
  5
14134
  8
0
 10
3549.8417056020721247
 20
162.999129608571991
 30
0.0
 11
3549.8417056020721247
 21
163.927759165471997
 31
0.0
  0
ARC
  5
14135
  8
0
 10
3549.9017056020720702
 20
163.927759165471997
 30
0.0
 40
0.0599999999999978
 50
99.594068226904426
 51
180.0000000000015916
  0
ARC
  5
14136
  8
0
 10
3549.8867056020721975
 20
164.0165003622186077
 30
0.0
 40
0.0300000000000728
 50
279.594068226904426
 51
0.0000001020692413
  0
LINE
  5
14137
  8
0
 10
3549.9167056020719428
 20
164.0165003622720121
 30
0.0
 11
3549.9167056016708557
 21
164.2414270118416084
 31
0.0
  0
ARC
  5
14138
  8
0
 10
3549.9767056044261153
 20
164.2414270098445002
 30
0.0
 40
0.0600000027544834
 50
136.0247907249255945
 51
179.9999980929650008
  0
ARC
  5
14139
  8
0
 10
3550.3030178072071976
 20
165.0083673854782091
 30
0.0
 40
0.3388810356245763
 50
194.8539341707717938
 51
208.5632948221330878
  0
ARC
  5
1413A
  8
0
 10
3549.9471875687490865
 20
164.9161845823433907
 30
0.0
 40
0.0287678256326018
 50
10.6340892134426692
 51
83.369608637585884
  0
ARC
  5
1413B
  8
0
 10
3549.9533771534338484
 20
165.027285996210594
 30
0.0
 40
0.0825758152960592
 50
206.0352614899034052
 51
268.0096638709110834
  0
ARC
  5
1413C
  8
0
 10
3549.9258523459129719
 20
165.0152279980432866
 30
0.0
 40
0.0525663560644843
 50
112.0578525748156977
 51
207.394475972327001
  0
ARC
  5
1413D
  8
0
 10
3549.8978296367099574
 20
165.0927809777004995
 30
0.0
 40
0.0299999997799531
 50
286.0251999983133828
 51
334.0533561020740763
  0
ARC
  5
1413E
  8
0
 10
3549.8206064730329672
 20
165.1304689999529103
 30
0.0
 40
0.1159290482423634
 50
334.0032490714789901
 51
24.0415406355345489
  0
ARC
  5
1413F
  8
0
 10
3549.8990705262981464
 20
165.165500362359893
 30
0.0
 40
0.029999999912161
 50
23.9914335101798706
 51
90.0000000497131367
  0
ARC
  5
14140
  8
0
 10
3549.8665521676721255
 20
165.2005003622720096
 30
0.0
 40
0.004999999999999
 50
270.0
 51
0.0000000000211698
  0
LINE
  5
14141
  8
0
 10
3549.8715521676717799
 20
165.2005003622720096
 30
0.0
 11
3549.8715521676717799
 21
165.2025003622719908
 31
0.0
  0
LINE
  5
14142
  8
0
 10
3549.8755521676721401
 20
165.2025003622719908
 30
0.0
 11
3549.8742239827711273
 21
165.2066028630719927
 31
0.0
  0
ARC
  5
14143
  8
0
 10
3549.4971897188679577
 20
165.0647942540622921
 30
0.0
 40
0.2354880477940997
 50
109.3519341791568991
 51
142.9730748706508905
  0
ARC
  5
14144
  8
0
 10
3549.686221485275837
 20
165.0647942540622921
 30
0.0
 40
0.2354880477940997
 50
37.0269251293491024
 51
70.6480658208430441
  0
ARC
  5
14145
  8
0
 10
3549.5917056020721247
 20
164.7598680043965089
 30
0.0
 40
0.5546329454754916
 50
71.8741194977804696
 51
108.125880502219502
  0
LINE
  5
14146
  8
0
 10
3546.7746977280721694
 20
161.6674294961607927
 30
0.0
 11
3544.5346977280710234
 21
161.6674294961607927
 31
0.0
  0
ARC
  5
14147
  8
0
 10
3545.6546977280718238
 20
164.6129105237720864
 30
0.0
 40
0.4749999999999989
 50
316.0234776081941277
 51
28.6105601359807586
  0
LINE
  5
14148
  8
0
 10
3542.33207568077205
 20
164.716091322820688
 30
0.0
 11
3542.33207568077205
 21
164.5097297247232859
 31
0.0
  0
ARC
  5
14149
  8
0
 10
3545.1713447635561351
 20
164.8856989986396968
 30
0.0
 40
0.0800253392033454
 50
263.0454994971925089
 51
330.5376661439236727
  0
ARC
  5
1414A
  8
0
 10
3545.1787600047027809
 20
165.0721201733153123
 30
0.0
 40
0.2664074141901056
 50
202.8897403783423954
 51
266.3187686735616921
  0
ARC
  5
1414B
  8
0
 10
3544.9084987613118756
 20
164.9612827935299038
 30
0.0
 40
0.0258592227099232
 50
16.2030622585125101
 51
104.534012136231496
  0
ARC
  5
1414C
  8
0
 10
3544.9223496006920868
 20
164.7912353557208007
 30
0.0
 40
0.1961366823523685
 50
95.9525546168819972
 51
154.24455956789879
  0
LINE
  5
1414D
  8
0
 10
3544.745697728072173
 20
164.8983435946720135
 30
0.0
 11
3544.745697728072173
 21
164.3274774528721025
 31
0.0
  0
LINE
  5
1414E
  8
0
 10
3544.7220756807719226
 20
164.8983435946720135
 30
0.0
 11
3544.7220756807719226
 21
164.3274774528721025
 31
0.0
  0
LINE
  5
1414F
  8
0
 10
3544.745697728072173
 20
164.8983435946720135
 30
0.0
 11
3544.7220756807719226
 21
164.8983435946720135
 31
0.0
  0
ARC
  5
14150
  8
0
 10
3544.6720756807721955
 20
164.8729105237721058
 30
0.0
 40
0.0499999999999986
 50
0.0
 51
156.6460941463502934
  0
ARC
  5
14151
  8
0
 10
3544.5986297738209032
 20
164.9046232786240012
 30
0.0
 40
0.0300000004263116
 50
266.0000007296692957
 51
336.6460941463503218
  0
LINE
  5
14152
  8
0
 10
3544.5965370799599441
 20
164.8746963566642876
 30
0.0
 11
3543.0717224468021413
 21
164.9813217632521116
 31
0.0
  0
ARC
  5
14153
  8
0
 10
3543.0738151396149078
 20
165.0112486702149965
 30
0.0
 40
0.0299999853929338
 50
200.7460333229699074
 51
266.0000007296692957
  0
ARC
  5
14154
  8
0
 10
3542.9990024151597936
 20
164.9829105871162085
 30
0.0
 40
0.0499999564454306
 50
20.746033322969911
 51
120.0000587028814039
  0
ARC
  5
14155
  8
0
 10
3542.9590023819209819
 20
165.052192513060703
 30
0.0
 40
0.0299999680649811
 50
212.2041688362492948
 51
300.0000587028814039
  0
ARC
  5
14156
  8
0
 10
3542.8490023925710375
 20
164.9829106447809863
 30
0.0
 40
0.0999999355089887
 50
32.2041688362493517
 51
147.7958311456272895
  0
ARC
  5
14157
  8
0
 10
3542.7390024032079054
 20
165.0521925131176886
 30
0.0
 40
0.0299999681067534
 50
239.9999413766952046
 51
327.7958311456274032
  0
ARC
  5
14158
  8
0
 10
3542.6990023683160871
 20
164.9829105840867953
 30
0.0
 40
0.0499999599032977
 50
59.9999413766952685
 51
163.7994724782024889
  0
ARC
  5
14159
  8
0
 10
3542.6221791767561626
 20
165.0052305514684008
 30
0.0
 40
0.0299999382546332
 50
291.1377038175324969
 51
343.7994724782041089
  0
ARC
  5
1415A
  8
0
 10
3542.7092051975091636
 20
164.7629036705108945
 30
0.0
 40
0.2274897515501752
 50
109.5721787605644977
 51
152.0206024311206932
  0
ARC
  5
1415B
  8
0
 10
3542.4814042554721709
 20
164.8829105237720114
 30
0.0
 40
0.0299999999999933
 50
270.0
 51
333.7277319224057806
  0
ARC
  5
1415C
  8
0
 10
3542.4704633069218289
 20
165.0442500891859083
 30
0.0
 40
0.1916521162104362
 50
266.7273454517593905
 51
273.2726545482407232
  0
ARC
  5
1415D
  8
0
 10
3542.4595223583719417
 20
164.8229105237720091
 30
0.0
 40
0.029999999999999
 50
90.0
 51
170.298805269007687
  0
ARC
  5
1415E
  8
0
 10
3542.3281491841071329
 20
164.8429723234644086
 30
0.0
 40
0.1029022742686383
 50
284.0164567763175114
 51
351.6145063634663757
  0
ARC
  5
1415F
  8
0
 10
3542.3621451791159416
 20
164.7144169681407107
 30
0.0
 40
0.0301160786662946
 50
107.5337657719859976
 51
176.8129002409349937
  0
ARC
  5
14160
  8
0
 10
3545.1713447635561351
 20
164.3401220489043908
 30
0.0
 40
0.0800253392033454
 50
30.2136075196843983
 51
96.9545005028074911
  0
ARC
  5
14161
  8
0
 10
3545.1787600047027809
 20
164.1537008742288037
 30
0.0
 40
0.2664074141901056
 50
93.6812313264382084
 51
157.1102596216576046
  0
ARC
  5
14162
  8
0
 10
3544.9084987613118756
 20
164.2645382540142123
 30
0.0
 40
0.0258592227099232
 50
255.465987863768504
 51
343.7969377414875112
  0
ARC
  5
14163
  8
0
 10
3544.9223496006920868
 20
164.4345856918232869
 30
0.0
 40
0.1961366823523685
 50
205.75544043210121
 51
264.0474453831179744
  0
LINE
  5
14164
  8
0
 10
3544.745697728072173
 20
164.3274774528721025
 30
0.0
 11
3544.7220756807719226
 21
164.3274774528721025
 31
0.0
  0
ARC
  5
14165
  8
0
 10
3544.6720756807721955
 20
164.3529105237720103
 30
0.0
 40
0.0499999999999986
 50
203.3539058536497066
 51
0.0
  0
ARC
  5
14166
  8
0
 10
3544.5986297738209032
 20
164.3211977689200864
 30
0.0
 40
0.0300000004263116
 50
23.3539058536496498
 51
93.9999992703307043
  0
LINE
  5
14167
  8
0
 10
3544.5965370799599441
 20
164.3511246908798
 30
0.0
 11
3543.0717224468021413
 21
164.2444992842920044
 31
0.0
  0
ARC
  5
14168
  8
0
 10
3543.0738151396149078
 20
164.2145723773290911
 30
0.0
 40
0.0299999853929338
 50
93.9999992703307043
 51
159.2539666770300926
  0
ARC
  5
14169
  8
0
 10
3542.9990024151597936
 20
164.2429104604279075
 30
0.0
 40
0.0499999564454306
 50
239.9999412971185961
 51
339.253966677030121
  0
ARC
  5
1416A
  8
0
 10
3542.9590023819209819
 20
164.173628534483413
 30
0.0
 40
0.0299999680649811
 50
59.999941297118589
 51
147.7958311637505915
  0
ARC
  5
1416B
  8
0
 10
3542.8490023925710375
 20
164.2429104027631013
 30
0.0
 40
0.0999999355089887
 50
212.2041688543727105
 51
327.7958311637506199
  0
ARC
  5
1416C
  8
0
 10
3542.7390024032079054
 20
164.173628534426399
 30
0.0
 40
0.0299999681067534
 50
32.2041688543726465
 51
120.000058623304696
  0
ARC
  5
1416D
  8
0
 10
3542.6990023683160871
 20
164.2429104634572923
 30
0.0
 40
0.0499999599032977
 50
196.2005275217973974
 51
300.0000586233048239
  0
ARC
  5
1416E
  8
0
 10
3542.6221791767561626
 20
164.2205904960756868
 30
0.0
 40
0.0299999382546332
 50
16.2005275217958911
 51
68.8622961824675315
  0
ARC
  5
1416F
  8
0
 10
3542.7092051975091636
 20
164.4629173770331931
 30
0.0
 40
0.2274897515501752
 50
207.9793975688793068
 51
250.4278212394355023
  0
ARC
  5
14170
  8
0
 10
3542.4814042554721709
 20
164.3429105237721046
 30
0.0
 40
0.0299999999999933
 50
26.2722680775942194
 51
90.0
  0
ARC
  5
14171
  8
0
 10
3542.4704633069218289
 20
164.1815709583582077
 30
0.0
 40
0.1916521162104362
 50
86.7273454517593336
 51
93.2726545482406806
  0
ARC
  5
14172
  8
0
 10
3542.4595223583719417
 20
164.4029105237719932
 30
0.0
 40
0.029999999999999
 50
189.7011947309921993
 51
270.0
  0
ARC
  5
14173
  8
0
 10
3542.3281491841071329
 20
164.3828487240797074
 30
0.0
 40
0.1029022742686383
 50
8.3854936365303754
 51
75.9835432236824744
  0
ARC
  5
14174
  8
0
 10
3542.3621451791159416
 20
164.5114040794034054
 30
0.0
 40
0.0301160786662946
 50
183.1870997590650063
 51
252.4662342280140024
  0
LINE
  5
14175
  8
0
 10
3544.6261719891717803
 20
164.8927309954488862
 30
0.0
 11
3544.6261719891717803
 21
164.3330900520952014
 31
0.0
  0
LINE
  5
14176
  8
0
 10
3543.0457603611721424
 20
165.0006218865947858
 30
0.0
 11
3543.0457603611721424
 21
164.2251991609493018
 31
0.0
  0
LINE
  5
14177
  8
0
 10
3542.9336177771720031
 20
165.0362043947957886
 30
0.0
 11
3542.9336177771720031
 21
164.1896166527482137
 31
0.0
  0
LINE
  5
14178
  8
0
 10
3542.7643870079718909
 20
165.0362043947986024
 30
0.0
 11
3542.7643870079718909
 21
164.1896166527455136
 31
0.0
  0
LINE
  5
14179
  8
0
 10
3542.6509878509718874
 20
164.996860570272105
 30
0.0
 11
3542.6509878509718874
 21
164.2289604772720111
 31
0.0
  0
LINE
  5
1417A
  8
0
 10
3542.4299513596720317
 20
164.8279658215440975
 30
0.0
 11
3542.4299513596720317
 21
164.3978552259999901
 31
0.0
  0
LINE
  5
1417B
  8
0
 10
3542.5083052788718305
 20
164.869631407073598
 30
0.0
 11
3542.5083052788718305
 21
164.3561896404704896
 31
0.0
  0
LINE
  5
1417C
  8
0
 10
3544.9334190934719118
 20
164.9682897942728914
 30
0.0
 11
3544.9334190934719118
 21
164.2575312532711962
 31
0.0
  0
LINE
  5
1417D
  8
0
 10
3545.2410211639721638
 20
164.8463384328443055
 30
0.0
 11
3545.2410211639721638
 21
164.3794652404305054
 31
0.0
  0
LINE
  5
1417E
  8
0
 10
3546.4736977280708743
 20
162.0870003622721072
 30
0.0
 11
3546.4736977280708743
 21
162.1499425279720015
 31
0.0
  0
LINE
  5
1417F
  8
0
 10
3546.4177912455188562
 20
161.9874294961607859
 30
0.0
 11
3544.891604210623882
 21
161.9874294961607859
 31
0.0
  0
LINE
  5
14180
  8
0
 10
3546.4436977280720384
 20
162.057000362272106
 30
0.0
 11
3544.8656977280720639
 21
162.057000362272106
 31
0.0
  0
LINE
  5
14181
  8
0
 10
3546.447708620909907
 20
162.1796731979721073
 30
0.0
 11
3544.8616868352351048
 21
162.1796731979721073
 31
0.0
  0
LINE
  5
14182
  8
0
 10
3546.0749281530720509
 20
162.5277854870720091
 30
0.0
 11
3545.2344673030720514
 21
162.5277854870720091
 31
0.0
  0
LINE
  5
14183
  8
0
 10
3546.0103153750719684
 20
162.6242792638720118
 30
0.0
 11
3545.2990800810721339
 21
162.6242792638720118
 31
0.0
  0
LINE
  5
14184
  8
0
 10
3546.0006977281059335
 20
162.8284004869719865
 30
0.0
 11
3545.3086977280381689
 21
162.8284004869719865
 31
0.0
  0
LINE
  5
14185
  8
0
 10
3545.9533669501720397
 20
162.9401991214720056
 30
0.0
 11
3545.3560285059720627
 21
162.9401991214720056
 31
0.0
  0
LINE
  5
14186
  8
0
 10
3545.954697727887833
 20
163.9869199632721006
 30
0.0
 11
3545.3546977282549051
 21
163.9869199632721006
 31
0.0
  0
LINE
  5
14187
  8
0
 10
3546.0135013443591561
 20
164.944759998971989
 30
0.0
 11
3545.2958941117849463
 21
164.944759998971989
 31
0.0
  0
LINE
  5
14188
  8
0
 10
3545.9691035660721354
 20
165.0639467667720055
 30
0.0
 11
3545.3402918900719669
 21
165.0639467667720908
 31
0.0
  0
LINE
  5
14189
  8
0
 10
3545.9620626522978455
 20
165.1955003622720994
 30
0.0
 11
3545.3473328038458021
 21
165.1955003622720994
 31
0.0
  0
LINE
  5
1418A
  8
0
 10
3545.9385442936718391
 20
165.2025003622721044
 30
0.0
 11
3545.3708511624718085
 21
165.2025003622721044
 31
0.0
  0
ARC
  5
1418B
  8
0
 10
3546.4046217104069001
 20
161.6137063364789981
 30
0.0
 40
0.3739551266364359
 50
8.2598090765513383
 51
87.981803739396355
  0
ARC
  5
1418C
  8
0
 10
3546.280731469857983
 20
162.0189175797569874
 30
0.0
 40
0.0329034059378811
 50
195.4477820395891001
 51
253.1339239961575061
  0
LINE
  5
1418D
  8
0
 10
3546.249016745280187
 20
162.0101534273607911
 30
0.0
 11
3546.2403787108801225
 21
162.0447055648942865
 31
0.0
  0
ARC
  5
1418E
  8
0
 10
3546.4436977280720384
 20
162.0870003622721072
 30
0.0
 40
0.0300000000000029
 50
270.0
 51
359.9999999999951115
  0
ARC
  5
1418F
  8
0
 10
3546.4436977280720384
 20
162.1499425279720015
 30
0.0
 40
0.030000000000002
 50
0.0000000000016284
 51
82.3167526095978843
  0
ARC
  5
14190
  8
0
 10
3546.4738186011391008
 20
162.4464181925204116
 30
0.0
 40
0.2680198186407328
 50
211.4390992526039952
 51
264.4094878057351821
  0
ARC
  5
14191
  8
0
 10
3544.1023718993060356
 20
161.1946981997068917
 30
0.0
 40
2.4140942639548268
 50
27.4255955125880817
 51
31.8429859609189982
  0
ARC
  5
14192
  8
0
 10
3546.0162288892847755
 20
162.3693558926742071
 30
0.0
 40
0.1689542540165101
 50
35.8715810505424102
 51
69.6699826442404486
  0
ARC
  5
14193
  8
0
 10
3546.0936977282181033
 20
162.5847741093257071
 30
0.0
 40
0.0600000001461837
 50
180.0000000512698932
 51
251.7703636420708904
  0
ARC
  5
14194
  8
0
 10
3545.9573046579921538
 20
162.5898961812220023
 30
0.0
 40
0.0765645921902776
 50
356.1641217943069933
 51
3.8358782057027572
  0
ARC
  5
14195
  8
0
 10
3546.0036977281051804
 20
162.5950182531813084
 30
0.0
 40
0.0299999999670266
 50
359.9999999822434233
 51
77.2564149433124214
  0
ARC
  5
14196
  8
0
 10
3546.0336977280899191
 20
162.7276681683594006
 30
0.0
 40
0.1060000000175407
 50
108.1388433425634048
 51
257.2564147376211849
  0
ARC
  5
14197
  8
0
 10
3545.9397102518601059
 20
162.8684992228199064
 30
0.0
 40
0.0729889092638646
 50
326.6754276832735968
 51
79.2160300475342751
  0
ARC
  5
14198
  8
0
 10
3545.9647176426410624
 20
162.9991359687392958
 30
0.0
 40
0.06001991490603
 50
180.0060714971068876
 51
259.098833346020001
  0
LINE
  5
14199
  8
0
 10
3545.9046977280718238
 20
162.999129608571991
 30
0.0
 11
3545.9046977280718238
 21
163.9277591654721107
 31
0.0
  0
ARC
  5
1419A
  8
0
 10
3545.964697728072224
 20
163.9277591654721107
 30
0.0
 40
0.0599999999999978
 50
99.594068226904426
 51
180.0000000000015916
  0
ARC
  5
1419B
  8
0
 10
3545.9496977280718966
 20
164.0165003622186077
 30
0.0
 40
0.0300000000000728
 50
279.594068226904426
 51
0.0000001020692413
  0
LINE
  5
1419C
  8
0
 10
3545.9796977280720967
 20
164.0165003622720121
 30
0.0
 11
3545.9796977276710095
 21
164.2414270118416084
 31
0.0
  0
ARC
  5
1419D
  8
0
 10
3546.0396977304258144
 20
164.2414270098446138
 30
0.0
 40
0.0600000027544834
 50
136.0247907249255945
 51
179.9999980929650008
  0
ARC
  5
1419E
  8
0
 10
3546.3663031716541809
 20
165.0084642605185934
 30
0.0
 40
0.3391893097521122
 50
194.8570531659767937
 51
209.7085490534691132
  0
ARC
  5
1419F
  8
0
 10
3546.0101796947487856
 20
164.9161845823435044
 30
0.0
 40
0.0287678256326018
 50
10.6340892134426692
 51
83.369608637585884
  0
ARC
  5
141A0
  8
0
 10
3546.0163692794330927
 20
165.027285996210594
 30
0.0
 40
0.0825758152960592
 50
206.0352614899034052
 51
268.0096638709110834
  0
ARC
  5
141A1
  8
0
 10
3545.9888444719140352
 20
165.0152279980432866
 30
0.0
 40
0.0525663560644843
 50
112.0578525748156977
 51
207.394475972327001
  0
ARC
  5
141A2
  8
0
 10
3545.9608217627101112
 20
165.0927809777006132
 30
0.0
 40
0.0299999997799531
 50
286.0251999983133828
 51
334.0533561020740763
  0
ARC
  5
141A3
  8
0
 10
3545.883598599033121
 20
165.1304689999529103
 30
0.0
 40
0.1159290482423634
 50
334.0032490714789901
 51
24.0415406355345489
  0
ARC
  5
141A4
  8
0
 10
3545.9620626522978455
 20
165.165500362359893
 30
0.0
 40
0.029999999912161
 50
23.9914335101798706
 51
90.0000000497131367
  0
ARC
  5
141A5
  8
0
 10
3545.9295442936718246
 20
165.2005003622720096
 30
0.0
 40
0.004999999999999
 50
270.0
 51
0.0000000000211698
  0
LINE
  5
141A6
  8
0
 10
3545.9345442936719337
 20
165.2005003622720096
 30
0.0
 11
3545.9345442936719337
 21
165.2025003622721044
 31
0.0
  0
LINE
  5
141A7
  8
0
 10
3545.9385442936718391
 20
165.2025003622721044
 30
0.0
 11
3545.9372161087721906
 21
165.2066028630719927
 31
0.0
  0
LINE
  5
141A8
  8
0
 10
3545.9965201579711902
 20
164.2830887136719866
 30
0.0
 11
3545.3128752981729122
 21
164.2830887136719866
 31
0.0
  0
ARC
  5
141A9
  8
0
 10
3545.6546977280718238
 20
164.6129105237720864
 30
0.0
 40
0.4749999999999989
 50
209.3084437400696061
 51
223.9765223918059007
  0
LINE
  5
141AA
  8
0
 10
3544.8356977280718638
 20
162.0870003622721072
 30
0.0
 11
3544.8356977280718638
 21
162.1499425279720015
 31
0.0
  0
ARC
  5
141AB
  8
0
 10
3544.9047737457381118
 20
161.6137063364789981
 30
0.0
 40
0.3739551266364359
 50
92.0181962606036592
 51
171.7401909234486084
  0
ARC
  5
141AC
  8
0
 10
3545.0286639862861193
 20
162.0189175797569874
 30
0.0
 40
0.0329034059378873
 50
286.8660760038425224
 51
344.5522179604030271
  0
LINE
  5
141AD
  8
0
 10
3545.0603787108639153
 20
162.0101534273607911
 30
0.0
 11
3545.069016745323097
 21
162.0447055649497941
 31
0.0
  0
ARC
  5
141AE
  8
0
 10
3544.8656977280720639
 20
162.0870003622721072
 30
0.0
 40
0.0300000000000029
 50
180.0000000000048885
 51
270.0
  0
ARC
  5
141AF
  8
0
 10
3544.8656977280720639
 20
162.1499425279720015
 30
0.0
 40
0.030000000000002
 50
97.6832473904021157
 51
179.9999999999984084
  0
ARC
  5
141B0
  8
0
 10
3544.8355768550050016
 20
162.4464181925204116
 30
0.0
 40
0.2680198186407328
 50
275.5905121942647042
 51
328.5609007473960901
  0
ARC
  5
141B1
  8
0
 10
3547.2070235568380667
 20
161.1946981997068917
 30
0.0
 40
2.4140942639548268
 50
148.1570140390809911
 51
152.574404487411897
  0
ARC
  5
141B2
  8
0
 10
3545.2931665668588721
 20
162.3693558926742071
 30
0.0
 40
0.1689542540165101
 50
110.3300173557594945
 51
144.1284189494575969
  0
ARC
  5
141B3
  8
0
 10
3545.2156977279259991
 20
162.5847741093257071
 30
0.0
 40
0.0600000001461837
 50
288.2296363579292233
 51
359.9999999487300784
  0
ARC
  5
141B4
  8
0
 10
3545.3520907981510391
 20
162.5898961812220023
 30
0.0
 40
0.0765645921902776
 50
176.1641217942971878
 51
183.8358782056930067
  0
ARC
  5
141B5
  8
0
 10
3545.3056977280389219
 20
162.5950182531813084
 30
0.0
 40
0.0299999999670266
 50
102.743585056687607
 51
180.0000000177564914
  0
ARC
  5
141B6
  8
0
 10
3545.2756977280550927
 20
162.7276681683594006
 30
0.0
 40
0.1060000000175407
 50
282.7435852623787014
 51
71.8611566574365952
  0
ARC
  5
141B7
  8
0
 10
3545.3696852042839964
 20
162.8684992228199064
 30
0.0
 40
0.0729889092638646
 50
100.7839699524656965
 51
213.3245723167262895
  0
ARC
  5
141B8
  8
0
 10
3545.3446778135030399
 20
162.9991359687392958
 30
0.0
 40
0.06001991490603
 50
280.9011666539798853
 51
359.993928502893084
  0
LINE
  5
141B9
  8
0
 10
3545.4046977280718238
 20
162.999129608571991
 30
0.0
 11
3545.4046977280718238
 21
163.9277591654721107
 31
0.0
  0
ARC
  5
141BA
  8
0
 10
3545.3446977280718784
 20
163.9277591654721107
 30
0.0
 40
0.0599999999999978
 50
359.9999999999984084
 51
80.405931773095574
  0
ARC
  5
141BB
  8
0
 10
3545.3596977280722058
 20
164.0165003622186077
 30
0.0
 40
0.0300000000000728
 50
179.9999998979307065
 51
260.405931773095574
  0
LINE
  5
141BC
  8
0
 10
3545.3296977280710962
 20
164.0165003622720121
 30
0.0
 11
3545.3296977284721834
 21
164.2414270118416084
 31
0.0
  0
ARC
  5
141BD
  8
0
 10
3545.2696977257178332
 20
164.2414270098446138
 30
0.0
 40
0.0600000027544834
 50
0.000001907034939
 51
43.9752092750744126
  0
ARC
  5
141BE
  8
0
 10
3544.9433855229372057
 20
165.0083673854782091
 30
0.0
 40
0.3388810356245763
 50
331.4367051778669975
 51
345.1460658292281778
  0
ARC
  5
141BF
  8
0
 10
3545.2992157613948621
 20
164.9161845823435044
 30
0.0
 40
0.0287678256326018
 50
96.6303913624141018
 51
169.3659107865572935
  0
ARC
  5
141C0
  8
0
 10
3545.2930261767101001
 20
165.027285996210594
 30
0.0
 40
0.0825758152960592
 50
271.9903361290889166
 51
333.9647385100965948
  0
ARC
  5
141C1
  8
0
 10
3545.3205509842300671
 20
165.0152279980432866
 30
0.0
 40
0.0525663560644843
 50
332.6055240276730274
 51
67.9421474251842739
  0
ARC
  5
141C2
  8
0
 10
3545.3485736934330816
 20
165.0927809777006132
 30
0.0
 40
0.0299999997799531
 50
205.946643897924389
 51
253.9748000016865888
  0
ARC
  5
141C3
  8
0
 10
3545.4257968571109814
 20
165.1304689999529103
 30
0.0
 40
0.1159290482423634
 50
155.9584593644653978
 51
205.9967509285195888
  0
ARC
  5
141C4
  8
0
 10
3545.3473328038458021
 20
165.165500362359893
 30
0.0
 40
0.029999999912161
 50
89.9999999502868491
 51
156.0085664898201117
  0
ARC
  5
141C5
  8
0
 10
3545.379851162471823
 20
165.2005003622720096
 30
0.0
 40
0.004999999999999
 50
179.9999999999787974
 51
270.0
  0
LINE
  5
141C6
  8
0
 10
3545.3748511624721687
 20
165.2005003622720096
 30
0.0
 11
3545.3748511624721687
 21
165.2025003622721044
 31
0.0
  0
LINE
  5
141C7
  8
0
 10
3545.3708511624718085
 20
165.2025003622721044
 30
0.0
 11
3545.3721793473719117
 21
165.2066028630719927
 31
0.0
  0
ARC
  5
141C8
  8
0
 10
3545.7492136112759908
 20
165.0647942540622921
 30
0.0
 40
0.2354880477940997
 50
37.0269251293491024
 51
70.6480658208430441
  0
ARC
  5
141C9
  8
0
 10
3545.560181844867202
 20
165.0647942540622921
 30
0.0
 40
0.2354880477940997
 50
109.3519341791568991
 51
142.9730748706508905
  0
ARC
  5
141CA
  8
0
 10
3545.6546977280718238
 20
164.7598680043965942
 30
0.0
 40
0.5546329454754916
 50
71.8741194977804696
 51
108.125880502219502
  0
ARC
  5
141CB
  8
0
 10
3545.0981210202721741
 20
162.0374294961607973
 30
0.0
 40
0.0299999999999943
 50
139.2800604169734129
 51
165.9637565320039982
  0
ARC
  5
141CC
  8
0
 10
3546.2112744358719283
 20
162.0374294961607973
 30
0.0
 40
0.0300000000000223
 50
14.0362434333552102
 51
40.719939583020448
  0
LINE
  5
141CD
  8
0
 10
3550.1860246192800332
 20
162.0101534273605921
 30
0.0
 11
3550.1773865848808782
 21
162.0447055648940875
 31
0.0
  0
LINE
  5
141CE
  8
0
 10
3548.9973865848642163
 20
162.0101534273605921
 30
0.0
 11
3549.0060246193220337
 21
162.0447055649495951
 31
0.0
  0
ARC
  5
141CF
  8
0
 10
3549.0351288942720203
 20
162.0374294961605983
 30
0.0
 40
0.0299999999999943
 50
139.2800604166203868
 51
165.9637565320039982
  0
ARC
  5
141D0
  8
0
 10
3550.1482823098717745
 20
162.0374294961605983
 30
0.0
 40
0.0300000000000223
 50
14.0362434333552102
 51
40.719939583020448
  0
ENDSEC
  0
EOF
