  0
SECTION
  2
HEADER
  9
$ACADVER
  1
AC1009
  9
$INSBASE
 10
4109.6581822773741806
 20
119.9726482446316993
 30
0.0
  9
$EXTMIN
 10
4108.7723910936247194
 20
118.1049317086316961
 30
0.0
  9
$EXTMAX
 10
4110.5439734611236418
 20
119.9726482446316993
 30
0.0
  9
$LIMMIN
 10
0.0
 20
0.0
  9
$LIMMAX
 10
11.6929133858000007
 20
8.2677165353999982
  9
$ORTHOMODE
 70
     0
  9
$REGENMODE
 70
     1
  9
$FILLMODE
 70
     1
  9
$QTEXTMODE
 70
     0
  9
$MIRRTEXT
 70
     0
  9
$DRAGMODE
 70
     2
  9
$LTSCALE
 40
0.6431102362
  9
$OSMODE
 70
  4095
  9
$ATTMODE
 70
     1
  9
$TEXTSIZE
 40
0.2
  9
$TRACEWID
 40
0.05
  9
$TEXTSTYLE
  7
STANDARD
  9
$CLAYER
  8
0
  9
$CELTYPE
  6
BYLAYER
  9
$CECOLOR
 62
   256
  9
$DIMSCALE
 40
1.0
  9
$DIMASZ
 40
0.1875
  9
$DIMEXO
 40
0.0625
  9
$DIMDLI
 40
0.4443307087
  9
$DIMRND
 40
0.0
  9
$DIMDLE
 40
0.0
  9
$DIMEXE
 40
0.125
  9
$DIMTP
 40
0.01
  9
$DIMTM
 40
0.01
  9
$DIMTXT
 40
2.0
  9
$DIMCEN
 40
0.1052362205
  9
$DIMTSZ
 40
0.0
  9
$DIMTOL
 70
     1
  9
$DIMLIM
 70
     0
  9
$DIMTIH
 70
     1
  9
$DIMTOH
 70
     1
  9
$DIMSE1
 70
     0
  9
$DIMSE2
 70
     0
  9
$DIMTAD
 70
     0
  9
$DIMZIN
 70
     0
  9
$DIMBLK
  1

  9
$DIMASO
 70
     1
  9
$DIMSHO
 70
     1
  9
$DIMPOST
  1
\X
  9
$DIMAPOST
  1

  9
$DIMALT
 70
     1
  9
$DIMALTD
 70
     2
  9
$DIMALTF
 40
25.3999999999999986
  9
$DIMLFAC
 40
1.0
  9
$DIMTOFL
 70
     0
  9
$DIMTVP
 40
0.0
  9
$DIMTIX
 70
     0
  9
$DIMSOXD
 70
     0
  9
$DIMSAH
 70
     0
  9
$DIMBLK1
  1

  9
$DIMBLK2
  1

  9
$DIMSTYLE
  2
STANDARD
  9
$DIMCLRD
 70
     0
  9
$DIMCLRE
 70
     0
  9
$DIMCLRT
 70
     0
  9
$DIMTFAC
 40
1.0
  9
$DIMGAP
 40
0.09
  9
$LUNITS
 70
     2
  9
$LUPREC
 70
     4
  9
$SKETCHINC
 40
0.1
  9
$FILLETRAD
 40
0.0
  9
$AUNITS
 70
     0
  9
$AUPREC
 70
     0
  9
$MENU
  1
.
  9
$ELEVATION
 40
0.0
  9
$PELEVATION
 40
0.0
  9
$THICKNESS
 40
0.0
  9
$LIMCHECK
 70
     0
  9
$BLIPMODE
 70
     0
  9
$CHAMFERA
 40
0.0
  9
$CHAMFERB
 40
0.0
  9
$SKPOLY
 70
     0
  9
$TDCREATE
 40
2458060.468368056230247
  9
$TDUPDATE
 40
2459690.6666898149996996
  9
$TDINDWG
 40
0.3178658565
  9
$TDUSRTIMER
 40
0.3178658565
  9
$USRTIMER
 70
     1
  9
$ANGBASE
 50
0.0
  9
$ANGDIR
 70
     0
  9
$PDMODE
 70
     0
  9
$PDSIZE
 40
0.3125
  9
$PLINEWID
 40
0.0
  9
$COORDS
 70
     1
  9
$SPLFRAME
 70
     0
  9
$SPLINETYPE
 70
     6
  9
$SPLINESEGS
 70
     8
  9
$ATTDIA
 70
     1
  9
$ATTREQ
 70
     1
  9
$HANDLING
 70
     1
  9
$HANDSEED
  5
6B4B
  9
$SURFTAB1
 70
     6
  9
$SURFTAB2
 70
     6
  9
$SURFTYPE
 70
     6
  9
$SURFU
 70
     6
  9
$SURFV
 70
     6
  9
$UCSNAME
  2

  9
$UCSORG
 10
0.0
 20
0.0
 30
0.0
  9
$UCSXDIR
 10
1.0
 20
0.0
 30
0.0
  9
$UCSYDIR
 10
0.0
 20
1.0
 30
0.0
  9
$PUCSNAME
  2

  9
$PUCSORG
 10
0.0
 20
0.0
 30
0.0
  9
$PUCSXDIR
 10
1.0
 20
0.0
 30
0.0
  9
$PUCSYDIR
 10
0.0
 20
1.0
 30
0.0
  9
$USERI1
 70
     0
  9
$USERI2
 70
     0
  9
$USERI3
 70
     0
  9
$USERI4
 70
     0
  9
$USERI5
 70
     0
  9
$USERR1
 40
0.0
  9
$USERR2
 40
0.0
  9
$USERR3
 40
0.0
  9
$USERR4
 40
0.0
  9
$USERR5
 40
0.0
  9
$WORLDVIEW
 70
     1
  9
$SHADEDGE
 70
     3
  9
$SHADEDIF
 70
    70
  9
$TILEMODE
 70
     1
  9
$MAXACTVP
 70
    64
  9
$PLIMCHECK
 70
     0
  9
$PEXTMIN
 10
1.0000000000000000E+20
 20
1.0000000000000000E+20
 30
1.0000000000000000E+20
  9
$PEXTMAX
 10
-1.0000000000000000E+20
 20
-1.0000000000000000E+20
 30
-1.0000000000000000E+20
  9
$PLIMMIN
 10
0.0
 20
0.0
  9
$PLIMMAX
 10
12.0
 20
9.0
  9
$UNITMODE
 70
     0
  9
$VISRETAIN
 70
     1
  9
$PLINEGEN
 70
     0
  9
$PSLTSCALE
 70
     1
  0
ENDSEC
  0
SECTION
  2
TABLES
  0
TABLE
  2
VPORT
 70
     1
  0
VPORT
  2
*ACTIVE
 70
     0
 10
0.0
 20
0.0
 11
1.0
 21
1.0
 12
3.05039143739367
 22
0.2601628463134473
 13
0.0
 23
0.0
 14
1.0
 24
1.0
 15
0.0
 25
0.0
 16
0.0
 26
0.0
 36
12.0607768166225195
 17
4106.989501953125
 27
118.8635635375975994
 37
0.0
 40
3.5773428182829168
 41
2.005224660397074
 42
50.0
 43
0.0
 44
0.0
 50
0.0
 51
0.0
 71
     0
 72
   100
 73
     1
 74
     1
 75
     0
 76
     0
 77
     0
 78
     0
  0
ENDTAB
  0
TABLE
  2
LTYPE
 70
     2
  0
LTYPE
  2
CONTINUOUS
 70
     0
  3
Solid line
 72
    65
 73
     0
 40
0.0
  0
LTYPE
  2
PHANTOM2
 70
     0
  3
___ _ _ ___ _ _ ___ _ _ ___ _ _
 72
    65
 73
     6
 40
1.25
 49
0.625
 49
-0.125
 49
0.125
 49
-0.125
 49
0.125
 49
-0.125
  0
ENDTAB
  0
TABLE
  2
LAYER
 70
     2
  0
LAYER
  2
0
 70
     0
 62
   255
  6
CONTINUOUS
  0
LAYER
  2
DEFPOINTS
 70
     0
 62
     7
  6
CONTINUOUS
  0
ENDTAB
  0
TABLE
  2
STYLE
 70
     1
  0
STYLE
  2
STANDARD
 70
     0
 40
0.0
 41
0.8
 50
0.0
 71
     0
 42
0.2
  3
txt
  4

  0
ENDTAB
  0
TABLE
  2
VIEW
 70
     0
  0
ENDTAB
  0
TABLE
  2
UCS
 70
     0
  0
ENDTAB
  0
TABLE
  2
APPID
 70
     9
  0
APPID
  2
ACAD
 70
     0
  0
APPID
  2
ACAD_MLEADERVER
 70
     0
  0
APPID
  2
ACAD_EXEMPT_FROM_CAD_STANDARDS
 70
     0
  0
APPID
  2
ACAD_NAV_VCDISPLAY
 70
     0
  0
APPID
  2
ACAECLAYERSTANDARD
 70
     0
  0
APPID
  2
ACCMTRANSPARENCY
 70
     0
  0
APPID
  2
ACAD_DSTYLE_DIMJAG
 70
     0
  0
APPID
  2
ACAD_DSTYLE_DIMTALN
 70
     0
  0
APPID
  2
ACDBATTR
 70
     0
  0
ENDTAB
  0
TABLE
  2
DIMSTYLE
 70
     1
  0
DIMSTYLE
  2
STANDARD
 70
     0
  3

  4

  5

  6

  7

 40
1.0
 41
0.1875
 42
0.0625
 43
0.38
 44
0.125
 45
0.0
 46
0.0
 47
0.01
 48
0.01
140
0.15625
141
0.09
142
0.0
143
25.3999999999999986
144
1.0
145
0.0
146
1.0
147
0.09
 71
     1
 72
     0
 73
     1
 74
     1
 75
     0
 76
     0
 77
     0
 78
     4
170
     0
171
     2
172
     0
173
     0
174
     0
175
     0
176
     0
177
     0
178
     0
  0
ENDTAB
  0
ENDSEC
  0
SECTION
  2
BLOCKS
  0
BLOCK
  8
0
  2
$MODEL_SPACE
 70
     0
 10
0.0
 20
0.0
 30
0.0
  3
$MODEL_SPACE
  1

  0
ENDBLK
  5
21
  8
0
  0
BLOCK
 67
     1
  8
0
  2
$PAPER_SPACE
 70
     0
 10
0.0
 20
0.0
 30
0.0
  3
$PAPER_SPACE
  1

  0
ENDBLK
  5
1D
 67
     1
  8
0
  0
ENDSEC
  0
SECTION
  2
ENTITIES
  0
ATTDEF
  5
3930
  8
DEFPOINTS
 10
4109.658191392282788
 20
119.9715699658441963
 30
0.0
 40
0.001
  1
K-97499BR
  3

  2
MODELNUMBER
 70
     0
1001
ACDBATTR
1070
     0
1070
     1
  0
ATTDEF
  5
3931
  8
DEFPOINTS
 10
4109.658191392282788
 20
119.9699032991775027
 30
0.0
 40
0.001
  1
AVID
  3

  2
TRADENAME
 70
     0
1001
ACDBATTR
1070
     0
1070
     1
  0
ATTDEF
  5
3932
  8
DEFPOINTS
 10
4109.658191392282788
 20
119.9682366325108944
 30
0.0
 40
0.001
  1
ROBE HOOK
  3

  2
PRODUCT
 70
     0
1001
ACDBATTR
1070
     0
1070
     1
  0
LINE
  5
6A2C
  8
0
 10
4108.7723910936247194
 20
119.9726482446316993
 30
0.0
 11
4108.7723910936247194
 21
119.7246167485317017
 31
0.0
  0
LINE
  5
6A2D
  8
0
 10
4109.0588867733240477
 20
119.6813096619317065
 30
0.0
 11
4109.0588867733240477
 21
118.7394058342669041
 31
0.0
  0
LINE
  5
6A2E
  8
0
 10
4108.799950148823882
 20
119.6970576934317023
 30
0.0
 11
4110.5164144059235696
 21
119.6970576934317023
 31
0.0
  0
LINE
  5
6A2F
  8
0
 10
4110.5439734611236418
 20
119.9726482446316993
 30
0.0
 11
4108.7723910936247194
 21
119.9726482446316993
 31
0.0
  0
ARC
  5
6A30
  8
0
 10
4109.1723481324816021
 20
118.1365304423576958
 30
0.0
 40
0.0316456612472732
 50
180.9337116785087005
 51
266.8793286525635153
  0
ARC
  5
6A31
  8
0
 10
4108.8031553304936097
 20
119.7278219302012019
 30
0.0
 40
0.0309307525537824
 50
185.9479199999626928
 51
264.0520800000454074
  0
ARC
  5
6A32
  8
0
 10
4109.0766718611630495
 20
119.6792694384402012
 30
0.0
 40
0.0179017278866019
 50
96.4545488644467781
 51
173.4558975776768932
  0
ARC
  5
6A33
  8
0
 10
4109.166183847526554
 20
118.1375542156567064
 30
0.0
 40
0.0326988297387529
 50
194.6871880213784891
 51
266.0845386831509245
  0
ARC
  5
6A34
  8
0
 10
4114.928944796201904
 20
119.157617338914406
 30
0.0
 40
5.8849368777053019
 50
184.0751445986336137
 51
190.0637235468728932
  0
ARC
  5
6A35
  8
0
 10
4109.742112166154584
 20
118.1280410548614981
 30
0.0
 40
0.6014583500511802
 50
149.875411488341598
 51
179.2403915547272959
  0
ARC
  5
6A36
  8
0
 10
4109.6685055319394451
 20
118.1100794020011051
 30
0.0
 40
0.5493203232857184
 50
91.0768102201238463
 51
144.3934861602660078
  0
LINE
  5
6A37
  8
0
 10
4110.5439734611236418
 20
119.9726482446316993
 30
0.0
 11
4110.5439734611236418
 21
119.7246167485317017
 31
0.0
  0
LINE
  5
6A38
  8
0
 10
4110.2574777814243134
 20
119.6813096619317065
 30
0.0
 11
4110.2574777814243134
 21
118.7394058342669041
 31
0.0
  0
ARC
  5
6A39
  8
0
 10
4110.1440164222658495
 20
118.1365304423576958
 30
0.0
 40
0.0316456612472713
 50
273.1206713474364278
 51
359.0662883214960743
  0
ARC
  5
6A3A
  8
0
 10
4110.513209224253842
 20
119.7278219302012019
 30
0.0
 40
0.0309307525537824
 50
275.9479199999545926
 51
354.0520800000372219
  0
ARC
  5
6A3B
  8
0
 10
4110.2396926935853116
 20
119.6792694384402012
 30
0.0
 40
0.0179017278866019
 50
6.544102422323105
 51
83.5454511355532361
  0
ARC
  5
6A3C
  8
0
 10
4110.1501807072208976
 20
118.1375542156567064
 30
0.0
 40
0.0326988297387529
 50
273.9154613168490755
 51
345.3128119786214256
  0
ARC
  5
6A3D
  8
0
 10
4104.3874197585473667
 20
119.157617338914406
 30
0.0
 40
5.8849368777053019
 50
349.9362764531269931
 51
355.9248554013664716
  0
ARC
  5
6A3E
  8
0
 10
4109.5742523885937771
 20
118.1280410548614981
 30
0.0
 40
0.6014583500511802
 50
0.7596084452726718
 51
30.12458851165837
  0
ARC
  5
6A3F
  8
0
 10
4109.6478590228089161
 20
118.1100794020011051
 30
0.0
 40
0.5493203232857184
 50
35.6065138397339425
 51
88.9231897798761963
  0
LINE
  5
6A40
  8
0
 10
4109.1639510238237563
 20
118.1049317086316961
 30
0.0
 11
4110.1524135309246049
 21
118.1049317086316961
 31
0.0
  0
ENDSEC
  0
EOF
