  0
SECTION
  2
HEADER
  9
$ACADVER
  1
AC1009
  9
$INSBASE
 10
3513.516167129814221
 20
199.8338541170483893
 30
0.0
  9
$EXTMIN
 10
3510.7596671298138062
 20
198.9480270224258902
 30
0.0
  9
$EXTMAX
 10
3513.5272231144258512
 20
200.719680887804202
 30
0.0
  9
$LIMMIN
 10
0.0
 20
0.0
  9
$LIMMAX
 10
11.6929133858000007
 20
8.2677165353999982
  9
$ORTHOMODE
 70
     0
  9
$REGENMODE
 70
     1
  9
$FILLMODE
 70
     1
  9
$QTEXTMODE
 70
     0
  9
$MIRRTEXT
 70
     0
  9
$DRAGMODE
 70
     2
  9
$LTSCALE
 40
0.6431102362
  9
$OSMODE
 70
  4095
  9
$ATTMODE
 70
     1
  9
$TEXTSIZE
 40
0.2
  9
$TRACEWID
 40
0.05
  9
$TEXTSTYLE
  7
STANDARD
  9
$CLAYER
  8
0
  9
$CELTYPE
  6
BYLAYER
  9
$CECOLOR
 62
   256
  9
$DIMSCALE
 40
1.0
  9
$DIMASZ
 40
0.1875
  9
$DIMEXO
 40
0.0625
  9
$DIMDLI
 40
0.4443307087
  9
$DIMRND
 40
0.0
  9
$DIMDLE
 40
0.0
  9
$DIMEXE
 40
0.125
  9
$DIMTP
 40
0.01
  9
$DIMTM
 40
0.01
  9
$DIMTXT
 40
2.0
  9
$DIMCEN
 40
0.1052362205
  9
$DIMTSZ
 40
0.0
  9
$DIMTOL
 70
     1
  9
$DIMLIM
 70
     0
  9
$DIMTIH
 70
     1
  9
$DIMTOH
 70
     1
  9
$DIMSE1
 70
     0
  9
$DIMSE2
 70
     0
  9
$DIMTAD
 70
     0
  9
$DIMZIN
 70
     0
  9
$DIMBLK
  1

  9
$DIMASO
 70
     1
  9
$DIMSHO
 70
     1
  9
$DIMPOST
  1
\X
  9
$DIMAPOST
  1

  9
$DIMALT
 70
     1
  9
$DIMALTD
 70
     2
  9
$DIMALTF
 40
25.3999999999999986
  9
$DIMLFAC
 40
1.0
  9
$DIMTOFL
 70
     0
  9
$DIMTVP
 40
0.0
  9
$DIMTIX
 70
     0
  9
$DIMSOXD
 70
     0
  9
$DIMSAH
 70
     0
  9
$DIMBLK1
  1

  9
$DIMBLK2
  1

  9
$DIMSTYLE
  2
STANDARD
  9
$DIMCLRD
 70
     0
  9
$DIMCLRE
 70
     0
  9
$DIMCLRT
 70
     0
  9
$DIMTFAC
 40
1.0
  9
$DIMGAP
 40
0.09
  9
$LUNITS
 70
     2
  9
$LUPREC
 70
     4
  9
$SKETCHINC
 40
0.1
  9
$FILLETRAD
 40
0.0
  9
$AUNITS
 70
     0
  9
$AUPREC
 70
     0
  9
$MENU
  1
.
  9
$ELEVATION
 40
0.0
  9
$PELEVATION
 40
0.0
  9
$THICKNESS
 40
0.0
  9
$LIMCHECK
 70
     0
  9
$BLIPMODE
 70
     0
  9
$CHAMFERA
 40
0.0
  9
$CHAMFERB
 40
0.0
  9
$SKPOLY
 70
     0
  9
$TDCREATE
 40
2458060.468368056230247
  9
$TDUPDATE
 40
2459405.7790972231887281
  9
$TDINDWG
 40
0.6974954861
  9
$TDUSRTIMER
 40
0.6974954861
  9
$USRTIMER
 70
     1
  9
$ANGBASE
 50
0.0
  9
$ANGDIR
 70
     0
  9
$PDMODE
 70
     0
  9
$PDSIZE
 40
0.3125
  9
$PLINEWID
 40
0.0
  9
$COORDS
 70
     1
  9
$SPLFRAME
 70
     0
  9
$SPLINETYPE
 70
     6
  9
$SPLINESEGS
 70
     8
  9
$ATTDIA
 70
     1
  9
$ATTREQ
 70
     1
  9
$HANDLING
 70
     1
  9
$HANDSEED
  5
A3D0
  9
$SURFTAB1
 70
     6
  9
$SURFTAB2
 70
     6
  9
$SURFTYPE
 70
     6
  9
$SURFU
 70
     6
  9
$SURFV
 70
     6
  9
$UCSNAME
  2

  9
$UCSORG
 10
0.0
 20
0.0
 30
0.0
  9
$UCSXDIR
 10
1.0
 20
0.0
 30
0.0
  9
$UCSYDIR
 10
0.0
 20
1.0
 30
0.0
  9
$PUCSNAME
  2

  9
$PUCSORG
 10
0.0
 20
0.0
 30
0.0
  9
$PUCSXDIR
 10
1.0
 20
0.0
 30
0.0
  9
$PUCSYDIR
 10
0.0
 20
1.0
 30
0.0
  9
$USERI1
 70
     0
  9
$USERI2
 70
     0
  9
$USERI3
 70
     0
  9
$USERI4
 70
     0
  9
$USERI5
 70
     0
  9
$USERR1
 40
0.0
  9
$USERR2
 40
0.0
  9
$USERR3
 40
0.0
  9
$USERR4
 40
0.0
  9
$USERR5
 40
0.0
  9
$WORLDVIEW
 70
     1
  9
$SHADEDGE
 70
     3
  9
$SHADEDIF
 70
    70
  9
$TILEMODE
 70
     1
  9
$MAXACTVP
 70
    64
  9
$PLIMCHECK
 70
     0
  9
$PEXTMIN
 10
1.0000000000000000E+20
 20
1.0000000000000000E+20
 30
1.0000000000000000E+20
  9
$PEXTMAX
 10
-1.0000000000000000E+20
 20
-1.0000000000000000E+20
 30
-1.0000000000000000E+20
  9
$PLIMMIN
 10
0.0
 20
0.0
  9
$PLIMMAX
 10
12.0
 20
9.0
  9
$UNITMODE
 70
     0
  9
$VISRETAIN
 70
     1
  9
$PLINEGEN
 70
     0
  9
$PSLTSCALE
 70
     1
  0
ENDSEC
  0
SECTION
  2
TABLES
  0
TABLE
  2
VPORT
 70
     1
  0
VPORT
  2
*ACTIVE
 70
     0
 10
0.0
 20
0.0
 11
1.0
 21
1.0
 12
-0.0058468700674438
 22
-0.0054786254513459
 13
0.0
 23
0.0
 14
1.0
 24
1.0
 15
0.0
 25
0.0
 16
0.0
 26
0.0
 36
11.4514858883546609
 17
3512.1492919921879547
 27
199.8393325805664063
 37
0.0
 40
1.78621540399783
 41
2.6159122085048012
 42
50.0
 43
0.0
 44
0.0
 50
0.0
 51
0.0
 71
     0
 72
   100
 73
     1
 74
     1
 75
     0
 76
     0
 77
     0
 78
     0
  0
ENDTAB
  0
TABLE
  2
LTYPE
 70
     2
  0
LTYPE
  2
CONTINUOUS
 70
     0
  3
Solid line
 72
    65
 73
     0
 40
0.0
  0
LTYPE
  2
PHANTOM2
 70
     0
  3
___ _ _ ___ _ _ ___ _ _ ___ _ _
 72
    65
 73
     6
 40
1.25
 49
0.625
 49
-0.125
 49
0.125
 49
-0.125
 49
0.125
 49
-0.125
  0
ENDTAB
  0
TABLE
  2
LAYER
 70
     2
  0
LAYER
  2
0
 70
     0
 62
   255
  6
CONTINUOUS
  0
LAYER
  2
DEFPOINTS
 70
     0
 62
     7
  6
CONTINUOUS
  0
ENDTAB
  0
TABLE
  2
STYLE
 70
     1
  0
STYLE
  2
STANDARD
 70
     0
 40
0.0
 41
0.8
 50
0.0
 71
     0
 42
0.2
  3
txt
  4

  0
ENDTAB
  0
TABLE
  2
VIEW
 70
     0
  0
ENDTAB
  0
TABLE
  2
UCS
 70
     0
  0
ENDTAB
  0
TABLE
  2
APPID
 70
     9
  0
APPID
  2
ACAD
 70
     0
  0
APPID
  2
ACAD_MLEADERVER
 70
     0
  0
APPID
  2
ACAD_EXEMPT_FROM_CAD_STANDARDS
 70
     0
  0
APPID
  2
ACAD_NAV_VCDISPLAY
 70
     0
  0
APPID
  2
ACAECLAYERSTANDARD
 70
     0
  0
APPID
  2
ACCMTRANSPARENCY
 70
     0
  0
APPID
  2
ACAD_DSTYLE_DIMJAG
 70
     0
  0
APPID
  2
ACAD_DSTYLE_DIMTALN
 70
     0
  0
APPID
  2
ACDBATTR
 70
     0
  0
ENDTAB
  0
TABLE
  2
DIMSTYLE
 70
     1
  0
DIMSTYLE
  2
STANDARD
 70
     0
  3

  4

  5

  6

  7

 40
1.0
 41
0.1875
 42
0.0625
 43
0.38
 44
0.125
 45
0.0
 46
0.0
 47
0.01
 48
0.01
140
0.15625
141
0.09
142
0.0
143
25.3999999999999986
144
1.0
145
0.0
146
1.0
147
0.09
 71
     1
 72
     0
 73
     1
 74
     1
 75
     0
 76
     0
 77
     0
 78
     4
170
     0
171
     2
172
     0
173
     0
174
     0
175
     0
176
     0
177
     0
178
     0
  0
ENDTAB
  0
ENDSEC
  0
SECTION
  2
BLOCKS
  0
BLOCK
  8
0
  2
$MODEL_SPACE
 70
     0
 10
0.0
 20
0.0
 30
0.0
  3
$MODEL_SPACE
  1

  0
ENDBLK
  5
21
  8
0
  0
BLOCK
 67
     1
  8
0
  2
$PAPER_SPACE
 70
     0
 10
0.0
 20
0.0
 30
0.0
  3
$PAPER_SPACE
  1

  0
ENDBLK
  5
1D
 67
     1
  8
0
  0
BLOCK
  8
0
  2
_FILLED
 70
     0
 10
0.0
 20
0.0
 30
0.0
  3
_FILLED
  1

  0
SOLID
  5
6F59
  8
0
  6
BYBLOCK
 62
     0
 10
0.0
 20
0.0
 30
0.0
 11
-1.0
 21
0.1666666667
 31
0.0
 12
-1.0
 22
-0.1666666667
 32
0.0
 13
-1.0
 23
-0.1666666667
 33
0.0
  0
ENDBLK
  5
6F5A
  8
0
  6
BYBLOCK
 62
     0
  0
ENDSEC
  0
SECTION
  2
ENTITIES
  0
ATTDEF
  5
3930
  8
DEFPOINTS
 10
3513.516556447757921
 20
199.8382860352359955
 30
0.0
 40
0.001
  1
K-97498BR
  3

  2
MODELNUMBER
 70
     0
1001
ACDBATTR
1070
     0
1070
     1
  0
ATTDEF
  5
3931
  8
DEFPOINTS
 10
3513.516556447757921
 20
199.836619368569302
 30
0.0
 40
0.001
  1
AVID
  3

  2
TRADENAME
 70
     0
1001
ACDBATTR
1070
     0
1070
     1
  0
ATTDEF
  5
3932
  8
DEFPOINTS
 10
3513.516556447757921
 20
199.8349527019026084
 30
0.0
 40
0.001
  1
TOWEL RING
  3

  2
PRODUCT
 70
     0
1001
ACDBATTR
1070
     0
1070
     1
  0
LINE
  5
A15E
  8
0
 10
3513.516167129814221
 20
198.948027346292605
 30
0.0
 11
3513.2681356337138823
 21
198.948027346292605
 31
0.0
  0
ARC
  5
A15F
  8
0
 10
3513.2680023500961397
 20
198.9754528501875086
 30
0.0
 40
0.0274258277616578
 50
179.8839262546015902
 51
270.2784462486346797
  0
ARC
  5
A160
  8
0
 10
3513.2248285474520344
 20
199.2501930670466095
 30
0.0
 40
0.015748031161868
 50
269.9999872312533853
 51
0.0000010307708527
  0
LINE
  5
A161
  8
0
 10
3513.2248285439418396
 20
199.2344450358847041
 30
0.0
 11
3512.8754516961457739
 21
199.234445113745295
 31
0.0
  0
LINE
  5
A162
  8
0
 10
3512.660818425395064
 20
199.2344451615774972
 30
0.0
 11
3511.868344926213922
 21
199.2344453381847131
 31
0.0
  0
ARC
  5
A163
  8
0
 10
3511.8170560136068161
 20
215.3897047663851083
 30
0.0
 40
16.1553408427372389
 50
269.1176050485336759
 51
270.1818991746015968
  0
ARC
  5
A164
  8
0
 10
3511.584733702192807
 20
203.6155913996182107
 30
0.0
 40
4.3793426158086337
 50
259.5309979958527151
 51
269.7845014507012138
  0
ARC
  5
A165
  8
0
 10
3510.7947502080310187
 20
199.3502817973192975
 30
0.0
 40
0.0415328098180964
 50
232.1345957312852875
 51
262.0302051216856967
  0
ARC
  5
A166
  8
0
 10
3510.7831603094377897
 20
199.3353753570914932
 30
0.0
 40
0.022650868454271
 50
188.4962684097561976
 51
232.1345957312852875
  0
ARC
  5
A167
  8
0
 10
3510.805932420164936
 20
199.342877610273888
 30
0.0
 40
0.0464588282756934
 50
185.2316348555646925
 51
193.5040682648852055
  0
ARC
  5
A168
  8
0
 10
3510.7696480700369648
 20
199.8333760542118966
 30
0.0
 40
0.5443796904291326
 50
334.4467635844586084
 51
0.0230588590998005
  0
ARC
  5
A169
  8
0
 10
3510.8057293800311527
 20
199.8215061582031922
 30
0.0
 40
0.5067308603365817
 50
299.3968814427335019
 51
333.8978238115743125
  0
ARC
  5
A16A
  8
0
 10
3510.7838292929309318
 20
199.9201184178699862
 30
0.0
 40
0.60410779220606
 50
270.5137491368819838
 51
296.6145734926193995
  0
ARC
  5
A16B
  8
0
 10
3510.7864289577660202
 20
199.3478397328827896
 30
0.0
 40
0.0319293370482763
 50
240.4464681172241001
 51
275.0616777282572798
  0
ARC
  5
A16C
  8
0
 10
3510.7891658117277984
 20
199.3454915330669053
 30
0.0
 40
0.0314364041589547
 50
205.3567302098273899
 51
233.9826185593800858
  0
LINE
  5
A16D
  8
0
 10
3513.516167129814221
 20
200.719680887804202
 30
0.0
 11
3513.2681356337138823
 21
200.719680887804202
 31
0.0
  0
ARC
  5
A16E
  8
0
 10
3513.268901966725025
 20
200.6913640847735962
 30
0.0
 40
0.0283271707051626
 50
91.5502079332535033
 51
179.3572168835887055
  0
ARC
  5
A16F
  8
0
 10
3513.2248285474520344
 20
200.4169972158587996
 30
0.0
 40
0.0157480311618699
 50
359.9999989692406075
 51
90.0000127687205804
  0
LINE
  5
A170
  8
0
 10
3513.2248285439418396
 20
200.4327452470207049
 30
0.0
 11
3511.868344926213922
 21
200.4327449447206106
 31
0.0
  0
ARC
  5
A171
  8
0
 10
3511.8170560136068161
 20
184.2774855165203007
 30
0.0
 40
16.1553408427372389
 50
89.818100825398389
 51
90.8823949514663383
  0
ARC
  5
A172
  8
0
 10
3511.584733702192807
 20
196.0515988832871983
 30
0.0
 40
4.3793426158086337
 50
90.215498549298843
 51
100.4690020041472991
  0
ARC
  5
A173
  8
0
 10
3510.7947502080310187
 20
200.3169084855861115
 30
0.0
 40
0.0415328098180964
 50
97.969794878314346
 51
127.8654042687137036
  0
ARC
  5
A174
  8
0
 10
3510.7831603094377897
 20
200.3318149258138874
 30
0.0
 40
0.022650868454271
 50
127.8654042687137036
 51
171.5037315902436887
  0
ARC
  5
A175
  8
0
 10
3510.8769346844419488
 20
200.3125992511492086
 30
0.0
 40
0.1183472463091365
 50
169.0096131844155991
 51
172.2546836951368903
  0
ARC
  5
A176
  8
0
 10
3510.7696480700369648
 20
199.8338142286933987
 30
0.0
 40
0.5443796904291326
 50
359.9769411409001805
 51
25.5532364155413987
  0
ARC
  5
A177
  8
0
 10
3510.8057293800311527
 20
199.8456841247021032
 30
0.0
 40
0.5067308603365817
 50
26.1021761884257195
 51
60.6031185572664484
  0
ARC
  5
A178
  8
0
 10
3510.7838292929309318
 20
199.7470718650353092
 30
0.0
 40
0.60410779220606
 50
63.3854265073806218
 51
89.4862508631179594
  0
ARC
  5
A179
  8
0
 10
3510.7864289577660202
 20
200.3193505500225911
 30
0.0
 40
0.0319293370482763
 50
84.938322271742706
 51
119.5535318827751041
  0
ARC
  5
A17A
  8
0
 10
3510.7891658117277984
 20
200.3216987498385038
 30
0.0
 40
0.0314364041589547
 50
126.0173814406199
 51
154.6432697901726101
  0
LINE
  5
A17B
  8
0
 10
3513.516167129814221
 20
200.719680887804202
 30
0.0
 11
3513.516167129814221
 21
198.948027346292605
 31
0.0
  0
LINE
  5
A17C
  8
0
 10
3513.2405765786138545
 20
200.6916818716206876
 30
0.0
 11
3513.2405765786138545
 21
198.975508411284693
 31
0.0
  0
LINE
  5
A17D
  8
0
 10
3510.7596671298138062
 20
200.328548901320687
 30
0.0
 11
3510.7596671298138062
 21
199.3386413815846936
 31
0.0
  0
ARC
  5
A17F
  8
0
 10
3512.7680917205789228
 20
198.6454104960731115
 30
0.0
 40
0.5987386284265501
 50
79.6704133589714161
 51
100.4256140586310977
  0
ENDSEC
  0
EOF
