  0
SECTION
  2
HEADER
  9
$ACADVER
  1
AC1009
  9
$INSBASE
 10
3494.3668524158420041
 20
205.5856422687737108
 30
0.0
  9
$EXTMIN
 10
3493.3473084173620009
 20
202.820869110519709
 30
-0.0015258207003583
  9
$EXTMAX
 10
3503.5042485001208661
 20
205.5971742048722035
 30
0.0000000349246037
  9
$LIMMIN
 10
0.0
 20
0.0
  9
$LIMMAX
 10
11.6929133858000007
 20
8.2677165353999982
  9
$ORTHOMODE
 70
     0
  9
$REGENMODE
 70
     1
  9
$FILLMODE
 70
     1
  9
$QTEXTMODE
 70
     0
  9
$MIRRTEXT
 70
     0
  9
$DRAGMODE
 70
     2
  9
$LTSCALE
 40
0.6431102362
  9
$OSMODE
 70
  4095
  9
$ATTMODE
 70
     1
  9
$TEXTSIZE
 40
0.2
  9
$TRACEWID
 40
0.05
  9
$TEXTSTYLE
  7
STANDARD
  9
$CLAYER
  8
0
  9
$CELTYPE
  6
BYLAYER
  9
$CECOLOR
 62
   256
  9
$DIMSCALE
 40
1.0
  9
$DIMASZ
 40
0.1875
  9
$DIMEXO
 40
0.0625
  9
$DIMDLI
 40
0.4443307087
  9
$DIMRND
 40
0.0
  9
$DIMDLE
 40
0.0
  9
$DIMEXE
 40
0.125
  9
$DIMTP
 40
0.01
  9
$DIMTM
 40
0.01
  9
$DIMTXT
 40
2.0
  9
$DIMCEN
 40
0.1052362205
  9
$DIMTSZ
 40
0.0
  9
$DIMTOL
 70
     1
  9
$DIMLIM
 70
     0
  9
$DIMTIH
 70
     1
  9
$DIMTOH
 70
     1
  9
$DIMSE1
 70
     0
  9
$DIMSE2
 70
     0
  9
$DIMTAD
 70
     0
  9
$DIMZIN
 70
     0
  9
$DIMBLK
  1

  9
$DIMASO
 70
     1
  9
$DIMSHO
 70
     1
  9
$DIMPOST
  1
\X
  9
$DIMAPOST
  1

  9
$DIMALT
 70
     1
  9
$DIMALTD
 70
     2
  9
$DIMALTF
 40
25.3999999999999986
  9
$DIMLFAC
 40
1.0
  9
$DIMTOFL
 70
     0
  9
$DIMTVP
 40
0.0
  9
$DIMTIX
 70
     0
  9
$DIMSOXD
 70
     0
  9
$DIMSAH
 70
     0
  9
$DIMBLK1
  1

  9
$DIMBLK2
  1

  9
$DIMSTYLE
  2
STANDARD
  9
$DIMCLRD
 70
     0
  9
$DIMCLRE
 70
     0
  9
$DIMCLRT
 70
     0
  9
$DIMTFAC
 40
1.0
  9
$DIMGAP
 40
0.09
  9
$LUNITS
 70
     2
  9
$LUPREC
 70
     4
  9
$SKETCHINC
 40
0.1
  9
$FILLETRAD
 40
0.0
  9
$AUNITS
 70
     0
  9
$AUPREC
 70
     0
  9
$MENU
  1
.
  9
$ELEVATION
 40
0.0
  9
$PELEVATION
 40
0.0
  9
$THICKNESS
 40
0.0
  9
$LIMCHECK
 70
     0
  9
$BLIPMODE
 70
     0
  9
$CHAMFERA
 40
0.0
  9
$CHAMFERB
 40
0.0
  9
$SKPOLY
 70
     0
  9
$TDCREATE
 40
2458060.468368056230247
  9
$TDUPDATE
 40
2459405.7804745370522141
  9
$TDINDWG
 40
0.7009561343
  9
$TDUSRTIMER
 40
0.7009561343
  9
$USRTIMER
 70
     1
  9
$ANGBASE
 50
0.0
  9
$ANGDIR
 70
     0
  9
$PDMODE
 70
     0
  9
$PDSIZE
 40
0.3125
  9
$PLINEWID
 40
0.0
  9
$COORDS
 70
     1
  9
$SPLFRAME
 70
     0
  9
$SPLINETYPE
 70
     6
  9
$SPLINESEGS
 70
     8
  9
$ATTDIA
 70
     1
  9
$ATTREQ
 70
     1
  9
$HANDLING
 70
     1
  9
$HANDSEED
  5
A4B8
  9
$SURFTAB1
 70
     6
  9
$SURFTAB2
 70
     6
  9
$SURFTYPE
 70
     6
  9
$SURFU
 70
     6
  9
$SURFV
 70
     6
  9
$UCSNAME
  2

  9
$UCSORG
 10
0.0
 20
0.0
 30
0.0
  9
$UCSXDIR
 10
1.0
 20
0.0
 30
0.0
  9
$UCSYDIR
 10
0.0
 20
1.0
 30
0.0
  9
$PUCSNAME
  2

  9
$PUCSORG
 10
0.0
 20
0.0
 30
0.0
  9
$PUCSXDIR
 10
1.0
 20
0.0
 30
0.0
  9
$PUCSYDIR
 10
0.0
 20
1.0
 30
0.0
  9
$USERI1
 70
     0
  9
$USERI2
 70
     0
  9
$USERI3
 70
     0
  9
$USERI4
 70
     0
  9
$USERI5
 70
     0
  9
$USERR1
 40
0.0
  9
$USERR2
 40
0.0
  9
$USERR3
 40
0.0
  9
$USERR4
 40
0.0
  9
$USERR5
 40
0.0
  9
$WORLDVIEW
 70
     1
  9
$SHADEDGE
 70
     3
  9
$SHADEDIF
 70
    70
  9
$TILEMODE
 70
     1
  9
$MAXACTVP
 70
    64
  9
$PLIMCHECK
 70
     0
  9
$PEXTMIN
 10
1.0000000000000000E+20
 20
1.0000000000000000E+20
 30
1.0000000000000000E+20
  9
$PEXTMAX
 10
-1.0000000000000000E+20
 20
-1.0000000000000000E+20
 30
-1.0000000000000000E+20
  9
$PLIMMIN
 10
0.0
 20
0.0
  9
$PLIMMAX
 10
12.0
 20
9.0
  9
$UNITMODE
 70
     0
  9
$VISRETAIN
 70
     1
  9
$PLINEGEN
 70
     0
  9
$PSLTSCALE
 70
     1
  0
ENDSEC
  0
SECTION
  2
TABLES
  0
TABLE
  2
VPORT
 70
     1
  0
VPORT
  2
*ACTIVE
 70
     0
 10
0.0
 20
0.0
 11
1.0
 21
1.0
 12
-0.0220975178208391
 22
-0.0012383178912501
 13
0.0
 23
0.0
 14
1.0
 24
1.0
 15
0.0
 25
0.0
 16
0.0
 26
0.0
 36
35.9727637814415218
 17
3498.4478759765629547
 27
204.2102599755872063
 37
0.0
 40
3.8949522408226489
 41
2.6159122085048012
 42
50.0
 43
0.0
 44
0.0
 50
0.0
 51
0.0
 71
     0
 72
   100
 73
     1
 74
     1
 75
     0
 76
     0
 77
     0
 78
     0
  0
ENDTAB
  0
TABLE
  2
LTYPE
 70
     2
  0
LTYPE
  2
CONTINUOUS
 70
     0
  3
Solid line
 72
    65
 73
     0
 40
0.0
  0
LTYPE
  2
PHANTOM2
 70
     0
  3
___ _ _ ___ _ _ ___ _ _ ___ _ _
 72
    65
 73
     6
 40
1.25
 49
0.625
 49
-0.125
 49
0.125
 49
-0.125
 49
0.125
 49
-0.125
  0
ENDTAB
  0
TABLE
  2
LAYER
 70
     2
  0
LAYER
  2
0
 70
     0
 62
   255
  6
CONTINUOUS
  0
LAYER
  2
DEFPOINTS
 70
     0
 62
     7
  6
CONTINUOUS
  0
ENDTAB
  0
TABLE
  2
STYLE
 70
     1
  0
STYLE
  2
STANDARD
 70
     0
 40
0.0
 41
0.8
 50
0.0
 71
     0
 42
0.2
  3
txt
  4

  0
ENDTAB
  0
TABLE
  2
VIEW
 70
     0
  0
ENDTAB
  0
TABLE
  2
UCS
 70
     0
  0
ENDTAB
  0
TABLE
  2
APPID
 70
     9
  0
APPID
  2
ACAD
 70
     0
  0
APPID
  2
ACAD_MLEADERVER
 70
     0
  0
APPID
  2
ACAD_EXEMPT_FROM_CAD_STANDARDS
 70
     0
  0
APPID
  2
ACAD_NAV_VCDISPLAY
 70
     0
  0
APPID
  2
ACAECLAYERSTANDARD
 70
     0
  0
APPID
  2
ACCMTRANSPARENCY
 70
     0
  0
APPID
  2
ACAD_DSTYLE_DIMJAG
 70
     0
  0
APPID
  2
ACAD_DSTYLE_DIMTALN
 70
     0
  0
APPID
  2
ACDBATTR
 70
     0
  0
ENDTAB
  0
TABLE
  2
DIMSTYLE
 70
     1
  0
DIMSTYLE
  2
STANDARD
 70
     0
  3

  4

  5

  6

  7

 40
1.0
 41
0.1875
 42
0.0625
 43
0.38
 44
0.125
 45
0.0
 46
0.0
 47
0.01
 48
0.01
140
0.15625
141
0.09
142
0.0
143
25.3999999999999986
144
1.0
145
0.0
146
1.0
147
0.09
 71
     1
 72
     0
 73
     1
 74
     1
 75
     0
 76
     0
 77
     0
 78
     4
170
     0
171
     2
172
     0
173
     0
174
     0
175
     0
176
     0
177
     0
178
     0
  0
ENDTAB
  0
ENDSEC
  0
SECTION
  2
BLOCKS
  0
BLOCK
  8
0
  2
$MODEL_SPACE
 70
     0
 10
0.0
 20
0.0
 30
0.0
  3
$MODEL_SPACE
  1

  0
ENDBLK
  5
21
  8
0
  0
BLOCK
 67
     1
  8
0
  2
$PAPER_SPACE
 70
     0
 10
0.0
 20
0.0
 30
0.0
  3
$PAPER_SPACE
  1

  0
ENDBLK
  5
1D
 67
     1
  8
0
  0
BLOCK
  8
0
  2
_FILLED
 70
     0
 10
0.0
 20
0.0
 30
0.0
  3
_FILLED
  1

  0
SOLID
  5
6F59
  8
0
  6
BYBLOCK
 62
     0
 10
0.0
 20
0.0
 30
0.0
 11
-1.0
 21
0.1666666667
 31
0.0
 12
-1.0
 22
-0.1666666667
 32
0.0
 13
-1.0
 23
-0.1666666667
 33
0.0
  0
ENDBLK
  5
6F5A
  8
0
  6
BYBLOCK
 62
     0
  0
ENDSEC
  0
SECTION
  2
ENTITIES
  0
ATTDEF
  5
3930
  8
DEFPOINTS
 10
3494.367305571362067
 20
205.5898995898463113
 30
0.0
 40
0.001
  1
K-97498BR
  3

  2
MODELNUMBER
 70
     0
1001
ACDBATTR
1070
     0
1070
     1
  0
ATTDEF
  5
3931
  8
DEFPOINTS
 10
3494.367305571362067
 20
205.588232923179703
 30
0.0
 40
0.001
  1
AVID
  3

  2
TRADENAME
 70
     0
1001
ACDBATTR
1070
     0
1070
     1
  0
ATTDEF
  5
3932
  8
DEFPOINTS
 10
3494.367305571362067
 20
205.5865662565130094
 30
0.0
 40
0.001
  1
TOWEL RING
  3

  2
PRODUCT
 70
     0
1001
ACDBATTR
1070
     0
1070
     1
  0
LINE
  5
A294
  8
0
 10
3495.2526848411971514
 20
205.5856422687737108
 30
0.0
 11
3493.4810199904859473
 21
205.5856422687737108
 31
0.0
  0
LINE
  5
A295
  8
0
 10
3493.4810199904859473
 20
205.5856422687737108
 30
0.0
 11
3493.4810199904859473
 21
205.3376107726737132
 31
0.0
  0
ARC
  5
A296
  8
0
 10
3493.5085777901108486
 20
205.3376095145308113
 30
0.0
 40
0.0275577996538061
 50
179.9973841786288062
 51
270.0253475707694975
  0
LINE
  5
A297
  8
0
 10
3493.508589981642217
 20
205.3100517175737139
 30
0.0
 11
3495.2251148500417912
 21
205.3100517175737139
 31
0.0
  0
ARC
  5
A298
  8
0
 10
3494.950429821742091
 20
205.2943036860737038
 30
0.0
 40
0.0157480314999958
 50
359.9999999999869829
 51
90.0
  0
LINE
  5
A299
  8
0
 10
3494.9661778532417884
 20
205.2943036860737038
 30
0.0
 11
3494.9661778532408789
 21
204.1869512749345859
 31
0.0
  0
ARC
  5
A29A
  8
0
 10
3496.1789027256882036
 20
204.1098641227222004
 30
0.0
 40
1.215172434383514
 50
176.362873190321011
 51
199.1291884792478015
  0
ARC
  5
A29B
  8
0
 10
3495.4863408479618556
 20
203.888928114786097
 30
0.0
 40
0.4887913461001462
 50
201.2649054272592082
 51
251.7786766522831101
  0
ARC
  5
A29C
  8
0
 10
3495.6384099629681259
 20
204.4923155124157859
 30
0.0
 40
1.1103538113380991
 50
254.0615340314184891
 51
273.0190804777172957
  0
LINE
  5
A29D
  8
0
 10
3495.6968906483421051
 20
203.3835028159737135
 30
0.0
 11
3503.3674062740428781
 21
203.3835028273736896
 31
0.0
  0
ARC
  5
A29E
  8
0
 10
3503.3649995414511977
 20
203.3511771248122955
 30
0.0
 40
0.0324151724945454
 50
4.2604049131745123
 51
85.74203623825926
  0
LINE
  5
A29F
  8
0
 10
3503.3973251414417973
 20
203.3535852346736874
 30
0.0
 11
3503.3973251414417973
 21
203.138227966073714
 31
0.0
  0
ARC
  5
A2A0
  8
0
 10
3503.0882306184371373
 20
203.138229919784294
 30
0.0
 40
0.3090945230105573
 50
270.0000000008076881
 51
359.9996378474539256
  0
LINE
  5
A2A1
  8
0
 10
3503.0882306184421395
 20
202.8291353967736939
 30
0.0
 11
3493.9959036349418966
 21
202.829135433973704
 31
0.0
  0
ARC
  5
A2A2
  8
0
 10
3493.9956639325741889
 20
202.8801558448448077
 30
0.0
 40
0.0510209739487732
 50
210.1200031872864997
 51
270.2691831123574957
  0
ARC
  5
A2A3
  8
0
 10
3494.9808988407830839
 20
203.4517361873820107
 30
0.0
 40
1.190052102728778
 50
187.7804946852149897
 51
210.1200031872864997
  0
ARC
  5
A2A4
  8
0
 10
3497.6789433798940081
 20
203.8203866242301103
 30
0.0
 40
3.9131656662093071
 50
182.6361031997757891
 51
187.7804946852149897
  0
ARC
  5
A2A5
  8
0
 10
3501.6206023988161178
 20
203.835007815443106
 30
0.0
 40
7.8530951240351721
 50
179.9162251515789137
 51
181.4199170307566931
  0
LINE
  5
A2A6
  8
0
 10
3493.7675156692421297
 20
203.8464901903199973
 30
0.0
 11
3493.7675156692421297
 21
205.2942909906014108
 31
0.0
  0
ARC
  5
A2A7
  8
0
 10
3493.783263698006067
 20
205.2943036836944941
 30
0.0
 40
0.0157480338791987
 50
89.9999900449701045
 51
180.0461810503148001
  0
LINE
  5
A2A8
  8
0
 10
3495.2526848411971514
 20
205.5856422687737108
 30
0.0
 11
3495.2526848411971514
 21
205.3376107726737132
 31
0.0
  0
ARC
  5
A2A9
  8
0
 10
3495.2251270415717954
 20
205.3376095145308113
 30
0.0
 40
0.0275577996538061
 50
269.9746524292306162
 51
0.0026158213711498
  0
LINE
  5
A2AB
  8
0
 10
3503.0036300067908996
 20
203.3835028268331087
 30
0.0
 11
3503.0036300067908996
 21
202.8291353971198134
 31
0.0
  0
ENDSEC
  0
EOF
