  0
SECTION
  2
HEADER
  9
$ACADVER
  1
AC1009
  9
$INSBASE
 10
3492.9482289110560487
 20
203.5733959096594958
 30
0.0
  9
$EXTMIN
 10
3492.0002876676107917
 20
202.6844395929506959
 30
-0.0015258207003583
  9
$EXTMAX
 10
3502.1269671555878631
 20
204.4706021884294955
 30
0.0000000349246037
  9
$LIMMIN
 10
0.0
 20
0.0
  9
$LIMMAX
 10
11.6929133858000007
 20
8.2677165353999982
  9
$ORTHOMODE
 70
     0
  9
$REGENMODE
 70
     1
  9
$FILLMODE
 70
     1
  9
$QTEXTMODE
 70
     0
  9
$MIRRTEXT
 70
     0
  9
$DRAGMODE
 70
     2
  9
$LTSCALE
 40
0.6431102362
  9
$OSMODE
 70
  4095
  9
$ATTMODE
 70
     1
  9
$TEXTSIZE
 40
0.2
  9
$TRACEWID
 40
0.05
  9
$TEXTSTYLE
  7
STANDARD
  9
$CLAYER
  8
0
  9
$CELTYPE
  6
BYLAYER
  9
$CECOLOR
 62
   256
  9
$DIMSCALE
 40
1.0
  9
$DIMASZ
 40
0.1875
  9
$DIMEXO
 40
0.0625
  9
$DIMDLI
 40
0.4443307087
  9
$DIMRND
 40
0.0
  9
$DIMDLE
 40
0.0
  9
$DIMEXE
 40
0.125
  9
$DIMTP
 40
0.01
  9
$DIMTM
 40
0.01
  9
$DIMTXT
 40
2.0
  9
$DIMCEN
 40
0.1052362205
  9
$DIMTSZ
 40
0.0
  9
$DIMTOL
 70
     1
  9
$DIMLIM
 70
     0
  9
$DIMTIH
 70
     1
  9
$DIMTOH
 70
     1
  9
$DIMSE1
 70
     0
  9
$DIMSE2
 70
     0
  9
$DIMTAD
 70
     0
  9
$DIMZIN
 70
     0
  9
$DIMBLK
  1

  9
$DIMASO
 70
     1
  9
$DIMSHO
 70
     1
  9
$DIMPOST
  1
\X
  9
$DIMAPOST
  1

  9
$DIMALT
 70
     1
  9
$DIMALTD
 70
     2
  9
$DIMALTF
 40
25.3999999999999986
  9
$DIMLFAC
 40
1.0
  9
$DIMTOFL
 70
     0
  9
$DIMTVP
 40
0.0
  9
$DIMTIX
 70
     0
  9
$DIMSOXD
 70
     0
  9
$DIMSAH
 70
     0
  9
$DIMBLK1
  1

  9
$DIMBLK2
  1

  9
$DIMSTYLE
  2
STANDARD
  9
$DIMCLRD
 70
     0
  9
$DIMCLRE
 70
     0
  9
$DIMCLRT
 70
     0
  9
$DIMTFAC
 40
1.0
  9
$DIMGAP
 40
0.09
  9
$LUNITS
 70
     2
  9
$LUPREC
 70
     4
  9
$SKETCHINC
 40
0.1
  9
$FILLETRAD
 40
0.0
  9
$AUNITS
 70
     0
  9
$AUPREC
 70
     0
  9
$MENU
  1
.
  9
$ELEVATION
 40
0.0
  9
$PELEVATION
 40
0.0
  9
$THICKNESS
 40
0.0
  9
$LIMCHECK
 70
     0
  9
$BLIPMODE
 70
     0
  9
$CHAMFERA
 40
0.0
  9
$CHAMFERB
 40
0.0
  9
$SKPOLY
 70
     0
  9
$TDCREATE
 40
2458060.468368056230247
  9
$TDUPDATE
 40
2459405.7809027777984738
  9
$TDINDWG
 40
0.7005510417
  9
$TDUSRTIMER
 40
0.7005510417
  9
$USRTIMER
 70
     1
  9
$ANGBASE
 50
0.0
  9
$ANGDIR
 70
     0
  9
$PDMODE
 70
     0
  9
$PDSIZE
 40
0.3125
  9
$PLINEWID
 40
0.0
  9
$COORDS
 70
     1
  9
$SPLFRAME
 70
     0
  9
$SPLINETYPE
 70
     6
  9
$SPLINESEGS
 70
     8
  9
$ATTDIA
 70
     1
  9
$ATTREQ
 70
     1
  9
$HANDLING
 70
     1
  9
$HANDSEED
  5
A33B
  9
$SURFTAB1
 70
     6
  9
$SURFTAB2
 70
     6
  9
$SURFTYPE
 70
     6
  9
$SURFU
 70
     6
  9
$SURFV
 70
     6
  9
$UCSNAME
  2

  9
$UCSORG
 10
0.0
 20
0.0
 30
0.0
  9
$UCSXDIR
 10
1.0
 20
0.0
 30
0.0
  9
$UCSYDIR
 10
0.0
 20
1.0
 30
0.0
  9
$PUCSNAME
  2

  9
$PUCSORG
 10
0.0
 20
0.0
 30
0.0
  9
$PUCSXDIR
 10
1.0
 20
0.0
 30
0.0
  9
$PUCSYDIR
 10
0.0
 20
1.0
 30
0.0
  9
$USERI1
 70
     0
  9
$USERI2
 70
     0
  9
$USERI3
 70
     0
  9
$USERI4
 70
     0
  9
$USERI5
 70
     0
  9
$USERR1
 40
0.0
  9
$USERR2
 40
0.0
  9
$USERR3
 40
0.0
  9
$USERR4
 40
0.0
  9
$USERR5
 40
0.0
  9
$WORLDVIEW
 70
     1
  9
$SHADEDGE
 70
     3
  9
$SHADEDIF
 70
    70
  9
$TILEMODE
 70
     1
  9
$MAXACTVP
 70
    64
  9
$PLIMCHECK
 70
     0
  9
$PEXTMIN
 10
1.0000000000000000E+20
 20
1.0000000000000000E+20
 30
1.0000000000000000E+20
  9
$PEXTMAX
 10
-1.0000000000000000E+20
 20
-1.0000000000000000E+20
 30
-1.0000000000000000E+20
  9
$PLIMMIN
 10
0.0
 20
0.0
  9
$PLIMMAX
 10
12.0
 20
9.0
  9
$UNITMODE
 70
     0
  9
$VISRETAIN
 70
     1
  9
$PLINEGEN
 70
     0
  9
$PSLTSCALE
 70
     1
  0
ENDSEC
  0
SECTION
  2
TABLES
  0
TABLE
  2
VPORT
 70
     1
  0
VPORT
  2
*ACTIVE
 70
     0
 10
0.0
 20
0.0
 11
1.0
 21
1.0
 12
0.0427533881620548
 22
-0.0021605057942793
 13
0.0
 23
0.0
 14
1.0
 24
1.0
 15
0.0
 25
0.0
 16
0.0
 26
0.0
 36
35.2030084724785226
 17
3497.0208740234379547
 27
203.5796813964844034
 37
0.0
 40
3.8833480007168002
 41
2.6159122085048012
 42
50.0
 43
0.0
 44
0.0
 50
0.0
 51
0.0
 71
     0
 72
   100
 73
     1
 74
     1
 75
     0
 76
     0
 77
     0
 78
     0
  0
ENDTAB
  0
TABLE
  2
LTYPE
 70
     2
  0
LTYPE
  2
CONTINUOUS
 70
     0
  3
Solid line
 72
    65
 73
     0
 40
0.0
  0
LTYPE
  2
PHANTOM2
 70
     0
  3
___ _ _ ___ _ _ ___ _ _ ___ _ _
 72
    65
 73
     6
 40
1.25
 49
0.625
 49
-0.125
 49
0.125
 49
-0.125
 49
0.125
 49
-0.125
  0
ENDTAB
  0
TABLE
  2
LAYER
 70
     2
  0
LAYER
  2
0
 70
     0
 62
   255
  6
CONTINUOUS
  0
LAYER
  2
DEFPOINTS
 70
     0
 62
     7
  6
CONTINUOUS
  0
ENDTAB
  0
TABLE
  2
STYLE
 70
     1
  0
STYLE
  2
STANDARD
 70
     0
 40
0.0
 41
0.8
 50
0.0
 71
     0
 42
0.2
  3
txt
  4

  0
ENDTAB
  0
TABLE
  2
VIEW
 70
     0
  0
ENDTAB
  0
TABLE
  2
UCS
 70
     0
  0
ENDTAB
  0
TABLE
  2
APPID
 70
     9
  0
APPID
  2
ACAD
 70
     0
  0
APPID
  2
ACAD_MLEADERVER
 70
     0
  0
APPID
  2
ACAD_EXEMPT_FROM_CAD_STANDARDS
 70
     0
  0
APPID
  2
ACAD_NAV_VCDISPLAY
 70
     0
  0
APPID
  2
ACAECLAYERSTANDARD
 70
     0
  0
APPID
  2
ACCMTRANSPARENCY
 70
     0
  0
APPID
  2
ACAD_DSTYLE_DIMJAG
 70
     0
  0
APPID
  2
ACAD_DSTYLE_DIMTALN
 70
     0
  0
APPID
  2
ACDBATTR
 70
     0
  0
ENDTAB
  0
TABLE
  2
DIMSTYLE
 70
     1
  0
DIMSTYLE
  2
STANDARD
 70
     0
  3

  4

  5

  6

  7

 40
1.0
 41
0.1875
 42
0.0625
 43
0.38
 44
0.125
 45
0.0
 46
0.0
 47
0.01
 48
0.01
140
0.15625
141
0.09
142
0.0
143
25.3999999999999986
144
1.0
145
0.0
146
1.0
147
0.09
 71
     1
 72
     0
 73
     1
 74
     1
 75
     0
 76
     0
 77
     0
 78
     4
170
     0
171
     2
172
     0
173
     0
174
     0
175
     0
176
     0
177
     0
178
     0
  0
ENDTAB
  0
ENDSEC
  0
SECTION
  2
BLOCKS
  0
BLOCK
  8
0
  2
$MODEL_SPACE
 70
     0
 10
0.0
 20
0.0
 30
0.0
  3
$MODEL_SPACE
  1

  0
ENDBLK
  5
21
  8
0
  0
BLOCK
 67
     1
  8
0
  2
$PAPER_SPACE
 70
     0
 10
0.0
 20
0.0
 30
0.0
  3
$PAPER_SPACE
  1

  0
ENDBLK
  5
1D
 67
     1
  8
0
  0
BLOCK
  8
0
  2
_FILLED
 70
     0
 10
0.0
 20
0.0
 30
0.0
  3
_FILLED
  1

  0
SOLID
  5
6F59
  8
0
  6
BYBLOCK
 62
     0
 10
0.0
 20
0.0
 30
0.0
 11
-1.0
 21
0.1666666667
 31
0.0
 12
-1.0
 22
-0.1666666667
 32
0.0
 13
-1.0
 23
-0.1666666667
 33
0.0
  0
ENDBLK
  5
6F5A
  8
0
  6
BYBLOCK
 62
     0
  0
BLOCK
  8
0
  2
A$CC6A3E2C7
 70
     0
 10
0.0
 20
0.0
 30
0.0
  3
A$CC6A3E2C7
  1

  0
LINE
  5
9E42
  8
0
 10
1.771664859651904
 20
2.7565073478721809
 30
0.0
 11
0.0000000089403525
 21
2.7565073478721791
 31
0.0
  0
LINE
  5
9E43
  8
0
 10
0.0000000089403525
 20
2.7565073478721791
 30
0.0
 11
0.0000000089403525
 21
2.5084758517721801
 31
0.0
  0
ARC
  5
9E44
  8
0
 10
0.0275578085654384
 20
2.508474593629225
 30
0.0
 40
0.0275577996538061
 50
179.9973841786288062
 51
270.025347570774727
  0
LINE
  5
9E45
  8
0
 10
0.0275700000961283
 20
2.480916796672179
 30
0.0
 11
1.7440948684961279
 21
2.4809167966721768
 31
0.0
  0
ARC
  5
9E46
  8
0
 10
1.4694098401961311
 20
2.465168765172181
 30
0.0
 40
0.0157480314999958
 50
359.9999999999870965
 51
90.0000000000031832
  0
LINE
  5
9E47
  8
0
 10
1.4851578716961289
 20
2.4651687651721779
 30
0.0
 11
1.4851578716958791
 21
1.357816354033117
 31
0.0
  0
ARC
  5
9E48
  8
0
 10
2.6978827441419471
 20
1.280729201820678
 30
0.0
 40
1.215172434383514
 50
176.3628731903216078
 51
199.1291884792520932
  0
ARC
  5
9E49
  8
0
 10
2.005320866416187
 20
1.0597931938845671
 30
0.0
 40
0.4887913461001462
 50
201.2649054272648925
 51
251.7786766522820869
  0
ARC
  5
9E4A
  8
0
 10
2.1573899814219302
 20
1.663180591514281
 30
0.0
 40
1.1103538113380991
 50
254.0615340314172101
 51
273.0190804777084281
  0
LINE
  5
9E4B
  8
0
 10
2.2158706667961301
 20
0.5543678950721791
 30
0.0
 11
9.8863862924961303
 21
0.5543679064721792
 31
0.0
  0
ARC
  5
9E4C
  8
0
 10
9.8839795599056188
 20
0.5220422039107673
 30
0.0
 40
0.0324151724945454
 50
4.2604049131738808
 51
85.7420362382536467
  0
LINE
  5
9E4D
  8
0
 10
9.9163051598961296
 20
0.5244503137721788
 30
0.0
 11
9.9163051598961296
 21
0.3090930451721787
 31
0.0
  0
ARC
  5
9E4E
  8
0
 10
9.6072106368917467
 20
0.309094998882725
 30
0.0
 40
0.3090945230105573
 50
270.0000000008122925
 51
359.9996378474533003
  0
LINE
  5
9E4F
  8
0
 10
9.6072106368961272
 20
0.000000475872179
 30
0.0
 11
0.5148836533961294
 21
0.0000005130721803
 31
0.0
  0
ARC
  5
9E50
  8
0
 10
0.5146439510278933
 20
0.0510209239432822
 30
0.0
 40
0.0510209739487732
 50
210.1200031872863008
 51
270.2691831123551083
  0
ARC
  5
9E51
  8
0
 10
1.4998788592375809
 20
0.6226012664804444
 30
0.0
 40
1.190052102728778
 50
187.7804946852149897
 51
210.1200031872861871
  0
ARC
  5
9E52
  8
0
 10
4.1979233983479487
 20
0.9912517033286132
 30
0.0
 40
3.9131656662093071
 50
182.6361031997755049
 51
187.7804946852149897
  0
ARC
  5
9E53
  8
0
 10
8.1395824172701854
 20
1.005872894541578
 30
0.0
 40
7.8530951240351721
 50
179.9162251515795106
 51
181.4199170307564941
  0
LINE
  5
9E54
  8
0
 10
0.286495687696128
 20
1.0173552694184611
 30
0.0
 11
0.286495687696128
 21
2.4651560696998329
 31
0.0
  0
ARC
  5
9E55
  8
0
 10
0.3022437164599401
 20
2.4651687627929788
 30
0.0
 40
0.0157480338791987
 50
89.9999900449741261
 51
180.046181050315397
  0
LINE
  5
9E56
  8
0
 62
     1
 10
0.8858324342961285
 20
2.7565073478721791
 30
0.0
 11
6.5740766408978848
 21
4.9689434859011987
 31
0.0
  0
LINE
  5
9E57
  8
0
 10
1.771664859651904
 20
2.7565073478721791
 30
0.0
 11
1.771664859651904
 21
2.5084758517721801
 31
0.0
  0
ARC
  5
9E58
  8
0
 10
1.744107060026818
 20
2.508474593629225
 30
0.0
 40
0.0275577996538061
 50
269.9746524292252161
 51
0.0026158213712004
  0
ENDBLK
  5
9E5C
  8
0
  0
ENDSEC
  0
SECTION
  2
ENTITIES
  0
ATTDEF
  5
3930
  8
DEFPOINTS
 10
3492.9489788228579528
 20
203.578073483268696
 30
0.0
 40
0.001
  1
K-97498BR
  3

  2
MODELNUMBER
 70
     0
1001
ACDBATTR
1070
     0
1070
     1
  0
ATTDEF
  5
3931
  8
DEFPOINTS
 10
3492.9489788228579528
 20
203.5764068166020877
 30
0.0
 40
0.001
  1
AVID
  3

  2
TRADENAME
 70
     0
1001
ACDBATTR
1070
     0
1070
     1
  0
ATTDEF
  5
3932
  8
DEFPOINTS
 10
3492.9489788228579528
 20
203.5747401499353941
 30
0.0
 40
0.001
  1
TOWEL RING
  3

  2
PRODUCT
 70
     0
1001
ACDBATTR
1070
     0
1070
     1
  0
ARC
  5
A110
  8
0
 10
3493.0330853484251747
 20
203.573654885205201
 30
0.0
 40
0.5005160477204385
 50
180.0296458155482924
 51
199.7920303447247079
  0
ARC
  5
A111
  8
0
 10
3493.0391833987168866
 20
203.5758493602874069
 30
0.0
 40
0.5069969379563489
 50
199.7920303447247079
 51
230.8126271950150965
  0
ARC
  5
A112
  8
0
 10
3493.053511219146003
 20
203.5940375555684909
 30
0.0
 40
0.530147609206733
 50
230.8544636121833946
 51
262.0351949228461876
  0
ARC
  5
A113
  8
0
 10
3493.3026110298437743
 20
205.5627273421735879
 30
0.0
 40
2.5144980387557938
 50
262.6297933948698073
 51
271.372689100845605
  0
LINE
  5
A114
  8
0
 10
3493.3628474712550087
 20
203.0489509085915074
 30
0.0
 11
3501.7196714677561431
 21
203.0560105102914861
 31
0.0
  0
ARC
  5
A115
  8
0
 10
3501.700470934104942
 20
206.3457761189451105
 30
0.0
 40
3.2898216395988018
 50
270.3343998273030024
 51
271.5785071887830213
  0
ARC
  5
A116
  8
0
 10
3501.7669131317588835
 20
203.9347042296288066
 30
0.0
 40
0.8778344462081737
 50
271.5785071887830213
 51
277.0636693644091793
  0
ARC
  5
A117
  8
0
 10
3501.8518575683920062
 20
203.2618310097815879
 30
0.0
 40
0.1996285082737949
 50
276.6173608944403099
 51
294.8966671368200991
  0
ARC
  5
A118
  8
0
 10
3501.90216935225817
 20
203.1477800942824103
 30
0.0
 40
0.0750337752186427
 50
296.7122522854025988
 51
339.6216901245695112
  0
ARC
  5
A119
  8
0
 10
3501.8221771819557944
 20
203.1653472342366058
 30
0.0
 40
0.1565513983482075
 50
343.7928564003763086
 51
358.9369747193330227
  0
ARC
  5
A11A
  8
0
 10
3493.8594767106510517
 20
198.4031482462328881
 30
0.0
 40
4.6495098787610232
 50
92.203731880791338
 51
96.7823120438822002
  0
ARC
  5
A11B
  8
0
 10
3494.8372701875550774
 20
190.407943032760187
 30
0.0
 40
12.70426777992677
 50
96.9028985061462862
 51
97.8880493675042658
  0
ARC
  5
A11C
  8
0
 10
3493.0330853484251747
 20
203.5731369341137054
 30
0.0
 40
0.5005160477204385
 50
160.2079696552752921
 51
179.9703541844517076
  0
ARC
  5
A11D
  8
0
 10
3493.0391833987168866
 20
203.5709424590314995
 30
0.0
 40
0.5069969379563489
 50
129.1873728049847898
 51
160.2079696552752921
  0
ARC
  5
A11E
  8
0
 10
3493.053511219146003
 20
203.5527542637503871
 30
0.0
 40
0.530147609206733
 50
97.9648050771537555
 51
129.1455363878166054
  0
ARC
  5
A11F
  8
0
 10
3493.3026110298437743
 20
201.5840644771452901
 30
0.0
 40
2.5144980387557938
 50
88.627310899154395
 51
97.3702066051301642
  0
LINE
  5
A120
  8
0
 10
3493.3628474712550087
 20
204.0978409107275127
 30
0.0
 11
3501.7196714677561431
 21
204.0907813090273919
 31
0.0
  0
ARC
  5
A121
  8
0
 10
3501.700470934104942
 20
200.8010157003737959
 30
0.0
 40
3.2898216395988018
 50
88.4214928112169929
 51
89.6656001726969833
  0
ARC
  5
A122
  8
0
 10
3501.7669131317588835
 20
203.2120875896902135
 30
0.0
 40
0.8778344462081737
 50
82.9363306355907639
 51
88.4214928112169929
  0
ARC
  5
A123
  8
0
 10
3501.8518575683920062
 20
203.8849608095372901
 30
0.0
 40
0.1996285082737949
 50
65.1033328631798582
 51
83.3826391055597327
  0
ARC
  5
A124
  8
0
 10
3501.90216935225817
 20
203.999011725036496
 30
0.0
 40
0.0750337752186427
 50
20.378309875430471
 51
63.2877477145973799
  0
ARC
  5
A125
  8
0
 10
3501.8221771819557944
 20
203.9814445850823859
 30
0.0
 40
0.1565513983482075
 50
1.0630252806669609
 51
16.2071435996236914
  0
ARC
  5
A126
  8
0
 10
3493.8594767106510517
 20
208.7436435730859898
 30
0.0
 40
4.6495098787610232
 50
263.2176879561177998
 51
267.7962681192087189
  0
ARC
  5
A127
  8
0
 10
3494.8372701875559869
 20
216.7388487865723903
 30
0.0
 40
12.7042677799406096
 50
262.1119506324956774
 51
263.0971014938273811
  0
ARC
  5
A128
  8
0
 10
3492.9482232564550941
 20
203.5733959096594958
 30
0.0
 40
0.599331092
 50
75.945999475601127
 51
284.054000524398873
  0
LINE
  5
A129
  8
0
 10
3501.9787016366558419
 20
203.1624428571915075
 30
0.0
 11
3501.9787016366558419
 21
203.9843489621273989
 31
0.0
  0
ARC
  5
A12A
  8
0
 10
3492.9482232564550941
 20
203.5733959096594958
 30
0.0
 40
0.8858267707557754
 50
36.3419680883321732
 51
323.6580319116678197
  0
LINE
  5
A12D
  8
0
 10
3501.5850065020049442
 20
204.0908950700712978
 30
0.0
 11
3501.5850065020049442
 21
203.0553608499141944
 31
0.0
  0
ENDSEC
  0
EOF
