  0
SECTION
  2
HEADER
  9
$ACADVER
  1
AC1009
  9
$INSBASE
 10
4117.5445359851855756
 20
119.4336219611105037
 30
0.0
  9
$EXTMIN
 10
4104.408725536154634
 20
116.6722311221997046
 30
-0.0015258207003583
  9
$EXTMAX
 10
4130.5642973612393689
 20
119.4424173507863998
 30
0.0000000349246037
  9
$LIMMIN
 10
0.0
 20
0.0
  9
$LIMMAX
 10
11.6929133858000007
 20
8.2677165353999982
  9
$ORTHOMODE
 70
     1
  9
$REGENMODE
 70
     1
  9
$FILLMODE
 70
     1
  9
$QTEXTMODE
 70
     0
  9
$MIRRTEXT
 70
     0
  9
$DRAGMODE
 70
     2
  9
$LTSCALE
 40
0.6431102362
  9
$OSMODE
 70
  4095
  9
$ATTMODE
 70
     1
  9
$TEXTSIZE
 40
0.2
  9
$TRACEWID
 40
0.05
  9
$TEXTSTYLE
  7
STANDARD
  9
$CLAYER
  8
0
  9
$CELTYPE
  6
BYLAYER
  9
$CECOLOR
 62
   256
  9
$DIMSCALE
 40
1.0
  9
$DIMASZ
 40
0.1875
  9
$DIMEXO
 40
0.0625
  9
$DIMDLI
 40
0.4443307087
  9
$DIMRND
 40
0.0
  9
$DIMDLE
 40
0.0
  9
$DIMEXE
 40
0.125
  9
$DIMTP
 40
0.01
  9
$DIMTM
 40
0.01
  9
$DIMTXT
 40
2.0
  9
$DIMCEN
 40
0.1052362205
  9
$DIMTSZ
 40
0.0
  9
$DIMTOL
 70
     1
  9
$DIMLIM
 70
     0
  9
$DIMTIH
 70
     1
  9
$DIMTOH
 70
     1
  9
$DIMSE1
 70
     0
  9
$DIMSE2
 70
     0
  9
$DIMTAD
 70
     0
  9
$DIMZIN
 70
     0
  9
$DIMBLK
  1

  9
$DIMASO
 70
     1
  9
$DIMSHO
 70
     1
  9
$DIMPOST
  1
\X
  9
$DIMAPOST
  1

  9
$DIMALT
 70
     1
  9
$DIMALTD
 70
     2
  9
$DIMALTF
 40
25.3999999999999986
  9
$DIMLFAC
 40
1.0
  9
$DIMTOFL
 70
     0
  9
$DIMTVP
 40
0.0
  9
$DIMTIX
 70
     0
  9
$DIMSOXD
 70
     0
  9
$DIMSAH
 70
     0
  9
$DIMBLK1
  1

  9
$DIMBLK2
  1

  9
$DIMSTYLE
  2
STANDARD
  9
$DIMCLRD
 70
     0
  9
$DIMCLRE
 70
     0
  9
$DIMCLRT
 70
     0
  9
$DIMTFAC
 40
1.0
  9
$DIMGAP
 40
0.09
  9
$LUNITS
 70
     2
  9
$LUPREC
 70
     4
  9
$SKETCHINC
 40
0.1
  9
$FILLETRAD
 40
0.0
  9
$AUNITS
 70
     0
  9
$AUPREC
 70
     0
  9
$MENU
  1
.
  9
$ELEVATION
 40
0.0
  9
$PELEVATION
 40
0.0
  9
$THICKNESS
 40
0.0
  9
$LIMCHECK
 70
     0
  9
$BLIPMODE
 70
     0
  9
$CHAMFERA
 40
0.0
  9
$CHAMFERB
 40
0.0
  9
$SKPOLY
 70
     0
  9
$TDCREATE
 40
2458060.468368056230247
  9
$TDUPDATE
 40
2459420.6705555561929941
  9
$TDINDWG
 40
0.3171829861
  9
$TDUSRTIMER
 40
0.3171829861
  9
$USRTIMER
 70
     1
  9
$ANGBASE
 50
0.0
  9
$ANGDIR
 70
     0
  9
$PDMODE
 70
     0
  9
$PDSIZE
 40
0.3125
  9
$PLINEWID
 40
0.0
  9
$COORDS
 70
     1
  9
$SPLFRAME
 70
     0
  9
$SPLINETYPE
 70
     6
  9
$SPLINESEGS
 70
     8
  9
$ATTDIA
 70
     1
  9
$ATTREQ
 70
     1
  9
$HANDLING
 70
     1
  9
$HANDSEED
  5
68E2
  9
$SURFTAB1
 70
     6
  9
$SURFTAB2
 70
     6
  9
$SURFTYPE
 70
     6
  9
$SURFU
 70
     6
  9
$SURFV
 70
     6
  9
$UCSNAME
  2

  9
$UCSORG
 10
0.0
 20
0.0
 30
0.0
  9
$UCSXDIR
 10
1.0
 20
0.0
 30
0.0
  9
$UCSYDIR
 10
0.0
 20
1.0
 30
0.0
  9
$PUCSNAME
  2

  9
$PUCSORG
 10
0.0
 20
0.0
 30
0.0
  9
$PUCSXDIR
 10
1.0
 20
0.0
 30
0.0
  9
$PUCSYDIR
 10
0.0
 20
1.0
 30
0.0
  9
$USERI1
 70
     0
  9
$USERI2
 70
     0
  9
$USERI3
 70
     0
  9
$USERI4
 70
     0
  9
$USERI5
 70
     0
  9
$USERR1
 40
0.0
  9
$USERR2
 40
0.0
  9
$USERR3
 40
0.0
  9
$USERR4
 40
0.0
  9
$USERR5
 40
0.0
  9
$WORLDVIEW
 70
     1
  9
$SHADEDGE
 70
     3
  9
$SHADEDIF
 70
    70
  9
$TILEMODE
 70
     1
  9
$MAXACTVP
 70
    64
  9
$PLIMCHECK
 70
     0
  9
$PEXTMIN
 10
1.0000000000000000E+20
 20
1.0000000000000000E+20
 30
1.0000000000000000E+20
  9
$PEXTMAX
 10
-1.0000000000000000E+20
 20
-1.0000000000000000E+20
 30
-1.0000000000000000E+20
  9
$PLIMMIN
 10
0.0
 20
0.0
  9
$PLIMMAX
 10
12.0
 20
9.0
  9
$UNITMODE
 70
     0
  9
$VISRETAIN
 70
     1
  9
$PLINEGEN
 70
     0
  9
$PSLTSCALE
 70
     1
  0
ENDSEC
  0
SECTION
  2
TABLES
  0
TABLE
  2
VPORT
 70
     1
  0
VPORT
  2
*ACTIVE
 70
     0
 10
0.0
 20
0.0
 11
1.0
 21
1.0
 12
-0.0581662856775438
 22
-0.0009213669292052
 13
0.0
 23
0.0
 14
1.0
 24
1.0
 15
0.0
 25
0.0
 16
0.0
 26
0.0
 36
97.080763472229421
 17
4117.5446777343740905
 27
118.0582456034221934
 37
0.0
 40
12.86480945503566
 41
2.0410052910052912
 42
50.0
 43
0.0
 44
0.0
 50
0.0
 51
0.0
 71
     0
 72
   100
 73
     1
 74
     1
 75
     0
 76
     0
 77
     0
 78
     0
  0
ENDTAB
  0
TABLE
  2
LTYPE
 70
     2
  0
LTYPE
  2
CONTINUOUS
 70
     0
  3
Solid line
 72
    65
 73
     0
 40
0.0
  0
LTYPE
  2
PHANTOM2
 70
     0
  3
___ _ _ ___ _ _ ___ _ _ ___ _ _
 72
    65
 73
     6
 40
1.25
 49
0.625
 49
-0.125
 49
0.125
 49
-0.125
 49
0.125
 49
-0.125
  0
ENDTAB
  0
TABLE
  2
LAYER
 70
     2
  0
LAYER
  2
0
 70
     0
 62
   255
  6
CONTINUOUS
  0
LAYER
  2
DEFPOINTS
 70
     0
 62
     7
  6
CONTINUOUS
  0
ENDTAB
  0
TABLE
  2
STYLE
 70
     1
  0
STYLE
  2
STANDARD
 70
     0
 40
0.0
 41
0.8
 50
0.0
 71
     0
 42
0.2
  3
txt
  4

  0
ENDTAB
  0
TABLE
  2
VIEW
 70
     0
  0
ENDTAB
  0
TABLE
  2
UCS
 70
     0
  0
ENDTAB
  0
TABLE
  2
APPID
 70
     9
  0
APPID
  2
ACAD
 70
     0
  0
APPID
  2
ACAD_MLEADERVER
 70
     0
  0
APPID
  2
ACAD_EXEMPT_FROM_CAD_STANDARDS
 70
     0
  0
APPID
  2
ACAD_NAV_VCDISPLAY
 70
     0
  0
APPID
  2
ACAECLAYERSTANDARD
 70
     0
  0
APPID
  2
ACCMTRANSPARENCY
 70
     0
  0
APPID
  2
ACAD_DSTYLE_DIMJAG
 70
     0
  0
APPID
  2
ACAD_DSTYLE_DIMTALN
 70
     0
  0
APPID
  2
ACDBATTR
 70
     0
  0
ENDTAB
  0
TABLE
  2
DIMSTYLE
 70
     1
  0
DIMSTYLE
  2
STANDARD
 70
     0
  3

  4

  5

  6

  7

 40
1.0
 41
0.1875
 42
0.0625
 43
0.38
 44
0.125
 45
0.0
 46
0.0
 47
0.01
 48
0.01
140
0.15625
141
0.09
142
0.0
143
25.3999999999999986
144
1.0
145
0.0
146
1.0
147
0.09
 71
     1
 72
     0
 73
     1
 74
     1
 75
     0
 76
     0
 77
     0
 78
     4
170
     0
171
     2
172
     0
173
     0
174
     0
175
     0
176
     0
177
     0
178
     0
  0
ENDTAB
  0
ENDSEC
  0
SECTION
  2
BLOCKS
  0
BLOCK
  8
0
  2
$MODEL_SPACE
 70
     0
 10
0.0
 20
0.0
 30
0.0
  3
$MODEL_SPACE
  1

  0
ENDBLK
  5
21
  8
0
  0
BLOCK
 67
     1
  8
0
  2
$PAPER_SPACE
 70
     0
 10
0.0
 20
0.0
 30
0.0
  3
$PAPER_SPACE
  1

  0
ENDBLK
  5
1D
 67
     1
  8
0
  0
ENDSEC
  0
SECTION
  2
ENTITIES
  0
ATTDEF
  5
3930
  8
DEFPOINTS
 10
4117.5406868634927378
 20
119.4377720906336009
 30
0.0
 40
0.001
  1
K-97495BR
  3

  2
MODELNUMBER
 70
     0
1001
ACDBATTR
1070
     0
1070
     1
  0
ATTDEF
  5
3931
  8
DEFPOINTS
 10
4117.5406868634927378
 20
119.4361054239668931
 30
0.0
 40
0.001
  1
AVID
  3

  2
TRADENAME
 70
     0
1001
ACDBATTR
1070
     0
1070
     1
  0
ATTDEF
  5
3932
  8
DEFPOINTS
 10
4117.5406868634927378
 20
119.4344387573001995
 30
0.0
 40
0.001
  1
TOWEL BAR
  3

  2
PRODUCT
 70
     0
1001
ACDBATTR
1070
     0
1070
     1
  0
LINE
  5
6723
  8
0
 10
4104.650835197786364
 20
119.4336219611105037
 30
0.0
 11
4104.650835197786364
 21
119.187558969010496
 31
0.0
  0
LINE
  5
6724
  8
0
 10
4104.9373308774856923
 20
119.1422833784104967
 30
0.0
 11
4104.9373308774856923
 21
117.7363544594105065
 31
0.0
  0
LINE
  5
6725
  8
0
 10
4106.1359930614871701
 20
119.1422833784104967
 30
0.0
 11
4106.1359930614871701
 21
118.0355396675105055
 31
0.0
  0
LINE
  5
6726
  8
0
 10
4106.422488741086454
 20
119.4336219611105037
 30
0.0
 11
4106.422488741086454
 21
119.187558969010496
 31
0.0
  0
LINE
  5
6727
  8
0
 10
4106.9146147253859453
 20
116.6777164493104948
 30
0.0
 11
4106.9146147253859453
 21
117.2320838313105043
 31
0.0
  0
LINE
  5
6728
  8
0
 10
4105.153105615885579
 20
116.6777164493104948
 30
0.0
 11
4129.9359663544855721
 21
116.6777164493104948
 31
0.0
  0
LINE
  5
6729
  8
0
 10
4127.4303627567860531
 20
117.2320838313105043
 30
0.0
 11
4107.658709213586917
 21
117.2320838313105043
 31
0.0
  0
LINE
  5
672A
  8
0
 10
4107.4933548827857521
 20
117.2320838313105043
 30
0.0
 11
4106.9146147253859453
 21
117.2320838313105043
 31
0.0
  0
LINE
  5
672B
  8
0
 10
4107.5693697427868756
 20
117.2353256133104935
 30
0.0
 11
4107.5169769300855478
 21
117.2353256133104935
 31
0.0
  0
LINE
  5
672C
  8
0
 10
4104.6803725552863398
 20
119.1580314099105067
 30
0.0
 11
4106.3929611820867649
 21
119.1580314099105067
 31
0.0
  0
LINE
  5
672D
  8
0
 10
4106.422488741086454
 20
119.4336219611105037
 30
0.0
 11
4104.650835197786364
 21
119.4336219611105037
 31
0.0
  0
ARC
  5
672E
  8
0
 10
4106.1191632390182349
 20
119.1412015874416994
 30
0.0
 40
0.0168645544272761
 50
3.677810886393333
 51
86.3221891136155648
  0
ARC
  5
672F
  8
0
 10
4104.9541389362038899
 20
119.1412233510921936
 30
0.0
 40
0.0168414518125722
 50
93.6086713669292863
 51
176.3913286330551955
  0
ARC
  5
6730
  8
0
 10
4107.5178805397290489
 20
117.2262078153461005
 30
0.0
 40
0.0091624641939268
 50
95.6597561307442561
 51
156.3657870163656014
  0
ARC
  5
6731
  8
0
 10
4104.6815649629352265
 20
119.1887615723720018
 30
0.0
 40
0.0307532879690519
 50
182.2411155014841881
 51
267.7778943267982186
  0
ARC
  5
6732
  8
0
 10
4106.3938675856043119
 20
119.1866525653963009
 30
0.0
 40
0.0286355043377698
 50
268.1861059082787051
 51
1.8138942857459259
  0
ARC
  5
6733
  8
0
 10
4107.4621979198673216
 20
117.656481218410903
 30
0.0
 40
2.5261301067694211
 50
178.1880733385461042
 51
202.4231959472446931
  0
ARC
  5
6734
  8
0
 10
4105.1550581280444021
 20
116.7109859103453005
 30
0.0
 40
0.0333267061269492
 50
212.8616663845276946
 51
266.641288132620673
  0
ARC
  5
6735
  8
0
 10
4107.5760320481867893
 20
117.777376700620195
 30
0.0
 40
0.5515250012452083
 50
261.3784936695017791
 51
278.6215063304982209
  0
ARC
  5
6736
  8
0
 10
4107.565033166694775
 20
117.1388704970932935
 30
0.0
 40
0.0965525522017457
 50
65.3557673861400588
 51
87.4257426035086951
  0
ARC
  5
6737
  8
0
 10
4107.6107166546298686
 20
118.0423127377816996
 30
0.0
 40
1.474739146647926
 50
180.2631446422531951
 51
203.4798176676665946
  0
ARC
  5
6738
  8
0
 10
4106.7047242322250895
 20
117.8073590869808953
 30
0.0
 40
0.5690587289226064
 50
218.2910347517488105
 51
264.4289011932419271
  0
ARC
  5
6739
  8
0
 10
4106.8497713733377168
 20
119.2530590816625988
 30
0.0
 40
2.0220152380337839
 50
264.3152117431123997
 51
271.8377148801014869
  0
LINE
  5
673A
  8
0
 10
4130.4382367725856966
 20
119.4336219611105037
 30
0.0
 11
4130.4382367725856966
 21
119.187558969010496
 31
0.0
  0
LINE
  5
673B
  8
0
 10
4130.1517410928872778
 20
119.1422833784104967
 30
0.0
 11
4130.1517410928872778
 21
117.7363544594105065
 31
0.0
  0
LINE
  5
673C
  8
0
 10
4128.9530789088858
 20
119.1422833784104967
 30
0.0
 11
4128.9530789088858
 21
118.0355396675105055
 31
0.0
  0
LINE
  5
673D
  8
0
 10
4128.6665832292874256
 20
119.4336219611105037
 30
0.0
 11
4128.6665832292874256
 21
119.187558969010496
 31
0.0
  0
LINE
  5
673E
  8
0
 10
4128.1744572449870248
 20
116.6777164493104948
 30
0.0
 11
4128.1744572449870248
 21
117.2320838313105043
 31
0.0
  0
LINE
  5
673F
  8
0
 10
4127.5957170875863085
 20
117.2320838313105043
 30
0.0
 11
4128.1744572449870248
 21
117.2320838313105043
 31
0.0
  0
LINE
  5
6740
  8
0
 10
4127.5197022275860945
 20
117.2353256133104935
 30
0.0
 11
4127.5720950402856033
 21
117.2353256133104935
 31
0.0
  0
LINE
  5
6741
  8
0
 10
4130.4086994150857208
 20
119.1580314099105067
 30
0.0
 11
4128.6961107882871147
 21
119.1580314099105067
 31
0.0
  0
LINE
  5
6742
  8
0
 10
4128.6665832292874256
 20
119.4336219611105037
 30
0.0
 11
4130.4382367725856966
 21
119.4336219611105037
 31
0.0
  0
ARC
  5
6743
  8
0
 10
4128.9699087313547352
 20
119.1412015874416994
 30
0.0
 40
0.0168645544272761
 50
93.6778108863844352
 51
176.322189113606612
  0
ARC
  5
6744
  8
0
 10
4130.1349330341681707
 20
119.1412233510921936
 30
0.0
 40
0.0168414518125722
 50
3.6086713669447898
 51
86.3913286330707137
  0
ARC
  5
6745
  8
0
 10
4127.5711914306448307
 20
117.2262078153461005
 30
0.0
 40
0.0091624641939268
 50
23.6342129836343986
 51
84.3402438692557439
  0
ARC
  5
6746
  8
0
 10
4130.4075070074386531
 20
119.1887615723720018
 30
0.0
 40
0.0307532879690519
 50
272.2221056732017814
 51
357.7588844985157834
  0
ARC
  5
6747
  8
0
 10
4128.6952043847695677
 20
119.1866525653963009
 30
0.0
 40
0.0286355043377698
 50
178.1861057142540972
 51
271.8138940917214086
  0
ARC
  5
6748
  8
0
 10
4127.6268740505056485
 20
117.656481218410903
 30
0.0
 40
2.5261301067694211
 50
337.5768040527552785
 51
1.8119266614530609
  0
ARC
  5
6749
  8
0
 10
4129.934013842328568
 20
116.7109859103453005
 30
0.0
 40
0.0333267061269492
 50
273.3587118673792133
 51
327.138333615472277
  0
ARC
  5
674A
  8
0
 10
4127.5130399221870903
 20
117.777376700620195
 30
0.0
 40
0.5515250012452083
 50
261.3784936695017791
 51
278.6215063304982209
  0
ARC
  5
674B
  8
0
 10
4127.5240388036781951
 20
117.1388704970932935
 30
0.0
 40
0.0965525522017457
 50
92.5742573964913333
 51
114.6442326138598986
  0
ARC
  5
674C
  8
0
 10
4127.4783553157431015
 20
118.0423127377816996
 30
0.0
 40
1.474739146647926
 50
336.520182332333377
 51
359.7368553577467765
  0
ARC
  5
674D
  8
0
 10
4128.3843477381478806
 20
117.8073590869808953
 30
0.0
 40
0.5690587289226064
 50
275.5710988067580729
 51
321.7089652482512179
  0
ARC
  5
674E
  8
0
 10
4128.2393005970361628
 20
119.2530590816625988
 30
0.0
 40
2.0220152380337839
 50
268.1622851198983994
 51
275.6847882568874866
  0
ENDSEC
  0
EOF
