  0
SECTION
  2
HEADER
  9
$ACADVER
  1
AC1009
  9
$INSBASE
 10
4557.631636519084168
 20
32.2769238596575434
 30
0.0
  9
$EXTMIN
 10
4550.6613960199792928
 20
32.2758898630481212
 30
-0.0015258207003583
  9
$EXTMAX
 10
4558.9885639583708326
 20
37.2882860207560611
 30
0.0000000349246037
  9
$LIMMIN
 10
0.0
 20
0.0
  9
$LIMMAX
 10
11.6929133858000007
 20
8.2677165353999982
  9
$ORTHOMODE
 70
     0
  9
$REGENMODE
 70
     1
  9
$FILLMODE
 70
     1
  9
$QTEXTMODE
 70
     0
  9
$MIRRTEXT
 70
     0
  9
$DRAGMODE
 70
     2
  9
$LTSCALE
 40
0.6431102362
  9
$OSMODE
 70
  4095
  9
$ATTMODE
 70
     1
  9
$TEXTSIZE
 40
0.2
  9
$TRACEWID
 40
0.05
  9
$TEXTSTYLE
  7
STANDARD
  9
$CLAYER
  8
0
  9
$CELTYPE
  6
BYLAYER
  9
$CECOLOR
 62
   256
  9
$DIMSCALE
 40
1.0
  9
$DIMASZ
 40
0.1875
  9
$DIMEXO
 40
0.0625
  9
$DIMDLI
 40
0.4443307087
  9
$DIMRND
 40
0.0
  9
$DIMDLE
 40
0.0
  9
$DIMEXE
 40
0.125
  9
$DIMTP
 40
0.01
  9
$DIMTM
 40
0.01
  9
$DIMTXT
 40
2.0
  9
$DIMCEN
 40
0.1052362205
  9
$DIMTSZ
 40
0.0
  9
$DIMTOL
 70
     1
  9
$DIMLIM
 70
     0
  9
$DIMTIH
 70
     1
  9
$DIMTOH
 70
     1
  9
$DIMSE1
 70
     0
  9
$DIMSE2
 70
     0
  9
$DIMTAD
 70
     0
  9
$DIMZIN
 70
     0
  9
$DIMBLK
  1

  9
$DIMASO
 70
     1
  9
$DIMSHO
 70
     1
  9
$DIMPOST
  1
\X
  9
$DIMAPOST
  1

  9
$DIMALT
 70
     1
  9
$DIMALTD
 70
     2
  9
$DIMALTF
 40
25.3999999999999986
  9
$DIMLFAC
 40
1.0
  9
$DIMTOFL
 70
     0
  9
$DIMTVP
 40
0.0
  9
$DIMTIX
 70
     0
  9
$DIMSOXD
 70
     0
  9
$DIMSAH
 70
     0
  9
$DIMBLK1
  1

  9
$DIMBLK2
  1

  9
$DIMSTYLE
  2
STANDARD
  9
$DIMCLRD
 70
     0
  9
$DIMCLRE
 70
     0
  9
$DIMCLRT
 70
     0
  9
$DIMTFAC
 40
1.0
  9
$DIMGAP
 40
0.09
  9
$LUNITS
 70
     2
  9
$LUPREC
 70
     4
  9
$SKETCHINC
 40
0.1
  9
$FILLETRAD
 40
0.0
  9
$AUNITS
 70
     0
  9
$AUPREC
 70
     0
  9
$MENU
  1
.
  9
$ELEVATION
 40
0.0
  9
$PELEVATION
 40
0.0
  9
$THICKNESS
 40
0.0
  9
$LIMCHECK
 70
     0
  9
$BLIPMODE
 70
     0
  9
$CHAMFERA
 40
0.0
  9
$CHAMFERB
 40
0.0
  9
$SKPOLY
 70
     0
  9
$TDCREATE
 40
2458060.468368056230247
  9
$TDUPDATE
 40
2459480.9057523151859641
  9
$TDINDWG
 40
0.4531899306
  9
$TDUSRTIMER
 40
0.4531899306
  9
$USRTIMER
 70
     1
  9
$ANGBASE
 50
0.0
  9
$ANGDIR
 70
     0
  9
$PDMODE
 70
     0
  9
$PDSIZE
 40
0.3125
  9
$PLINEWID
 40
0.0
  9
$COORDS
 70
     1
  9
$SPLFRAME
 70
     0
  9
$SPLINETYPE
 70
     6
  9
$SPLINESEGS
 70
     8
  9
$ATTDIA
 70
     1
  9
$ATTREQ
 70
     1
  9
$HANDLING
 70
     1
  9
$HANDSEED
  5
143F6
  9
$SURFTAB1
 70
     6
  9
$SURFTAB2
 70
     6
  9
$SURFTYPE
 70
     6
  9
$SURFU
 70
     6
  9
$SURFV
 70
     6
  9
$UCSNAME
  2

  9
$UCSORG
 10
0.0
 20
0.0
 30
0.0
  9
$UCSXDIR
 10
1.0
 20
0.0
 30
0.0
  9
$UCSYDIR
 10
0.0
 20
1.0
 30
0.0
  9
$PUCSNAME
  2

  9
$PUCSORG
 10
0.0
 20
0.0
 30
0.0
  9
$PUCSXDIR
 10
1.0
 20
0.0
 30
0.0
  9
$PUCSYDIR
 10
0.0
 20
1.0
 30
0.0
  9
$USERI1
 70
     0
  9
$USERI2
 70
     0
  9
$USERI3
 70
     0
  9
$USERI4
 70
     0
  9
$USERI5
 70
     0
  9
$USERR1
 40
0.0
  9
$USERR2
 40
0.0
  9
$USERR3
 40
0.0
  9
$USERR4
 40
0.0
  9
$USERR5
 40
0.0
  9
$WORLDVIEW
 70
     1
  9
$SHADEDGE
 70
     3
  9
$SHADEDIF
 70
    70
  9
$TILEMODE
 70
     1
  9
$MAXACTVP
 70
    64
  9
$PLIMCHECK
 70
     0
  9
$PEXTMIN
 10
1.0000000000000000E+20
 20
1.0000000000000000E+20
 30
1.0000000000000000E+20
  9
$PEXTMAX
 10
-1.0000000000000000E+20
 20
-1.0000000000000000E+20
 30
-1.0000000000000000E+20
  9
$PLIMMIN
 10
0.0
 20
0.0
  9
$PLIMMAX
 10
12.0
 20
9.0
  9
$UNITMODE
 70
     0
  9
$VISRETAIN
 70
     1
  9
$PLINEGEN
 70
     0
  9
$PSLTSCALE
 70
     1
  0
ENDSEC
  0
SECTION
  2
TABLES
  0
TABLE
  2
VPORT
 70
     1
  0
VPORT
  2
*ACTIVE
 70
     0
 10
0.0
 20
0.0
 11
1.0
 21
1.0
 12
762.4670698329254037
 22
-85.3985684912033776
 13
0.0
 23
0.0
 14
1.0
 24
1.0
 15
0.0
 25
0.0
 16
0.0
 26
0.0
 36
5.1040778033513332
 17
3792.35791015625
 27
120.1806564331053977
 37
0.0
 40
5.0574176800825512
 41
2.8440779610194902
 42
50.0
 43
0.0
 44
0.0
 50
0.0
 51
0.0
 71
     0
 72
   100
 73
     1
 74
     1
 75
     0
 76
     0
 77
     0
 78
     0
  0
ENDTAB
  0
TABLE
  2
LTYPE
 70
     2
  0
LTYPE
  2
CONTINUOUS
 70
     0
  3
Solid line
 72
    65
 73
     0
 40
0.0
  0
LTYPE
  2
PHANTOM2
 70
     0
  3
___ _ _ ___ _ _ ___ _ _ ___ _ _
 72
    65
 73
     6
 40
1.25
 49
0.625
 49
-0.125
 49
0.125
 49
-0.125
 49
0.125
 49
-0.125
  0
ENDTAB
  0
TABLE
  2
LAYER
 70
     3
  0
LAYER
  2
0
 70
     0
 62
   255
  6
CONTINUOUS
  0
LAYER
  2
DEFPOINTS
 70
     0
 62
     7
  6
CONTINUOUS
  0
ENDTAB
  0
TABLE
  2
STYLE
 70
     1
  0
STYLE
  2
STANDARD
 70
     0
 40
0.0
 41
0.8
 50
0.0
 71
     0
 42
0.2
  3
txt
  4

  0
ENDTAB
  0
TABLE
  2
VIEW
 70
     0
  0
ENDTAB
  0
TABLE
  2
UCS
 70
     0
  0
ENDTAB
  0
TABLE
  2
APPID
 70
     9
  0
APPID
  2
ACAD
 70
     0
  0
APPID
  2
ACAD_MLEADERVER
 70
     0
  0
APPID
  2
ACAD_EXEMPT_FROM_CAD_STANDARDS
 70
     0
  0
APPID
  2
ACAD_NAV_VCDISPLAY
 70
     0
  0
APPID
  2
ACAECLAYERSTANDARD
 70
     0
  0
APPID
  2
ACCMTRANSPARENCY
 70
     0
  0
APPID
  2
ACAD_DSTYLE_DIMJAG
 70
     0
  0
APPID
  2
ACAD_DSTYLE_DIMTALN
 70
     0
  0
APPID
  2
ACDBATTR
 70
     0
  0
ENDTAB
  0
TABLE
  2
DIMSTYLE
 70
     1
  0
DIMSTYLE
  2
STANDARD
 70
     0
  3

  4

  5

  6

  7

 40
1.0
 41
0.1875
 42
0.0625
 43
0.38
 44
0.125
 45
0.0
 46
0.0
 47
0.01
 48
0.01
140
0.15625
141
0.09
142
0.0
143
25.3999999999999986
144
1.0
145
0.0
146
1.0
147
0.09
 71
     1
 72
     0
 73
     1
 74
     1
 75
     0
 76
     0
 77
     0
 78
     4
170
     0
171
     2
172
     0
173
     0
174
     0
175
     0
176
     0
177
     0
178
     0
  0
ENDTAB
  0
ENDSEC
  0
SECTION
  2
BLOCKS
  0
BLOCK
  8
0
  2
$MODEL_SPACE
 70
     0
 10
0.0
 20
0.0
 30
0.0
  3
$MODEL_SPACE
  1

  0
ENDBLK
  5
21
  8
0
  0
BLOCK
 67
     1
  8
0
  2
$PAPER_SPACE
 70
     0
 10
0.0
 20
0.0
 30
0.0
  3
$PAPER_SPACE
  1

  0
ENDBLK
  5
1D
 67
     1
  8
0
  0
ENDSEC
  0
SECTION
  2
ENTITIES
  0
ATTDEF
  5
3930
  8
DEFPOINTS
 10
4557.6279901494071964
 20
32.2818626136925673
 30
0.0
 40
0.001
  1
K-97046BR-4
  3

  2
MODELNUMBER
 70
     0
1001
ACDBATTR
1070
     0
1070
     1
  0
ATTDEF
  5
3931
  8
DEFPOINTS
 10
4557.6279901494071964
 20
32.2801959470259021
 30
0.0
 40
0.001
  1
AVID
  3

  2
TRADENAME
 70
     0
1001
ACDBATTR
1070
     0
1070
     1
  0
ATTDEF
  5
3932
  8
DEFPOINTS
 10
4557.6279901494071964
 20
32.278529280359237
 30
0.0
 40
0.001
  1
BATHROOM SINK FAUCET
  3

  2
PRODUCT
 70
     0
1001
ACDBATTR
1070
     0
1070
     1
  0
ARC
  5
14331
  8
0
 10
4550.8823229586942034
 20
36.7382198098818904
 30
0.0
 40
0.0314960630610169
 50
180.0000000443029933
 51
268.0308410928604985
  0
ARC
  5
14332
  8
0
 10
4551.2230422699913106
 20
36.9192135976730214
 30
0.0
 40
0.3692807797486317
 50
92.0479099085934251
 51
176.7774558383389092
  0
ARC
  5
14333
  8
0
 10
4550.6161236284297047
 20
27.7507795256374195
 30
0.0
 40
8.9598859986520676
 50
86.615780124868877
 51
88.3044084455652296
  0
LINE
  5
14334
  8
0
 10
4550.8543454255150209
 20
36.9399724792582091
 30
0.0
 11
4550.850826895634782
 21
36.7382198098575401
 31
0.0
  0
LINE
  5
14335
  8
0
 10
4551.2098459619937785
 20
37.2882585160054632
 30
0.0
 11
4558.0937363366338104
 21
37.1647528590575433
 31
0.0
  0
ARC
  5
14336
  8
0
 10
4558.0931711869252467
 20
37.1332618656886027
 30
0.0
 40
0.0314960641597645
 50
28.5538413817782697
 51
88.971857854695557
  0
ARC
  5
14337
  8
0
 10
4556.6396769248676719
 20
36.3571108068738127
 30
0.0
 40
1.6792378113951549
 50
10.8103656571180107
 51
28.1102398854157407
  0
ARC
  5
14338
  8
0
 10
4554.3467596940017756
 20
36.0218327172369683
 30
0.0
 40
3.9956177295019821
 50
358.1538610498997173
 51
9.3657893328096691
  0
ARC
  5
14339
  8
0
 10
4556.1328553022449341
 20
35.3680387807841825
 30
0.0
 40
1.1575066465745161
 50
75.1959147218332049
 51
88.5482201911372186
  0
ARC
  5
1433A
  8
0
 10
4556.250607991070865
 20
35.8614149384895313
 30
0.0
 40
0.6645667974584843
 50
9.6215558962390517
 51
41.1421123486647815
  0
ARC
  5
1433B
  8
0
 10
4556.2719430250253936
 20
35.8489639052706011
 30
0.0
 40
0.6571089634818975
 50
43.1840601765145635
 51
76.2063064497063465
  0
LINE
  5
1433C
  8
0
 10
4556.1621814582331353
 20
36.5251738694575323
 30
0.0
 11
4552.718610782034375
 21
36.6435692210575326
 31
0.0
  0
LINE
  5
1433D
  8
0
 10
4556.9229806313342124
 20
32.5918844895575432
 30
0.0
 11
4556.9235369203342998
 21
35.727655691957537
 31
0.0
  0
LINE
  5
1433E
  8
0
 10
4558.3403034659340847
 20
35.8932412561575376
 30
0.0
 11
4558.3403034660341291
 21
32.5918844895575432
 31
0.0
  0
ARC
  5
1433F
  8
0
 10
4555.5614646789463222
 20
35.7521863217089972
 30
0.0
 40
1.362293119176516
 50
358.9682268082743235
 51
9.3064921497197783
  0
ARC
  5
14340
  8
0
 10
4557.230062349633954
 20
32.5997584244516574
 30
0.0
 40
0.0078740157000023
 50
270.0
 51
359.9999999999984084
  0
ARC
  5
14341
  8
0
 10
4557.1591962082748068
 20
32.6548544877930667
 30
0.0
 40
0.0275590554414205
 50
180.0000002940161039
 51
270.0000011612759749
  0
LINE
  5
14342
  8
0
 10
4557.1316365278344165
 20
33.1296972983575415
 30
0.0
 11
4557.1316371527345837
 21
32.6548544877930667
 31
0.0
  0
LINE
  5
14343
  8
0
 10
4557.1591962088341461
 20
32.6272954323516586
 30
0.0
 11
4558.104076836434615
 21
32.6272954323516586
 31
0.0
  0
LINE
  5
14344
  8
0
 10
4558.1316371527218507
 20
32.6548544878002502
 30
0.0
 11
4558.1316365102347845
 21
33.1296972983575415
 31
0.0
  0
ARC
  5
14345
  8
0
 10
4558.1040562256757767
 20
32.6548763603700465
 30
0.0
 40
0.0275809357194301
 50
270.0428161525559858
 51
359.9545625978229282
  0
LINE
  5
14346
  8
0
 10
4557.2379363653353721
 20
32.6272954323516586
 30
0.0
 11
4557.2379363653353721
 21
32.5997584244516574
 31
0.0
  0
ARC
  5
14347
  8
0
 10
4558.0332029925330062
 20
32.5997584244516574
 30
0.0
 40
0.0078740157000023
 50
180.0000000000015916
 51
270.0
  0
LINE
  5
14348
  8
0
 10
4558.0253289768343166
 20
32.6272954323516586
 30
0.0
 11
4558.0253289768343166
 21
32.5997584244516574
 31
0.0
  0
ARC
  5
14349
  8
0
 10
4556.6183339141343822
 20
32.5618844895575421
 30
0.0
 40
0.0300000000000003
 50
90.0
 51
180.0000000000003979
  0
ARC
  5
1434A
  8
0
 10
4556.6183339141343822
 20
32.3069238596575374
 30
0.0
 40
0.0299999999999994
 50
179.9999999999984084
 51
270.0
  0
LINE
  5
1434B
  8
0
 10
4556.5883339141337274
 20
32.3069238596575374
 30
0.0
 11
4556.5883339141337274
 21
32.5618844895575421
 31
0.0
  0
LINE
  5
1434C
  8
0
 10
4556.6183339141343822
 20
32.5918844895575432
 30
0.0
 11
4558.6449480873343418
 21
32.5918844895575432
 31
0.0
  0
LINE
  5
1434D
  8
0
 10
4558.6449391240339537
 20
32.2769238596575434
 30
0.0
 11
4556.6183339141343822
 21
32.2769238596575434
 31
0.0
  0
ARC
  5
1434E
  8
0
 10
4558.6449391217465745
 20
32.5618844886102323
 30
0.0
 40
0.0300000022870029
 50
0.0000018092253001
 51
89.9828769911588893
  0
ARC
  5
1434F
  8
0
 10
4558.6449391240339537
 20
32.3069238596575374
 30
0.0
 40
0.0299999999999994
 50
270.0
 51
0.0000000000016284
  0
LINE
  5
14350
  8
0
 10
4558.674939124033699
 20
32.3069238596575374
 30
0.0
 11
4558.674939124033699
 21
32.5618844895575421
 31
0.0
  0
ARC
  5
14351
  8
0
 10
4557.2043850299305632
 20
33.7735871952956401
 30
0.0
 40
0.0316611285492711
 50
90.1065895706487083
 51
171.1425428941797122
  0
ARC
  5
14352
  8
0
 10
4562.2248424651515961
 20
33.2267301867969707
 30
0.0
 40
5.0941301614089012
 50
176.4751008029602986
 51
181.0914348579453872
  0
ARC
  5
14353
  8
0
 10
4558.8361262390262709
 20
33.4286044229363029
 30
0.0
 40
1.699426925223811
 50
168.1196764740053027
 51
176.2440283007597941
  0
ARC
  5
14354
  8
0
 10
4557.2815390432615459
 20
33.7737559986911933
 30
0.0
 40
0.031492710720336
 50
90.3029940332253744
 51
185.3146779036628118
  0
ARC
  5
14355
  8
0
 10
4557.6339882086103898
 20
33.8168693734153791
 30
0.0
 40
0.3865568773756559
 50
186.8388925797794116
 51
269.6514313102742904
  0
LINE
  5
14356
  8
0
 10
4557.2043261295348202
 20
33.8052482690575431
 30
0.0
 11
4558.0589616123343149
 21
33.8052482690575431
 31
0.0
  0
ARC
  5
14357
  8
0
 10
4558.0588879483402707
 20
33.7735871619902781
 30
0.0
 40
0.0316611927619348
 50
8.8574999959422023
 51
89.8666935949031256
  0
ARC
  5
14358
  8
0
 10
4553.0384305729148764
 20
33.2267301867969707
 30
0.0
 40
5.0941301614089012
 50
358.9085651420546128
 51
3.5248991970396522
  0
ARC
  5
14359
  8
0
 10
4556.4271467990420206
 20
33.4286044229363029
 30
0.0
 40
1.699426925223811
 50
3.755971699240217
 51
11.8803235259946405
  0
ARC
  5
1435A
  8
0
 10
4557.9817339948067456
 20
33.7737559986911933
 30
0.0
 40
0.031492710720336
 50
354.6853220963371882
 51
89.6970059667746256
  0
ARC
  5
1435B
  8
0
 10
4557.6292848290140682
 20
33.8168693736489274
 30
0.0
 40
0.3865568778442996
 50
270.348574417264615
 51
353.161107393683892
  0
ARC
  5
1435C
  8
0
 10
4551.293898099846956
 20
36.7039491860155209
 30
0.0
 40
0.0324417095150043
 50
253.6006121634887904
 51
269.7332933552979739
  0
ARC
  5
1435D
  8
0
 10
4551.0894892731976142
 20
35.8952924413227379
 30
0.0
 40
0.8016750188327133
 50
75.9037249751458631
 51
86.0267004865662983
  0
ARC
  5
1435E
  8
0
 10
5511.1708966221412993
 20
27953.8071357357694069
 30
0.0
 40
27933.6325208376292721
 50
268.0307703042576009
 51
268.0329346411843972
  0
ARC
  5
1435F
  8
0
 10
4551.3962255866381383
 20
36.5753818110133011
 30
0.0
 40
0.1027481889219106
 50
113.7772330848156059
 51
118.2614605533297976
  0
LINE
  5
14360
  8
0
 10
4551.3475747448337643
 20
36.6658820094575333
 30
0.0
 11
4551.3473798234335845
 21
36.6602127012686907
 31
0.0
  0
LINE
  5
14361
  8
0
 10
4551.3473798234335845
 20
36.6602127012686907
 30
0.0
 11
4551.371725359534139
 21
36.6464035168575322
 31
0.0
  0
LINE
  5
14362
  8
0
 10
4551.371725359534139
 20
36.6464035168575322
 30
0.0
 11
4551.371684911833654
 21
36.6451922224575384
 31
0.0
  0
LINE
  5
14363
  8
0
 10
4551.371684911833654
 20
36.6451922224575384
 30
0.0
 11
4552.2912166040341617
 21
36.613576997048213
 31
0.0
  0
LINE
  5
14364
  8
0
 10
4552.2912166040341617
 20
36.613576997048213
 30
0.0
 11
4552.2668687315353964
 21
36.6275712293575424
 31
0.0
  0
LINE
  5
14365
  8
0
 10
4552.2668687315353964
 20
36.6275712293575424
 30
0.0
 11
4552.2671367903340069
 21
36.6353677447575379
 31
0.0
  0
ARC
  5
14366
  8
0
 10
4551.3914610178053408
 20
23.0545527685986507
 30
0.0
 40
13.6057313421758099
 50
88.3215737877063418
 51
90.1856328593792398
  0
ARC
  5
14367
  8
0
 10
4563.345879444061211
 20
971.8663481154860619
 30
0.0
 40
935.2965974406096166
 50
269.2664495549076946
 51
269.3213061580515841
  0
LINE
  5
14368
  8
0
 10
4552.2671367903340069
 20
36.6353677447575379
 30
0.0
 11
4552.2725178173268432
 21
36.6378718522342623
 31
0.0
  0
LINE
  5
14369
  8
0
 10
4552.2668687315017451
 20
36.6275712293764073
 30
0.0
 11
4551.5983391581339674
 21
36.6373994388575426
 31
0.0
  0
ARC
  5
1436A
  8
0
 10
4552.485804619857845
 20
30.4899877468626492
 30
0.0
 40
6.157996105864405
 50
87.8333568382041534
 51
89.7206266113508093
  0
ARC
  5
1436B
  8
0
 10
4552.3483121214376297
 20
36.6668090302502776
 30
0.0
 40
0.0315404562931097
 50
270.0000014185440023
 51
280.9125926235093971
  0
ARC
  5
1436C
  8
0
 10
4552.4953102796689564
 20
35.8355457372723833
 30
0.0
 40
0.8126240468587536
 50
88.5530034091955258
 51
99.994022602627993
  0
ARC
  5
1436D
  8
0
 10
4551.6513250966181658
 20
36.6056774205652005
 30
0.0
 40
0.157480313859762
 50
185.8036584705849918
 51
221.2857610120267111
  0
ARC
  5
1436E
  8
0
 10
4551.9847305789353413
 20
36.5942143146575418
 30
0.0
 40
0.1574803150000007
 50
314.7759176797496252
 51
350.258019968502424
  0
LINE
  5
1436F
  8
0
 10
4551.4523422417842085
 20
36.642418829741942
 30
0.0
 11
4551.4631745233336915
 21
36.5908352934575376
 31
0.0
  0
LINE
  5
14370
  8
0
 10
4551.4631745233336915
 20
36.5908352934575376
 30
0.0
 11
4552.1714174526341594
 21
36.5664845723575382
 31
0.0
  0
LINE
  5
14371
  8
0
 10
4552.1714174526341594
 20
36.5664845723575382
 30
0.0
 11
4552.1857670438921559
 21
36.6172023084933684
 31
0.0
  0
LINE
  5
14372
  8
0
 10
4551.5329899585331077
 20
36.5017695558575426
 30
0.0
 11
4552.0956496189346581
 21
36.4824242606575382
 31
0.0
  0
ENDSEC
  0
EOF
