  0
SECTION
  2
HEADER
  9
$ACADVER
  1
AC1009
  9
$INSBASE
 10
3334.1461407816141218
 20
197.480316067234611
 30
0.0
  9
$EXTMIN
 10
3329.62318457721085
 20
192.9573598628321065
 30
0.0
  9
$EXTMAX
 10
3334.4878743670401491
 20
197.822049652660894
 30
0.0
  9
$LIMMIN
 10
0.0
 20
0.0
  9
$LIMMAX
 10
11.6929133858000007
 20
8.2677165353999982
  9
$ORTHOMODE
 70
     0
  9
$REGENMODE
 70
     1
  9
$FILLMODE
 70
     1
  9
$QTEXTMODE
 70
     0
  9
$MIRRTEXT
 70
     0
  9
$DRAGMODE
 70
     2
  9
$LTSCALE
 40
0.6431102362
  9
$OSMODE
 70
   575
  9
$ATTMODE
 70
     1
  9
$TEXTSIZE
 40
0.2
  9
$TRACEWID
 40
0.05
  9
$TEXTSTYLE
  7
STANDARD
  9
$CLAYER
  8
0
  9
$CELTYPE
  6
BYLAYER
  9
$CECOLOR
 62
   256
  9
$DIMSCALE
 40
1.0
  9
$DIMASZ
 40
0.1875
  9
$DIMEXO
 40
0.0625
  9
$DIMDLI
 40
0.4443307087
  9
$DIMRND
 40
0.0
  9
$DIMDLE
 40
0.0
  9
$DIMEXE
 40
0.125
  9
$DIMTP
 40
0.01
  9
$DIMTM
 40
0.01
  9
$DIMTXT
 40
2.0
  9
$DIMCEN
 40
0.1052362205
  9
$DIMTSZ
 40
0.0
  9
$DIMTOL
 70
     1
  9
$DIMLIM
 70
     0
  9
$DIMTIH
 70
     1
  9
$DIMTOH
 70
     1
  9
$DIMSE1
 70
     0
  9
$DIMSE2
 70
     0
  9
$DIMTAD
 70
     0
  9
$DIMZIN
 70
     0
  9
$DIMBLK
  1

  9
$DIMASO
 70
     1
  9
$DIMSHO
 70
     1
  9
$DIMPOST
  1
\X
  9
$DIMAPOST
  1

  9
$DIMALT
 70
     1
  9
$DIMALTD
 70
     2
  9
$DIMALTF
 40
25.3999999999999986
  9
$DIMLFAC
 40
1.0
  9
$DIMTOFL
 70
     0
  9
$DIMTVP
 40
0.0
  9
$DIMTIX
 70
     0
  9
$DIMSOXD
 70
     0
  9
$DIMSAH
 70
     0
  9
$DIMBLK1
  1

  9
$DIMBLK2
  1

  9
$DIMSTYLE
  2
STANDARD
  9
$DIMCLRD
 70
     0
  9
$DIMCLRE
 70
     0
  9
$DIMCLRT
 70
     0
  9
$DIMTFAC
 40
1.0
  9
$DIMGAP
 40
0.09
  9
$LUNITS
 70
     2
  9
$LUPREC
 70
     4
  9
$SKETCHINC
 40
0.1
  9
$FILLETRAD
 40
0.0
  9
$AUNITS
 70
     0
  9
$AUPREC
 70
     0
  9
$MENU
  1
.
  9
$ELEVATION
 40
0.0
  9
$PELEVATION
 40
0.0
  9
$THICKNESS
 40
0.0
  9
$LIMCHECK
 70
     0
  9
$BLIPMODE
 70
     0
  9
$CHAMFERA
 40
0.0
  9
$CHAMFERB
 40
0.0
  9
$SKPOLY
 70
     0
  9
$TDCREATE
 40
2458060.468368056230247
  9
$TDUPDATE
 40
2459593.6511111110448837
  9
$TDINDWG
 40
0.4297755787
  9
$TDUSRTIMER
 40
0.4297755787
  9
$USRTIMER
 70
     1
  9
$ANGBASE
 50
0.0
  9
$ANGDIR
 70
     0
  9
$PDMODE
 70
     0
  9
$PDSIZE
 40
0.3125
  9
$PLINEWID
 40
0.0
  9
$COORDS
 70
     1
  9
$SPLFRAME
 70
     0
  9
$SPLINETYPE
 70
     6
  9
$SPLINESEGS
 70
     8
  9
$ATTDIA
 70
     1
  9
$ATTREQ
 70
     1
  9
$HANDLING
 70
     1
  9
$HANDSEED
  5
9090
  9
$SURFTAB1
 70
     6
  9
$SURFTAB2
 70
     6
  9
$SURFTYPE
 70
     6
  9
$SURFU
 70
     6
  9
$SURFV
 70
     6
  9
$UCSNAME
  2

  9
$UCSORG
 10
0.0
 20
0.0
 30
0.0
  9
$UCSXDIR
 10
1.0
 20
0.0
 30
0.0
  9
$UCSYDIR
 10
0.0
 20
1.0
 30
0.0
  9
$PUCSNAME
  2

  9
$PUCSORG
 10
0.0
 20
0.0
 30
0.0
  9
$PUCSXDIR
 10
1.0
 20
0.0
 30
0.0
  9
$PUCSYDIR
 10
0.0
 20
1.0
 30
0.0
  9
$USERI1
 70
     0
  9
$USERI2
 70
     0
  9
$USERI3
 70
     0
  9
$USERI4
 70
     0
  9
$USERI5
 70
     0
  9
$USERR1
 40
0.0
  9
$USERR2
 40
0.0
  9
$USERR3
 40
0.0
  9
$USERR4
 40
0.0
  9
$USERR5
 40
0.0
  9
$WORLDVIEW
 70
     1
  9
$SHADEDGE
 70
     3
  9
$SHADEDIF
 70
    70
  9
$TILEMODE
 70
     1
  9
$MAXACTVP
 70
    64
  9
$PLIMCHECK
 70
     0
  9
$PEXTMIN
 10
1.0000000000000000E+20
 20
1.0000000000000000E+20
 30
1.0000000000000000E+20
  9
$PEXTMAX
 10
-1.0000000000000000E+20
 20
-1.0000000000000000E+20
 30
-1.0000000000000000E+20
  9
$PLIMMIN
 10
0.0
 20
0.0
  9
$PLIMMAX
 10
12.0
 20
9.0
  9
$UNITMODE
 70
     0
  9
$VISRETAIN
 70
     1
  9
$PLINEGEN
 70
     0
  9
$PSLTSCALE
 70
     1
  0
ENDSEC
  0
SECTION
  2
TABLES
  0
TABLE
  2
VPORT
 70
     1
  0
VPORT
  2
*ACTIVE
 70
     0
 10
0.0
 20
0.0
 11
1.0
 21
1.0
 12
243.9963275205234936
 22
-1.7689579120437491
 13
0.0
 23
0.0
 14
1.0
 24
1.0
 15
0.0
 25
0.0
 16
0.0
 26
0.0
 36
95.5902297660485658
 17
3089.811279296875
 27
197.161570589386713
 37
0.0
 40
6.0651413613215404
 41
2.469551282051281
 42
50.0
 43
0.0
 44
0.0
 50
0.0
 51
0.0
 71
     0
 72
   100
 73
     1
 74
     1
 75
     0
 76
     0
 77
     0
 78
     0
  0
ENDTAB
  0
TABLE
  2
LTYPE
 70
     2
  0
LTYPE
  2
CONTINUOUS
 70
     0
  3
Solid line
 72
    65
 73
     0
 40
0.0
  0
LTYPE
  2
PHANTOM2
 70
     0
  3
___ _ _ ___ _ _ ___ _ _ ___ _ _
 72
    65
 73
     6
 40
1.25
 49
0.625
 49
-0.125
 49
0.125
 49
-0.125
 49
0.125
 49
-0.125
  0
ENDTAB
  0
TABLE
  2
LAYER
 70
     2
  0
LAYER
  2
0
 70
     0
 62
   255
  6
CONTINUOUS
  0
LAYER
  2
DEFPOINTS
 70
     0
 62
     7
  6
CONTINUOUS
  0
ENDTAB
  0
TABLE
  2
STYLE
 70
     1
  0
STYLE
  2
STANDARD
 70
     0
 40
0.0
 41
0.8
 50
0.0
 71
     0
 42
0.2
  3
txt
  4

  0
ENDTAB
  0
TABLE
  2
VIEW
 70
     0
  0
ENDTAB
  0
TABLE
  2
UCS
 70
     0
  0
ENDTAB
  0
TABLE
  2
APPID
 70
     9
  0
APPID
  2
ACAD
 70
     0
  0
APPID
  2
ACAD_MLEADERVER
 70
     0
  0
APPID
  2
ACAD_EXEMPT_FROM_CAD_STANDARDS
 70
     0
  0
APPID
  2
ACAD_NAV_VCDISPLAY
 70
     0
  0
APPID
  2
ACAECLAYERSTANDARD
 70
     0
  0
APPID
  2
ACCMTRANSPARENCY
 70
     0
  0
APPID
  2
ACAD_DSTYLE_DIMJAG
 70
     0
  0
APPID
  2
ACAD_DSTYLE_DIMTALN
 70
     0
  0
APPID
  2
ACDBATTR
 70
     0
  0
ENDTAB
  0
TABLE
  2
DIMSTYLE
 70
     1
  0
DIMSTYLE
  2
STANDARD
 70
     0
  3

  4

  5

  6

  7

 40
1.0
 41
0.1875
 42
0.0625
 43
0.38
 44
0.125
 45
0.0
 46
0.0
 47
0.01
 48
0.01
140
0.15625
141
0.09
142
0.0
143
25.3999999999999986
144
1.0
145
0.0
146
1.0
147
0.09
 71
     1
 72
     0
 73
     1
 74
     1
 75
     0
 76
     0
 77
     0
 78
     4
170
     0
171
     2
172
     0
173
     0
174
     0
175
     0
176
     0
177
     0
178
     0
  0
ENDTAB
  0
ENDSEC
  0
SECTION
  2
BLOCKS
  0
BLOCK
  8
0
  2
$MODEL_SPACE
 70
     0
 10
0.0
 20
0.0
 30
0.0
  3
$MODEL_SPACE
  1

  0
ENDBLK
  5
21
  8
0
  0
BLOCK
 67
     1
  8
0
  2
$PAPER_SPACE
 70
     0
 10
0.0
 20
0.0
 30
0.0
  3
$PAPER_SPACE
  1

  0
ENDBLK
  5
1D
 67
     1
  8
0
  0
ENDSEC
  0
SECTION
  2
ENTITIES
  0
ATTDEF
  5
3930
  8
DEFPOINTS
 10
3334.1461405408917926
 20
197.4837043216452912
 30
0.0
 40
0.001
  1
K-939BR-G
  3

  2
MODELNUMBER
 70
     0
1001
ACDBATTR
1070
     0
1070
     1
  0
ATTDEF
  5
3931
  8
DEFPOINTS
 10
3334.1461405408917926
 20
197.4820376549785976
 30
0.0
 40
0.001
  1
PURIST
  3

  2
TRADENAME
 70
     0
1001
ACDBATTR
1070
     0
1070
     1
  0
ATTDEF
  5
3932
  8
DEFPOINTS
 10
3334.1461405408917926
 20
197.4803709883119893
 30
0.0
 40
0.001
  1
SHOWERHEAD
  3

  2
PRODUCT
 70
     0
1001
ACDBATTR
1070
     0
1070
     1
  0
LINE
  5
8E95
  8
0
 10
3333.8866218796929388
 20
197.4935607991633901
 30
0.0
 11
3333.6287762187139379
 21
197.2357151381845881
 31
0.0
  0
LINE
  5
8E96
  8
0
 10
3333.9015398526148601
 20
196.9629515042846037
 30
0.0
 11
3334.1593855135438389
 21
197.2207971652146909
 31
0.0
  0
LINE
  5
8E97
  8
0
 10
3334.1593855135429294
 20
197.2207971653133995
 30
0.0
 11
3333.8866218796429166
 21
197.4935607992134976
 31
0.0
  0
LINE
  5
8E98
  8
0
 10
3329.6349003033610643
 20
196.7502472369882014
 30
0.0
 11
3333.416071951467984
 21
192.9690755889810134
 31
0.0
  0
LINE
  5
8E99
  8
0
 10
3329.634410985212071
 20
196.8063178404320865
 30
0.0
 11
3330.4892134411120423
 21
197.6914916958320987
 31
0.0
  0
LINE
  5
8E9A
  8
0
 10
3334.357565404811794
 20
193.8519176310321086
 30
0.0
 11
3330.5177423455120334
 21
197.6917406903320966
 31
0.0
  0
LINE
  5
8E9B
  8
0
 10
3330.6006266176950703
 20
197.615292760196013
 30
0.0
 11
3334.2811174746761935
 21
193.9348019032154866
 31
0.0
  0
LINE
  5
8E9C
  8
0
 10
3333.990278749810841
 20
196.2946350697320952
 30
0.0
 11
3332.9604597842107978
 21
197.3244540354320975
 31
0.0
  0
LINE
  5
8E9D
  8
0
 10
3333.7819807893338293
 20
197.8161917882688954
 30
0.0
 11
3333.4151401789140436
 21
197.4493511778846084
 31
0.0
  0
LINE
  5
8E9E
  8
0
 10
3332.9043890844109228
 20
197.324943453932093
 30
0.0
 11
3332.3699288688349043
 21
196.8088212232879926
 31
0.0
  0
LINE
  5
8E9F
  8
0
 10
3334.482016486961129
 20
197.1444403618878027
 30
0.0
 11
3333.8102650762671146
 21
197.8161917725813908
 31
0.0
  0
LINE
  5
8EA0
  8
0
 10
3334.4820165026981158
 20
197.1161560749042962
 30
0.0
 11
3334.1151758923138004
 21
196.7493154644845959
 31
0.0
  0
LINE
  5
8EA1
  8
0
 10
3333.9907681684107956
 20
196.2385643700320941
 30
0.0
 11
3333.4732524695768916
 21
195.702661176023895
 31
0.0
  0
LINE
  5
8EA2
  8
0
 10
3333.4721425549109881
 20
192.9685862708321054
 30
0.0
 11
3334.3573164102108422
 21
193.8233887266320892
 31
0.0
  0
ARC
  5
8EA3
  8
0
 10
3333.2427311360111162
 20
196.5769064215321009
 30
0.0
 40
0.5280000000000001
 50
353.5433119578328842
 51
5.546520200899562
  0
ARC
  5
8EA4
  8
0
 10
3333.2427311360111162
 20
196.5769064215321009
 30
0.0
 40
0.5280000000000001
 50
84.4534797991080666
 51
96.4566880365964039
  0
ARC
  5
8EA5
  8
0
 10
3333.5777747387601266
 20
197.2867166181700895
 30
0.0
 40
0.2300000001517313
 50
135.0000000231482886
 51
202.4596895311331934
  0
ARC
  5
8EA6
  8
0
 10
3333.9525413326127818
 20
196.9119500241380933
 30
0.0
 40
0.2300000000061481
 50
247.5403104637236993
 51
315.000000008373604
  0
ARC
  5
8EA7
  8
0
 10
3333.8379313300119975
 20
196.6347054618321124
 30
0.0
 40
0.07
 50
67.540310463498713
 51
185.5465202010998098
  0
ARC
  5
8EA8
  8
0
 10
3333.300530176311895
 20
197.1721066155321012
 30
0.0
 40
0.07
 50
264.4534797988986838
 51
22.4596895364966684
  0
ARC
  5
8EA9
  8
0
 10
3333.9619945744120741
 20
196.2663507027320975
 30
0.0
 40
0.04
 50
316.0000041424027017
 51
45.0001940394978774
  0
ARC
  5
8EAA
  8
0
 10
3332.9321754172110559
 20
197.2961698599320925
 30
0.0
 40
0.04
 50
44.9998059604963672
 51
133.999995857597213
  0
ARC
  5
8EAB
  8
0
 10
3329.6631845772108136
 20
196.7785315056320883
 30
0.0
 40
0.04
 50
135.9999999366966108
 51
224.9999947258991142
  0
ARC
  5
8EAC
  8
0
 10
3333.4443562201117857
 20
192.9973598628320985
 30
0.0
 40
0.04
 50
225.0000052740894034
 51
314.0000000633035029
  0
ARC
  5
8EAD
  8
0
 10
3333.7961229249399366
 20
197.8020496526609122
 30
0.0
 40
0.02
 50
44.9999363796050105
 51
134.999999997239911
  0
ARC
  5
8EAE
  8
0
 10
3334.4678743670401673
 20
197.130298210560909
 30
0.0
 40
0.02
 50
315.000000002773902
 51
45.0000636204041982
  0
ARC
  5
8EAF
  8
0
 10
3334.2669753086120181
 20
193.9206597980320907
 30
0.0
 40
0.02
 50
5.573592416592704
 51
44.9998766736975924
  0
ARC
  5
8EB0
  8
0
 10
3330.5864845125120155
 20
197.6011505941320934
 30
0.0
 40
0.02
 50
45.0001233263070191
 51
84.4264075835454832
  0
ARC
  5
8EB1
  8
0
 10
3334.3434232424119728
 20
193.8377755222321071
 30
0.0
 40
0.02
 50
314.0000019246991201
 51
44.9998914187976098
  0
ARC
  5
8EB2
  8
0
 10
3330.5036002366118737
 20
197.6775985279321048
 30
0.0
 40
0.02
 50
45.0001085811989299
 51
135.999998075296304
  0
ARC
  5
8EB3
  8
0
 10
3334.0571453262509749
 20
195.2160944374033136
 30
0.0
 40
0.7600513530059768
 50
140.195045200201406
 51
178.2113436788966112
  0
ARC
  5
8EB4
  8
0
 10
3334.1076025790030144
 20
195.2781023098663979
 30
0.0
 40
0.8110423734410762
 50
182.7055984259311003
 51
214.7986363518259907
  0
ARC
  5
8EB5
  8
0
 10
3336.2017995228447944
 20
196.9385370156554131
 30
0.0
 40
3.4823904078833432
 50
217.569439700821107
 51
224.2458692246738963
  0
ARC
  5
8EB6
  8
0
 10
3331.862125277017185
 20
197.4132616273456904
 30
0.0
 40
0.7894382115910816
 50
282.7301985210664839
 51
310.0343523765574787
  0
ARC
  5
8EB7
  8
0
 10
3331.9214977869719405
 20
197.4089734698993084
 30
0.0
 40
0.7742707168763596
 50
236.2548304123654077
 51
278.5107644293178168
  0
ARC
  5
8EB8
  8
0
 10
3334.0391779702690656
 20
200.0005246186316015
 30
0.0
 40
4.118111332326885
 50
225.3451767728774939
 51
231.7802914855693075
  0
ARC
  5
8EB9
  8
0
 10
3333.8876163237068795
 20
197.4617006048962935
 30
0.0
 40
0.0318757102027616
 50
61.3926261854060868
 51
91.7877780327613948
  0
ARC
  5
8EBA
  8
0
 10
3333.6922604678720745
 20
197.0260621421030862
 30
0.0
 40
0.5092210840528681
 50
24.3208026322078297
 51
65.5682908202732051
  0
ARC
  5
8EBB
  8
0
 10
3334.1191249752191652
 20
197.2202931648724018
 30
0.0
 40
0.040263692858063
 50
0.7172181750233412
 51
22.6248296404968414
  0
ARC
  5
8EBC
  8
0
 10
3333.7136422781582041
 20
197.1599653191518939
 30
0.0
 40
0.1137553652754805
 50
138.2485100778864933
 51
202.489186391649497
  0
ARC
  5
8EBD
  8
0
 10
3333.8616111629407897
 20
197.201535735066301
 30
0.0
 40
0.2669929159638672
 50
198.5825657673694025
 51
225.8724461575752116
  0
ARC
  5
8EBE
  8
0
 10
3333.8673791183309731
 20
197.1958158582276042
 30
0.0
 40
0.2670267931713697
 50
224.1292943691879032
 51
251.415642503592494
  0
ARC
  5
8EBF
  8
0
 10
3333.8252074706801977
 20
197.0512502260588121
 30
0.0
 40
0.1167188793584759
 50
248.41961174558989
 51
310.8427226828092103
  0
ENDSEC
  0
EOF
