  0
SECTION
  2
HEADER
  9
$ACADVER
  1
AC1009
  9
$INSBASE
 10
3324.5281380702590468
 20
197.5128063422332048
 30
0.0
  9
$EXTMIN
 10
3321.7933817156781515
 20
192.6484043402429052
 30
0.0
  9
$EXTMAX
 10
3327.2628944246121137
 20
197.5172592911283971
 30
0.0
  9
$LIMMIN
 10
0.0
 20
0.0
  9
$LIMMAX
 10
11.6929133858000007
 20
8.2677165353999982
  9
$ORTHOMODE
 70
     0
  9
$REGENMODE
 70
     1
  9
$FILLMODE
 70
     1
  9
$QTEXTMODE
 70
     0
  9
$MIRRTEXT
 70
     0
  9
$DRAGMODE
 70
     2
  9
$LTSCALE
 40
0.6431102362
  9
$OSMODE
 70
   575
  9
$ATTMODE
 70
     1
  9
$TEXTSIZE
 40
0.2
  9
$TRACEWID
 40
0.05
  9
$TEXTSTYLE
  7
STANDARD
  9
$CLAYER
  8
0
  9
$CELTYPE
  6
BYLAYER
  9
$CECOLOR
 62
   256
  9
$DIMSCALE
 40
1.0
  9
$DIMASZ
 40
0.1875
  9
$DIMEXO
 40
0.0625
  9
$DIMDLI
 40
0.4443307087
  9
$DIMRND
 40
0.0
  9
$DIMDLE
 40
0.0
  9
$DIMEXE
 40
0.125
  9
$DIMTP
 40
0.01
  9
$DIMTM
 40
0.01
  9
$DIMTXT
 40
2.0
  9
$DIMCEN
 40
0.1052362205
  9
$DIMTSZ
 40
0.0
  9
$DIMTOL
 70
     1
  9
$DIMLIM
 70
     0
  9
$DIMTIH
 70
     1
  9
$DIMTOH
 70
     1
  9
$DIMSE1
 70
     0
  9
$DIMSE2
 70
     0
  9
$DIMTAD
 70
     0
  9
$DIMZIN
 70
     0
  9
$DIMBLK
  1

  9
$DIMASO
 70
     1
  9
$DIMSHO
 70
     1
  9
$DIMPOST
  1
\X
  9
$DIMAPOST
  1

  9
$DIMALT
 70
     1
  9
$DIMALTD
 70
     2
  9
$DIMALTF
 40
25.3999999999999986
  9
$DIMLFAC
 40
1.0
  9
$DIMTOFL
 70
     0
  9
$DIMTVP
 40
0.0
  9
$DIMTIX
 70
     0
  9
$DIMSOXD
 70
     0
  9
$DIMSAH
 70
     0
  9
$DIMBLK1
  1

  9
$DIMBLK2
  1

  9
$DIMSTYLE
  2
STANDARD
  9
$DIMCLRD
 70
     0
  9
$DIMCLRE
 70
     0
  9
$DIMCLRT
 70
     0
  9
$DIMTFAC
 40
1.0
  9
$DIMGAP
 40
0.09
  9
$LUNITS
 70
     2
  9
$LUPREC
 70
     4
  9
$SKETCHINC
 40
0.1
  9
$FILLETRAD
 40
0.0
  9
$AUNITS
 70
     0
  9
$AUPREC
 70
     0
  9
$MENU
  1
.
  9
$ELEVATION
 40
0.0
  9
$PELEVATION
 40
0.0
  9
$THICKNESS
 40
0.0
  9
$LIMCHECK
 70
     0
  9
$BLIPMODE
 70
     0
  9
$CHAMFERA
 40
0.0
  9
$CHAMFERB
 40
0.0
  9
$SKPOLY
 70
     0
  9
$TDCREATE
 40
2458060.468368056230247
  9
$TDUPDATE
 40
2459593.6502083339728415
  9
$TDINDWG
 40
0.4290001157
  9
$TDUSRTIMER
 40
0.4290001157
  9
$USRTIMER
 70
     1
  9
$ANGBASE
 50
0.0
  9
$ANGDIR
 70
     0
  9
$PDMODE
 70
     0
  9
$PDSIZE
 40
0.3125
  9
$PLINEWID
 40
0.0
  9
$COORDS
 70
     1
  9
$SPLFRAME
 70
     0
  9
$SPLINETYPE
 70
     6
  9
$SPLINESEGS
 70
     8
  9
$ATTDIA
 70
     1
  9
$ATTREQ
 70
     1
  9
$HANDLING
 70
     1
  9
$HANDSEED
  5
8F26
  9
$SURFTAB1
 70
     6
  9
$SURFTAB2
 70
     6
  9
$SURFTYPE
 70
     6
  9
$SURFU
 70
     6
  9
$SURFV
 70
     6
  9
$UCSNAME
  2

  9
$UCSORG
 10
0.0
 20
0.0
 30
0.0
  9
$UCSXDIR
 10
1.0
 20
0.0
 30
0.0
  9
$UCSYDIR
 10
0.0
 20
1.0
 30
0.0
  9
$PUCSNAME
  2

  9
$PUCSORG
 10
0.0
 20
0.0
 30
0.0
  9
$PUCSXDIR
 10
1.0
 20
0.0
 30
0.0
  9
$PUCSYDIR
 10
0.0
 20
1.0
 30
0.0
  9
$USERI1
 70
     0
  9
$USERI2
 70
     0
  9
$USERI3
 70
     0
  9
$USERI4
 70
     0
  9
$USERI5
 70
     0
  9
$USERR1
 40
0.0
  9
$USERR2
 40
0.0
  9
$USERR3
 40
0.0
  9
$USERR4
 40
0.0
  9
$USERR5
 40
0.0
  9
$WORLDVIEW
 70
     1
  9
$SHADEDGE
 70
     3
  9
$SHADEDIF
 70
    70
  9
$TILEMODE
 70
     1
  9
$MAXACTVP
 70
    64
  9
$PLIMCHECK
 70
     0
  9
$PEXTMIN
 10
1.0000000000000000E+20
 20
1.0000000000000000E+20
 30
1.0000000000000000E+20
  9
$PEXTMAX
 10
-1.0000000000000000E+20
 20
-1.0000000000000000E+20
 30
-1.0000000000000000E+20
  9
$PLIMMIN
 10
0.0
 20
0.0
  9
$PLIMMAX
 10
12.0
 20
9.0
  9
$UNITMODE
 70
     0
  9
$VISRETAIN
 70
     1
  9
$PLINEGEN
 70
     0
  9
$PSLTSCALE
 70
     1
  0
ENDSEC
  0
SECTION
  2
TABLES
  0
TABLE
  2
VPORT
 70
     1
  0
VPORT
  2
*ACTIVE
 70
     0
 10
0.0
 20
0.0
 11
1.0
 21
1.0
 12
238.2406392358093967
 22
-1.5278187734868049
 13
0.0
 23
0.0
 14
1.0
 24
1.0
 15
0.0
 25
0.0
 16
0.0
 26
0.0
 36
95.5902297660485658
 17
3089.811279296875
 27
197.161570589386713
 37
0.0
 40
9.8391092462159868
 41
2.469551282051281
 42
50.0
 43
0.0
 44
0.0
 50
0.0
 51
0.0
 71
     0
 72
   100
 73
     1
 74
     1
 75
     0
 76
     0
 77
     0
 78
     0
  0
ENDTAB
  0
TABLE
  2
LTYPE
 70
     2
  0
LTYPE
  2
CONTINUOUS
 70
     0
  3
Solid line
 72
    65
 73
     0
 40
0.0
  0
LTYPE
  2
PHANTOM2
 70
     0
  3
___ _ _ ___ _ _ ___ _ _ ___ _ _
 72
    65
 73
     6
 40
1.25
 49
0.625
 49
-0.125
 49
0.125
 49
-0.125
 49
0.125
 49
-0.125
  0
ENDTAB
  0
TABLE
  2
LAYER
 70
     2
  0
LAYER
  2
0
 70
     0
 62
   255
  6
CONTINUOUS
  0
LAYER
  2
DEFPOINTS
 70
     0
 62
     7
  6
CONTINUOUS
  0
ENDTAB
  0
TABLE
  2
STYLE
 70
     1
  0
STYLE
  2
STANDARD
 70
     0
 40
0.0
 41
0.8
 50
0.0
 71
     0
 42
0.2
  3
txt
  4

  0
ENDTAB
  0
TABLE
  2
VIEW
 70
     0
  0
ENDTAB
  0
TABLE
  2
UCS
 70
     0
  0
ENDTAB
  0
TABLE
  2
APPID
 70
     9
  0
APPID
  2
ACAD
 70
     0
  0
APPID
  2
ACAD_MLEADERVER
 70
     0
  0
APPID
  2
ACAD_EXEMPT_FROM_CAD_STANDARDS
 70
     0
  0
APPID
  2
ACAD_NAV_VCDISPLAY
 70
     0
  0
APPID
  2
ACAECLAYERSTANDARD
 70
     0
  0
APPID
  2
ACCMTRANSPARENCY
 70
     0
  0
APPID
  2
ACAD_DSTYLE_DIMJAG
 70
     0
  0
APPID
  2
ACAD_DSTYLE_DIMTALN
 70
     0
  0
APPID
  2
ACDBATTR
 70
     0
  0
ENDTAB
  0
TABLE
  2
DIMSTYLE
 70
     1
  0
DIMSTYLE
  2
STANDARD
 70
     0
  3

  4

  5

  6

  7

 40
1.0
 41
0.1875
 42
0.0625
 43
0.38
 44
0.125
 45
0.0
 46
0.0
 47
0.01
 48
0.01
140
0.15625
141
0.09
142
0.0
143
25.3999999999999986
144
1.0
145
0.0
146
1.0
147
0.09
 71
     1
 72
     0
 73
     1
 74
     1
 75
     0
 76
     0
 77
     0
 78
     4
170
     0
171
     2
172
     0
173
     0
174
     0
175
     0
176
     0
177
     0
178
     0
  0
ENDTAB
  0
ENDSEC
  0
SECTION
  2
BLOCKS
  0
BLOCK
  8
0
  2
$MODEL_SPACE
 70
     0
 10
0.0
 20
0.0
 30
0.0
  3
$MODEL_SPACE
  1

  0
ENDBLK
  5
21
  8
0
  0
BLOCK
 67
     1
  8
0
  2
$PAPER_SPACE
 70
     0
 10
0.0
 20
0.0
 30
0.0
  3
$PAPER_SPACE
  1

  0
ENDBLK
  5
1D
 67
     1
  8
0
  0
ENDSEC
  0
SECTION
  2
ENTITIES
  0
ATTDEF
  5
3930
  8
DEFPOINTS
 10
3324.5281794391189578
 20
197.516259291128307
 30
0.0
 40
0.001
  1
K-939BR-G
  3

  2
MODELNUMBER
 70
     0
1001
ACDBATTR
1070
     0
1070
     1
  0
ATTDEF
  5
3931
  8
DEFPOINTS
 10
3324.5281794391189578
 20
197.5145926244616987
 30
0.0
 40
0.001
  1
PURIST
  3

  2
TRADENAME
 70
     0
1001
ACDBATTR
1070
     0
1070
     1
  0
ATTDEF
  5
3932
  8
DEFPOINTS
 10
3324.5281794391189578
 20
197.5129259577950052
 30
0.0
 40
0.001
  1
SHOWERHEAD
  3

  2
PRODUCT
 70
     0
1001
ACDBATTR
1070
     0
1070
     1
  0
LINE
  5
8A05
  8
0
 10
3321.7933817156781515
 20
195.4185774699191995
 30
0.0
 11
3321.814871097627929
 21
194.5483971419193097
 31
0.0
  0
ARC
  5
8A06
  8
0
 10
3324.5273530335171017
 20
193.5600184539860038
 30
0.0
 40
3.8320174172894381
 50
89.9882622439046571
 51
97.3368070614019274
  0
ARC
  5
8A07
  8
0
 10
3324.4827946121190507
 20
193.8447367522585978
 30
0.0
 40
3.5439486886625371
 50
97.2101437685380745
 51
110.4473725549752032
  0
ARC
  5
8A08
  8
0
 10
3324.23460144838009
 20
194.4892470212521118
 30
0.0
 40
2.8533508595795252
 50
110.298824853214299
 51
126.1374259504369064
  0
ARC
  5
8A09
  8
0
 10
3323.7044321209450572
 20
195.1847059729873877
 30
0.0
 40
1.979123462441889
 50
125.6152035453605009
 51
152.1845786534751994
  0
ARC
  5
8A0A
  8
0
 10
3323.3829630237842139
 20
195.4119116086382917
 30
0.0
 40
1.5895952845887951
 50
154.0212698283148995
 51
179.7597332847674068
  0
ARC
  5
8A0B
  8
0
 10
3323.4133969948188678
 20
194.6282164775498131
 30
0.0
 40
1.6005174695493369
 50
182.8585810464543897
 51
226.8947001852085918
  0
ARC
  5
8A0C
  8
0
 10
3324.2376663802720032
 20
195.4776675786258977
 30
0.0
 40
2.7840399878525202
 50
226.4556550831771915
 51
252.3818494175274907
  0
ARC
  5
8A0D
  8
0
 10
3324.4935424514778788
 20
196.2156851669240041
 30
0.0
 40
3.5649461431212859
 50
252.0524196319763064
 51
263.0044116295974277
  0
ARC
  5
8A0E
  8
0
 10
3323.4319480970261793
 20
194.5281788235213867
 30
0.0
 40
1.6172033893059561
 50
129.0709233110414971
 51
179.2836680284563045
  0
ARC
  5
8A0F
  8
0
 10
3324.23310845758715
 20
193.6501903561708104
 30
0.0
 40
2.8046403954388208
 50
105.6001975828578026
 51
130.4727675313760074
  0
ARC
  5
8A10
  8
0
 10
3324.5033495730731374
 20
192.8737213817418024
 30
0.0
 40
3.6255450573500481
 50
95.8981771467928183
 51
106.4137089838852006
  0
ARC
  5
8A11
  8
0
 10
3324.5277036988049986
 20
192.6817670160571083
 30
0.0
 40
3.8189885359431921
 50
89.9934831842795973
 51
95.9656869995975086
  0
ARC
  5
8A12
  8
0
 10
3324.5224226110290147
 20
192.8418494701867019
 30
0.0
 40
3.5426178736149661
 50
89.9075621929762576
 51
104.3367962026871965
  0
ARC
  5
8A13
  8
0
 10
3324.3128801985071732
 20
193.5505538304010997
 30
0.0
 40
2.8042327029465892
 50
103.7743720924803057
 51
126.9345354717825956
  0
ARC
  5
8A14
  8
0
 10
3323.5809195177139372
 20
194.462808857850689
 30
0.0
 40
1.635626118052506
 50
125.6419380640102048
 51
166.9340732736596919
  0
ARC
  5
8A15
  8
0
 10
3323.3313382264441316
 20
194.5765679214050863
 30
0.0
 40
1.367870388014834
 50
169.2129228915547117
 51
218.1136197462386974
  0
ARC
  5
8A16
  8
0
 10
3324.0240431578217795
 20
195.1063007428084006
 30
0.0
 40
2.2398716514883801
 50
217.838231175377814
 51
247.0487447343635949
  0
ARC
  5
8A17
  8
0
 10
3324.5076536458900591
 20
196.1485045877153937
 30
0.0
 40
3.3883778692823752
 50
246.3905915154149966
 51
270.3463835056530797
  0
ARC
  5
8A18
  8
0
 10
3324.5076693101718774
 20
193.38184291797171
 30
0.0
 40
2.9524956937295879
 50
89.6027825018221762
 51
114.1486521325117991
  0
ARC
  5
8A19
  8
0
 10
3324.1485493173090617
 20
194.1932382529847132
 30
0.0
 40
2.0651943419677972
 50
114.2666697390201023
 51
134.1221881866599972
  0
ARC
  5
8A1A
  8
0
 10
3323.6175733218087771
 20
194.7073710057215123
 30
0.0
 40
1.3266634488647231
 50
133.118874472739293
 51
173.2747289022389907
  0
ARC
  5
8A1B
  8
0
 10
3323.4705513974390669
 20
194.7597556172609927
 30
0.0
 40
1.175034100606893
 50
174.9721801044373137
 51
208.6565351750112995
  0
ARC
  5
8A1C
  8
0
 10
3323.7700980217477991
 20
194.9014570921571021
 30
0.0
 40
1.505967137853073
 50
207.922022122106597
 51
233.5332721689462971
  0
ARC
  5
8A1D
  8
0
 10
3324.3405012474559044
 20
195.6207854289370971
 30
0.0
 40
2.4236756411239861
 50
232.7960971004347073
 51
255.422582319100286
  0
ARC
  5
8A1E
  8
0
 10
3324.5232031738319165
 20
196.2265399012833029
 30
0.0
 40
3.0560108901147278
 50
254.9658744120922051
 51
270.0925222010483822
  0
ARC
  5
8A1F
  8
0
 10
3324.5234885945810674
 20
194.3383793045385914
 30
0.0
 40
0.5765052443794947
 50
89.5379084278639539
 51
116.2180471918840965
  0
ARC
  5
8A20
  8
0
 10
3324.3957819195761658
 20
194.5687701548804966
 30
0.0
 40
0.3136584769725875
 50
113.8821372568044978
 51
172.0424594010727048
  0
ARC
  5
8A21
  8
0
 10
3324.349769309903877
 20
194.6077194693822037
 30
0.0
 40
0.2646634350208397
 50
179.0315452730503125
 51
234.2113365773001021
  0
ARC
  5
8A22
  8
0
 10
3324.4923139820948563
 20
194.771809687461797
 30
0.0
 40
0.4815316949979716
 50
231.8702413170740044
 51
256.8652550054479775
  0
ARC
  5
8A23
  8
0
 10
3324.5274859576238669
 20
194.8937300911252066
 30
0.0
 40
0.6082902324878661
 50
256.2486282909188731
 51
270.0614234790027126
  0
LINE
  5
8A24
  8
0
 10
3327.2628944246121137
 20
195.4185774699191995
 30
0.0
 11
3327.241405042660972
 21
194.5483971419193097
 31
0.0
  0
ARC
  5
8A25
  8
0
 10
3324.5289231067717992
 20
193.5600184539860038
 30
0.0
 40
3.8320174172894381
 50
82.6631929385980868
 51
90.0117377561214056
  0
ARC
  5
8A26
  8
0
 10
3324.5734815281689407
 20
193.8447367522585978
 30
0.0
 40
3.5439486886625371
 50
69.5526274450247399
 51
82.789856231436076
  0
ARC
  5
8A27
  8
0
 10
3324.8216746919088109
 20
194.4892470212521118
 30
0.0
 40
2.8533508595795252
 50
53.8625740495631291
 51
69.7011751467857295
  0
ARC
  5
8A28
  8
0
 10
3325.3518440193438437
 20
195.1847059729873877
 30
0.0
 40
1.979123462441889
 50
27.8154213465247615
 51
54.3847964546394422
  0
ARC
  5
8A29
  8
0
 10
3325.6733131165051418
 20
195.4119116086382917
 30
0.0
 40
1.5895952845887951
 50
0.2402667152326066
 51
25.9787301716851005
  0
ARC
  5
8A2A
  8
0
 10
3325.6428791454691236
 20
194.6282164775498131
 30
0.0
 40
1.6005174695493369
 50
313.1052998147914082
 51
357.1414189535456103
  0
ARC
  5
8A2B
  8
0
 10
3324.8590958671811677
 20
195.4240674340792907
 30
0.0
 40
2.717307438509823
 50
287.1477076598624762
 51
313.7041727601724119
  0
ARC
  5
8A2C
  8
0
 10
3324.4498084614979234
 20
196.6306361062111989
 30
0.0
 40
3.9910708165202178
 50
278.1272744917288264
 51
287.6552522238230267
  0
ARC
  5
8A2D
  8
0
 10
3325.6243280432631764
 20
194.5281788235213867
 30
0.0
 40
1.6172033893059561
 50
0.7163319715436851
 51
50.92907668895851
  0
ARC
  5
8A2E
  8
0
 10
3324.8231676827031151
 20
193.6501903561708104
 30
0.0
 40
2.8046403954388208
 50
49.5272324686239784
 51
74.3998024171422117
  0
ARC
  5
8A2F
  8
0
 10
3324.5529265672162182
 20
192.8737213817418024
 30
0.0
 40
3.6255450573500481
 50
73.5862910161148136
 51
84.1018228532070111
  0
ARC
  5
8A30
  8
0
 10
3324.5285724414839024
 20
192.6817670160571083
 30
0.0
 40
3.8189885359431921
 50
84.0343130004024772
 51
90.0065168157204027
  0
ARC
  5
8A31
  8
0
 10
3324.5338535292598863
 20
192.8418494701867019
 30
0.0
 40
3.5426178736149661
 50
75.6632037973127325
 51
90.0924378070237566
  0
ARC
  5
8A32
  8
0
 10
3324.7433959417821825
 20
193.5505538304010997
 30
0.0
 40
2.8042327029465892
 50
53.0654645282173973
 51
76.2256279075196232
  0
ARC
  5
8A33
  8
0
 10
3325.4753566225740542
 20
194.462808857850689
 30
0.0
 40
1.635626118052506
 50
13.0659267263403098
 51
54.358061935989781
  0
ARC
  5
8A34
  8
0
 10
3325.7249379138461336
 20
194.5765679214050863
 30
0.0
 40
1.367870388014834
 50
321.8863802537600236
 51
10.7870771084452794
  0
ARC
  5
8A35
  8
0
 10
3325.0322329824671215
 20
195.1063007428084006
 30
0.0
 40
2.2398716514883801
 50
292.9512552656364051
 51
322.161768824622186
  0
ARC
  5
8A36
  8
0
 10
3324.5486224943979323
 20
196.1485045877153937
 30
0.0
 40
3.3883778692823752
 50
269.6536164943469203
 51
293.6094084845610723
  0
ARC
  5
8A37
  8
0
 10
3324.5486068301170235
 20
193.38184291797171
 30
0.0
 40
2.9524956937295879
 50
65.8513478675126009
 51
90.3972174981778238
  0
ARC
  5
8A38
  8
0
 10
3324.9077268229798392
 20
194.1932382529847132
 30
0.0
 40
2.0651943419677972
 50
45.8778118133212871
 51
65.7333302609554551
  0
ARC
  5
8A39
  8
0
 10
3325.4387028184792143
 20
194.7073710057215123
 30
0.0
 40
1.3266634488647231
 50
6.7252710977609906
 51
46.8811255272606715
  0
ARC
  5
8A3A
  8
0
 10
3325.5857247428489245
 20
194.7597556172609927
 30
0.0
 40
1.175034100606893
 50
331.3434648249872225
 51
5.0278198955626721
  0
ARC
  5
8A3B
  8
0
 10
3325.2861781185411019
 20
194.9014570921571021
 30
0.0
 40
1.505967137853073
 50
306.4667278310536744
 51
332.0779778778920104
  0
ARC
  5
8A3C
  8
0
 10
3324.7157748928320871
 20
195.6207854289370971
 30
0.0
 40
2.4236756411239861
 50
284.577417680899714
 51
307.2039028995673107
  0
ARC
  5
8A3D
  8
0
 10
3324.5330729664569844
 20
196.2265399012833029
 30
0.0
 40
3.0560108901147278
 50
269.9074777989516178
 51
285.0341255879077949
  0
ARC
  5
8A3E
  8
0
 10
3324.5327875457091977
 20
194.3383793045385914
 30
0.0
 40
0.5765052443794947
 50
63.7819528081158396
 51
90.4620915721360461
  0
ARC
  5
8A3F
  8
0
 10
3324.6604942207140994
 20
194.5687701548804966
 30
0.0
 40
0.3136584769725875
 50
7.9575405989272614
 51
66.1178627431947916
  0
ARC
  5
8A40
  8
0
 10
3324.7065068303859334
 20
194.6077194693822037
 30
0.0
 40
0.2646634350208397
 50
305.7886634226999263
 51
0.9684547269496399
  0
ARC
  5
8A41
  8
0
 10
3324.5639621576469835
 20
194.7718096883282044
 30
0.0
 40
0.4815316960174338
 50
283.134744565160986
 51
308.1297586705046001
  0
ARC
  5
8A42
  8
0
 10
3324.5287901826281995
 20
194.8937300917403945
 30
0.0
 40
0.6082902331029456
 50
269.9385765244887239
 51
283.7513713270539029
  0
LINE
  5
8A43
  8
0
 10
3324.4724314960958509
 20
196.0167873591254875
 30
0.0
 11
3324.4698676731959495
 21
196.0588000216255011
 31
0.0
  0
LINE
  5
8A44
  8
0
 10
3324.5834268448070361
 20
196.0158362344801048
 30
0.0
 11
3324.5883350294961929
 21
196.0571201084254938
 31
0.0
  0
ARC
  5
8A45
  8
0
 10
3324.5163405054231589
 20
196.0196534200557039
 30
0.0
 40
0.0440024477195299
 50
183.7345542585634064
 51
228.6401698391383093
  0
ARC
  5
8A46
  8
0
 10
3324.5267250410929591
 20
196.0309321420170079
 30
0.0
 40
0.0593309059771841
 50
228.3103349602693868
 51
260.7300224222158249
  0
ARC
  5
8A47
  8
0
 10
3324.5284069613121574
 20
196.0359267943111092
 30
0.0
 40
0.0645369333191782
 50
259.9705928458565722
 51
293.770900354086109
  0
ARC
  5
8A48
  8
0
 10
3324.5368364711730464
 20
196.0202330171748883
 30
0.0
 40
0.0467973782742005
 50
292.0706193185906727
 51
354.6089032123636002
  0
CIRCLE
  5
8A49
  8
0
 10
3324.5275206036158124
 20
196.0116357294915872
 30
0.0
 40
0.0166555298752413
  0
ARC
  5
8A4A
  8
0
 10
3324.5185963666708631
 20
196.0328039238816018
 30
0.0
 40
0.0552293641759222
 50
107.8497920275986957
 51
151.9206832870582957
  0
ARC
  5
8A4B
  8
0
 10
3324.5281380700621412
 20
196.0104758619295069
 30
0.0
 40
0.0794389175188702
 50
66.5133725592081504
 51
109.4644227635472049
  0
ARC
  5
8A4C
  8
0
 10
3324.5370466002091234
 20
196.0299247114539867
 30
0.0
 40
0.058052498612662
 50
27.9345160898193683
 51
66.9273472775674207
  0
ARC
  5
8A4D
  8
0
 10
3324.5191445257801206
 20
196.0147777961601037
 30
0.0
 40
0.0467562347019241
 50
105.069585074858395
 51
177.5366931257223939
  0
ARC
  5
8A4E
  8
0
 10
3324.527097491693894
 20
195.9979720154748861
 30
0.0
 40
0.0651359462523046
 50
50.132251168781977
 51
107.9825171503883041
  0
ARC
  5
8A4F
  8
0
 10
3324.5409523831049228
 20
196.0159379199504031
 30
0.0
 40
0.0424745834202148
 50
359.8628319953971868
 51
48.9417612339857229
  0
ARC
  5
8A50
  8
0
 10
3324.511174521041994
 20
196.0402362122954969
 30
0.0
 40
0.0452865399089404
 50
155.8002586547468127
 51
211.1840303444897131
  0
ARC
  5
8A51
  8
0
 10
3324.5547661258287917
 20
196.0401773698613113
 30
0.0
 40
0.0376022297732119
 50
319.6592356188592134
 51
26.7807757367556682
  0
LINE
  5
8A52
  8
0
 10
3324.4724314960958509
 20
195.6850539495644057
 30
0.0
 11
3324.4698676731959495
 21
195.7270666120643909
 31
0.0
  0
LINE
  5
8A53
  8
0
 10
3324.5834268448070361
 20
195.6841028249189947
 30
0.0
 11
3324.5883350294961929
 21
195.725386698864412
 31
0.0
  0
ARC
  5
8A54
  8
0
 10
3324.5163405054231589
 20
195.6879200104945937
 30
0.0
 40
0.0440024477195299
 50
183.7345542585634064
 51
228.6401698391383093
  0
ARC
  5
8A55
  8
0
 10
3324.5267250410929591
 20
195.6991987324558977
 30
0.0
 40
0.0593309059771841
 50
228.3103349602693868
 51
260.7300224222158249
  0
ARC
  5
8A56
  8
0
 10
3324.5284069613121574
 20
195.704193384749999
 30
0.0
 40
0.0645369333191782
 50
259.9705928458565722
 51
293.770900354086109
  0
ARC
  5
8A57
  8
0
 10
3324.5368364711730464
 20
195.6884996076138066
 30
0.0
 40
0.0467973782742005
 50
292.0706193185906727
 51
354.6089032123636002
  0
CIRCLE
  5
8A58
  8
0
 10
3324.5275206036158124
 20
195.6799023199305054
 30
0.0
 40
0.0166555298752413
  0
ARC
  5
8A59
  8
0
 10
3324.5185963666708631
 20
195.7010705143204063
 30
0.0
 40
0.0552293641759222
 50
107.8497920275986957
 51
151.9206832870582957
  0
ARC
  5
8A5A
  8
0
 10
3324.5281380700621412
 20
195.6787424523683967
 30
0.0
 40
0.0794389175188702
 50
66.5133725592081504
 51
109.4644227635472049
  0
ARC
  5
8A5B
  8
0
 10
3324.5370466002091234
 20
195.6981913018929049
 30
0.0
 40
0.058052498612662
 50
27.9345160898193683
 51
66.9273472775674207
  0
ARC
  5
8A5C
  8
0
 10
3324.5191445257801206
 20
195.6830443865989935
 30
0.0
 40
0.0467562347019241
 50
105.069585074858395
 51
177.5366931257223939
  0
ARC
  5
8A5D
  8
0
 10
3324.527097491693894
 20
195.6662386059138043
 30
0.0
 40
0.0651359462523046
 50
50.132251168781977
 51
107.9825171503883041
  0
ARC
  5
8A5E
  8
0
 10
3324.5409523831049228
 20
195.6842045103892929
 30
0.0
 40
0.0424745834202148
 50
359.8628319953971868
 51
48.9417612339857229
  0
ARC
  5
8A5F
  8
0
 10
3324.511174521041994
 20
195.7085028027343867
 30
0.0
 40
0.0452865399089404
 50
155.8002586547468127
 51
211.1840303444897131
  0
ARC
  5
8A60
  8
0
 10
3324.5547661258287917
 20
195.7084439603002011
 30
0.0
 40
0.0376022297732119
 50
319.6592356188592134
 51
26.7807757367556682
  0
LINE
  5
8A61
  8
0
 10
3324.4724314960958509
 20
195.3636767427144036
 30
0.0
 11
3324.4698676731959495
 21
195.4056894052143889
 31
0.0
  0
LINE
  5
8A62
  8
0
 10
3324.5834268448070361
 20
195.3627256180689926
 30
0.0
 11
3324.5883350294961929
 21
195.4040094920144099
 31
0.0
  0
ARC
  5
8A63
  8
0
 10
3324.5163405054231589
 20
195.3665428036445917
 30
0.0
 40
0.0440024477195299
 50
183.7345542585634064
 51
228.6401698391383093
  0
ARC
  5
8A64
  8
0
 10
3324.5267250410929591
 20
195.3778215256058957
 30
0.0
 40
0.0593309059771841
 50
228.3103349602693868
 51
260.7300224222158249
  0
ARC
  5
8A65
  8
0
 10
3324.5284069613121574
 20
195.382816177899997
 30
0.0
 40
0.0645369333191782
 50
259.9705928458565722
 51
293.770900354086109
  0
ARC
  5
8A66
  8
0
 10
3324.5368364711730464
 20
195.3671224007638045
 30
0.0
 40
0.0467973782742005
 50
292.0706193185906727
 51
354.6089032123636002
  0
CIRCLE
  5
8A67
  8
0
 10
3324.5275206036158124
 20
195.3585251130805034
 30
0.0
 40
0.0166555298752413
  0
ARC
  5
8A68
  8
0
 10
3324.5185963666708631
 20
195.3796933074704896
 30
0.0
 40
0.0552293641759222
 50
107.8497920275986957
 51
151.9206832870582957
  0
ARC
  5
8A69
  8
0
 10
3324.5281380700621412
 20
195.3573652455183947
 30
0.0
 40
0.0794389175188702
 50
66.5133725592081504
 51
109.4644227635472049
  0
ARC
  5
8A6A
  8
0
 10
3324.5370466002091234
 20
195.3768140950429029
 30
0.0
 40
0.058052498612662
 50
27.9345160898193683
 51
66.9273472775674207
  0
ARC
  5
8A6B
  8
0
 10
3324.5191445257801206
 20
195.3616671797489914
 30
0.0
 40
0.0467562347019241
 50
105.069585074858395
 51
177.5366931257223939
  0
ARC
  5
8A6C
  8
0
 10
3324.527097491693894
 20
195.3448613990638023
 30
0.0
 40
0.0651359462523046
 50
50.132251168781977
 51
107.9825171503883041
  0
ARC
  5
8A6D
  8
0
 10
3324.5409523831049228
 20
195.3628273035392908
 30
0.0
 40
0.0424745834202148
 50
359.8628319953971868
 51
48.9417612339857229
  0
ARC
  5
8A6E
  8
0
 10
3324.511174521041994
 20
195.3871255958844131
 30
0.0
 40
0.0452865399089404
 50
155.8002586547468127
 51
211.1840303444897131
  0
ARC
  5
8A6F
  8
0
 10
3324.5547661258287917
 20
195.387066753450199
 30
0.0
 40
0.0376022297732119
 50
319.6592356188592134
 51
26.7807757367556682
  0
LINE
  5
8A70
  8
0
 10
3324.4724314960958509
 20
195.0525355808003098
 30
0.0
 11
3324.4698676731959495
 21
195.0945482433002951
 31
0.0
  0
LINE
  5
8A71
  8
0
 10
3324.5834268448070361
 20
195.0515844561548136
 30
0.0
 11
3324.5883350294961929
 21
195.0928683301002877
 31
0.0
  0
ARC
  5
8A72
  8
0
 10
3324.5163405054231589
 20
195.0554016417304979
 30
0.0
 40
0.0440024477195299
 50
183.7345542585634064
 51
228.6401698391383093
  0
ARC
  5
8A73
  8
0
 10
3324.5267250410929591
 20
195.0666803636918019
 30
0.0
 40
0.0593309059771841
 50
228.3103349602693868
 51
260.7300224222158249
  0
ARC
  5
8A74
  8
0
 10
3324.5284069613121574
 20
195.0716750159859032
 30
0.0
 40
0.0645369333191782
 50
259.9705928458565722
 51
293.770900354086109
  0
ARC
  5
8A75
  8
0
 10
3324.5368364711730464
 20
195.0559812388497107
 30
0.0
 40
0.0467973782742005
 50
292.0706193185906727
 51
354.6089032123636002
  0
CIRCLE
  5
8A76
  8
0
 10
3324.5275206036158124
 20
195.0473839511664096
 30
0.0
 40
0.0166555298752413
  0
ARC
  5
8A77
  8
0
 10
3324.5185963666708631
 20
195.0685521455563105
 30
0.0
 40
0.0552293641759222
 50
107.8497920275986957
 51
151.9206832870582957
  0
ARC
  5
8A78
  8
0
 10
3324.5281380700621412
 20
195.0462240836041872
 30
0.0
 40
0.0794389175188702
 50
66.5133725592081504
 51
109.4644227635472049
  0
ARC
  5
8A79
  8
0
 10
3324.5370466002091234
 20
195.0656729331288091
 30
0.0
 40
0.058052498612662
 50
27.9345160898193683
 51
66.9273472775674207
  0
ARC
  5
8A7A
  8
0
 10
3324.5191445257801206
 20
195.0505260178348124
 30
0.0
 40
0.0467562347019241
 50
105.069585074858395
 51
177.5366931257223939
  0
ARC
  5
8A7B
  8
0
 10
3324.527097491693894
 20
195.0337202371495948
 30
0.0
 40
0.0651359462523046
 50
50.132251168781977
 51
107.9825171503883041
  0
ARC
  5
8A7C
  8
0
 10
3324.5409523831049228
 20
195.051686141625197
 30
0.0
 40
0.0424745834202148
 50
359.8628319953971868
 51
48.9417612339857229
  0
ARC
  5
8A7D
  8
0
 10
3324.511174521041994
 20
195.0759844339702909
 30
0.0
 40
0.0452865399089404
 50
155.8002586547468127
 51
211.1840303444897131
  0
ARC
  5
8A7E
  8
0
 10
3324.5547661258287917
 20
195.0759255915361052
 30
0.0
 40
0.0376022297732119
 50
319.6592356188592134
 51
26.7807757367556682
  0
LINE
  5
8A7F
  8
0
 10
3325.1884955874020307
 20
195.9155375452108956
 30
0.0
 11
3325.1859317645012197
 21
195.9575502077109093
 31
0.0
  0
LINE
  5
8A80
  8
0
 10
3325.2994909361118516
 20
195.9145864205653993
 30
0.0
 11
3325.3043991208019179
 21
195.9558702945107882
 31
0.0
  0
ARC
  5
8A81
  8
0
 10
3325.2324045967288839
 20
195.9184036061409984
 30
0.0
 40
0.0440024477195299
 50
183.7345542585634064
 51
228.6401698391383093
  0
ARC
  5
8A82
  8
0
 10
3325.2427891323991389
 20
195.9296823281023876
 30
0.0
 40
0.0593309059771841
 50
228.3103349602693868
 51
260.7300224222158249
  0
ARC
  5
8A83
  8
0
 10
3325.2444710526169729
 20
195.9346769803964037
 30
0.0
 40
0.0645369333191782
 50
259.9705928458565722
 51
293.770900354086109
  0
ARC
  5
8A84
  8
0
 10
3325.2529005624792262
 20
195.9189832032602965
 30
0.0
 40
0.0467973782742005
 50
292.0706193185906727
 51
354.6089032123636002
  0
CIRCLE
  5
8A85
  8
0
 10
3325.2435846949219922
 20
195.9103859155769101
 30
0.0
 40
0.0166555298752413
  0
ARC
  5
8A86
  8
0
 10
3325.2346604579770428
 20
195.9315541099668962
 30
0.0
 40
0.0552293641759222
 50
107.8497920275986957
 51
151.9206832870582957
  0
ARC
  5
8A87
  8
0
 10
3325.2442021613678662
 20
195.9092260480148013
 30
0.0
 40
0.0794389175188702
 50
66.5133725592081504
 51
109.4644227635472049
  0
ARC
  5
8A88
  8
0
 10
3325.2531106915148484
 20
195.9286748975393948
 30
0.0
 40
0.058052498612662
 50
27.9345160898193683
 51
66.9273472775674207
  0
ARC
  5
8A89
  8
0
 10
3325.2352086170849361
 20
195.9135279822453981
 30
0.0
 40
0.0467562347019241
 50
105.069585074858395
 51
177.5366931257223939
  0
ARC
  5
8A8A
  8
0
 10
3325.2431615830000737
 20
195.896722201560209
 30
0.0
 40
0.0651359462523046
 50
50.132251168781977
 51
107.9825171503883041
  0
ARC
  5
8A8B
  8
0
 10
3325.2570164744111025
 20
195.9146881060358112
 30
0.0
 40
0.0424745834202148
 50
359.8628319953971868
 51
48.9417612339857229
  0
ARC
  5
8A8C
  8
0
 10
3325.2272386123481738
 20
195.938986398380905
 30
0.0
 40
0.0452865399089404
 50
155.8002586547468127
 51
211.1840303444897131
  0
ARC
  5
8A8D
  8
0
 10
3325.2708302171349715
 20
195.938927555946691
 30
0.0
 40
0.0376022297732119
 50
319.6592356188592134
 51
26.7807757367556682
  0
LINE
  5
8A8E
  8
0
 10
3325.0327463699018153
 20
195.6058838163108931
 30
0.0
 11
3325.0301825470019139
 21
195.6478964788109067
 31
0.0
  0
LINE
  5
8A8F
  8
0
 10
3325.1437417186120911
 20
195.6049326916653968
 30
0.0
 11
3325.1486499033021573
 21
195.6462165656108994
 31
0.0
  0
ARC
  5
8A90
  8
0
 10
3325.0766553792291234
 20
195.6087498772409958
 30
0.0
 40
0.0440024477195299
 50
183.7345542585634064
 51
228.6401698391383093
  0
ARC
  5
8A91
  8
0
 10
3325.0870399148989236
 20
195.6200285992024135
 30
0.0
 40
0.0593309059771841
 50
228.3103349602693868
 51
260.7300224222158249
  0
ARC
  5
8A92
  8
0
 10
3325.0887218351172123
 20
195.6250232514964864
 30
0.0
 40
0.0645369333191782
 50
259.9705928458565722
 51
293.770900354086109
  0
ARC
  5
8A93
  8
0
 10
3325.0971513449790109
 20
195.6093294743602939
 30
0.0
 40
0.0467973782742005
 50
292.0706193185906727
 51
354.6089032123636002
  0
CIRCLE
  5
8A94
  8
0
 10
3325.0878354774217769
 20
195.6007321866769075
 30
0.0
 40
0.0166555298752413
  0
ARC
  5
8A95
  8
0
 10
3325.0789112404768275
 20
195.6219003810668937
 30
0.0
 40
0.0552293641759222
 50
107.8497920275986957
 51
151.9206832870582957
  0
ARC
  5
8A96
  8
0
 10
3325.0884529438671962
 20
195.5995723191147988
 30
0.0
 40
0.0794389175188702
 50
66.5133725592081504
 51
109.4644227635472049
  0
ARC
  5
8A97
  8
0
 10
3325.0973614740150879
 20
195.6190211686393923
 30
0.0
 40
0.058052498612662
 50
27.9345160898193683
 51
66.9273472775674207
  0
ARC
  5
8A98
  8
0
 10
3325.0794593995851756
 20
195.6038742533453956
 30
0.0
 40
0.0467562347019241
 50
105.069585074858395
 51
177.5366931257223939
  0
ARC
  5
8A99
  8
0
 10
3325.0874123654998584
 20
195.5870684726602065
 30
0.0
 40
0.0651359462523046
 50
50.132251168781977
 51
107.9825171503883041
  0
ARC
  5
8A9A
  8
0
 10
3325.1012672569108872
 20
195.6050343771358087
 30
0.0
 40
0.0424745834202148
 50
359.8628319953971868
 51
48.9417612339857229
  0
ARC
  5
8A9B
  8
0
 10
3325.0714893948479585
 20
195.6293326694809025
 30
0.0
 40
0.0452865399089404
 50
155.8002586547468127
 51
211.1840303444897131
  0
ARC
  5
8A9C
  8
0
 10
3325.1150809996352109
 20
195.6292738270466884
 30
0.0
 40
0.0376022297732119
 50
319.6592356188592134
 51
26.7807757367556682
  0
LINE
  5
8A9D
  8
0
 10
3324.9313849316517917
 20
194.9180200137107875
 30
0.0
 11
3324.9288211087518903
 21
194.9600326762108011
 31
0.0
  0
LINE
  5
8A9E
  8
0
 10
3325.0423802803620674
 20
194.9170688890654048
 30
0.0
 11
3325.0472884650521337
 21
194.9583527630109074
 31
0.0
  0
ARC
  5
8A9F
  8
0
 10
3324.9752939409790997
 20
194.9208860746410039
 30
0.0
 40
0.0440024477195299
 50
183.7345542585634064
 51
228.6401698391383093
  0
ARC
  5
8AA0
  8
0
 10
3324.9856784766489
 20
194.9321647966023079
 30
0.0
 40
0.0593309059771841
 50
228.3103349602693868
 51
260.7300224222158249
  0
ARC
  5
8AA1
  8
0
 10
3324.9873603968680982
 20
194.9371594488964945
 30
0.0
 40
0.0645369333191782
 50
259.9705928458565722
 51
293.770900354086109
  0
ARC
  5
8AA2
  8
0
 10
3324.9957899067280778
 20
194.921465671760302
 30
0.0
 40
0.0467973782742005
 50
292.0706193185906727
 51
354.6089032123636002
  0
CIRCLE
  5
8AA3
  8
0
 10
3324.9864740391708438
 20
194.9128683840768872
 30
0.0
 40
0.0166555298752413
  0
ARC
  5
8AA4
  8
0
 10
3324.9775498022268039
 20
194.9340365784669018
 30
0.0
 40
0.0552293641759222
 50
107.8497920275986957
 51
151.9206832870582957
  0
ARC
  5
8AA5
  8
0
 10
3324.9870915056171725
 20
194.9117085165148069
 30
0.0
 40
0.0794389175188702
 50
66.5133725592081504
 51
109.4644227635472049
  0
ARC
  5
8AA6
  8
0
 10
3324.9960000357650642
 20
194.9311573660394004
 30
0.0
 40
0.058052498612662
 50
27.9345160898193683
 51
66.9273472775674207
  0
ARC
  5
8AA7
  8
0
 10
3324.9780979613351519
 20
194.9160104507454037
 30
0.0
 40
0.0467562347019241
 50
105.069585074858395
 51
177.5366931257223939
  0
ARC
  5
8AA8
  8
0
 10
3324.9860509272498348
 20
194.8992046700601861
 30
0.0
 40
0.0651359462523046
 50
50.132251168781977
 51
107.9825171503883041
  0
ARC
  5
8AA9
  8
0
 10
3324.9999058186608636
 20
194.9171705745357883
 30
0.0
 40
0.0424745834202148
 50
359.8628319953971868
 51
48.9417612339857229
  0
ARC
  5
8AAA
  8
0
 10
3324.9701279565979348
 20
194.9414688668809106
 30
0.0
 40
0.0452865399089404
 50
155.8002586547468127
 51
211.1840303444897131
  0
ARC
  5
8AAB
  8
0
 10
3325.0137195613851873
 20
194.9414100244466965
 30
0.0
 40
0.0376022297732119
 50
319.6592356188592134
 51
26.7807757367556682
  0
LINE
  5
8AAC
  8
0
 10
3325.2112369682017743
 20
195.1436559801107933
 30
0.0
 11
3325.2086731453018729
 21
195.185668642610807
 31
0.0
  0
LINE
  5
8AAD
  8
0
 10
3325.32223231691205
 20
195.1427048554654959
 30
0.0
 11
3325.3271405016021163
 21
195.1839887294109133
 31
0.0
  0
ARC
  5
8AAE
  8
0
 10
3325.2551459775290823
 20
195.1465220410410097
 30
0.0
 40
0.0440024477195299
 50
183.7345542585634064
 51
228.6401698391383093
  0
ARC
  5
8AAF
  8
0
 10
3325.2655305131988825
 20
195.157800763002399
 30
0.0
 40
0.0593309059771841
 50
228.3103349602693868
 51
260.7300224222158249
  0
ARC
  5
8AB0
  8
0
 10
3325.2672124334180808
 20
195.1627954152965003
 30
0.0
 40
0.0645369333191782
 50
259.9705928458565722
 51
293.770900354086109
  0
ARC
  5
8AB1
  8
0
 10
3325.2756419432780604
 20
195.1471016381603079
 30
0.0
 40
0.0467973782742005
 50
292.0706193185906727
 51
354.6089032123636002
  0
CIRCLE
  5
8AB2
  8
0
 10
3325.2663260757221906
 20
195.138504350476893
 30
0.0
 40
0.0166555298752413
  0
ARC
  5
8AB3
  8
0
 10
3325.2574018387767865
 20
195.1596725448669076
 30
0.0
 40
0.0552293641759222
 50
107.8497920275986957
 51
151.9206832870582957
  0
ARC
  5
8AB4
  8
0
 10
3325.2669435421680646
 20
195.1373444829148127
 30
0.0
 40
0.0794389175188702
 50
66.5133725592081504
 51
109.4644227635472049
  0
ARC
  5
8AB5
  8
0
 10
3325.2758520723150468
 20
195.1567933324394062
 30
0.0
 40
0.058052498612662
 50
27.9345160898193683
 51
66.9273472775674207
  0
ARC
  5
8AB6
  8
0
 10
3325.2579499978851345
 20
195.1416464171454095
 30
0.0
 40
0.0467562347019241
 50
105.069585074858395
 51
177.5366931257223939
  0
ARC
  5
8AB7
  8
0
 10
3325.2659029637998174
 20
195.1248406364601919
 30
0.0
 40
0.0651359462523046
 50
50.132251168781977
 51
107.9825171503883041
  0
ARC
  5
8AB8
  8
0
 10
3325.2797578552122104
 20
195.1428065409357941
 30
0.0
 40
0.0424745834202148
 50
359.8628319953971868
 51
48.9417612339857229
  0
ARC
  5
8AB9
  8
0
 10
3325.2499799931479174
 20
195.167104833280888
 30
0.0
 40
0.0452865399089404
 50
155.8002586547468127
 51
211.1840303444897131
  0
ARC
  5
8ABA
  8
0
 10
3325.2935715979351698
 20
195.1670459908467024
 30
0.0
 40
0.0376022297732119
 50
319.6592356188592134
 51
26.7807757367556682
  0
LINE
  5
8ABB
  8
0
 10
3325.503047928201795
 20
195.3804610889108062
 30
0.0
 11
3325.5004841053018936
 21
195.4224737514109052
 31
0.0
  0
LINE
  5
8ABC
  8
0
 10
3325.6140432769120707
 20
195.3795099642653952
 30
0.0
 11
3325.618951461602137
 21
195.4207938382108125
 31
0.0
  0
ARC
  5
8ABD
  8
0
 10
3325.546956937529103
 20
195.3833271498409943
 30
0.0
 40
0.0440024477195299
 50
183.7345542585634064
 51
228.6401698391383093
  0
ARC
  5
8ABE
  8
0
 10
3325.5573414731989033
 20
195.3946058718024119
 30
0.0
 40
0.0593309059771841
 50
228.3103349602693868
 51
260.7300224222158249
  0
ARC
  5
8ABF
  8
0
 10
3325.559023393417192
 20
195.3996005240965133
 30
0.0
 40
0.0645369333191782
 50
259.9705928458565722
 51
293.770900354086109
  0
ARC
  5
8AC0
  8
0
 10
3325.5674529032789906
 20
195.3839067469602924
 30
0.0
 40
0.0467973782742005
 50
292.0706193185906727
 51
354.6089032123636002
  0
CIRCLE
  5
8AC1
  8
0
 10
3325.5581370357208471
 20
195.375309459276906
 30
0.0
 40
0.0166555298752413
  0
ARC
  5
8AC2
  8
0
 10
3325.5492127987768072
 20
195.3964776536668921
 30
0.0
 40
0.0552293641759222
 50
107.8497920275986957
 51
151.9206832870582957
  0
ARC
  5
8AC3
  8
0
 10
3325.5587545021671758
 20
195.3741495917147972
 30
0.0
 40
0.0794389175188702
 50
66.5133725592081504
 51
109.4644227635472049
  0
ARC
  5
8AC4
  8
0
 10
3325.5676630323150675
 20
195.3935984412393907
 30
0.0
 40
0.058052498612662
 50
27.9345160898193683
 51
66.9273472775674207
  0
ARC
  5
8AC5
  8
0
 10
3325.5497609578851552
 20
195.378451525945394
 30
0.0
 40
0.0467562347019241
 50
105.069585074858395
 51
177.5366931257223939
  0
ARC
  5
8AC6
  8
0
 10
3325.5577139238012023
 20
195.3616457452602049
 30
0.0
 40
0.0651359462523046
 50
50.132251168781977
 51
107.9825171503883041
  0
ARC
  5
8AC7
  8
0
 10
3325.5715688152108669
 20
195.3796116497358071
 30
0.0
 40
0.0424745834202148
 50
359.8628319953971868
 51
48.9417612339857229
  0
ARC
  5
8AC8
  8
0
 10
3325.5417909531479381
 20
195.4039099420809009
 30
0.0
 40
0.0452865399089404
 50
155.8002586547468127
 51
211.1840303444897131
  0
ARC
  5
8AC9
  8
0
 10
3325.5853825579351906
 20
195.4038510996466869
 30
0.0
 40
0.0376022297732119
 50
319.6592356188592134
 51
26.7807757367556682
  0
LINE
  5
8ACA
  8
0
 10
3325.782603279902105
 20
195.6256984274108106
 30
0.0
 11
3325.7800394570022036
 21
195.6677110899109095
 31
0.0
  0
LINE
  5
8ACB
  8
0
 10
3325.893598628611926
 20
195.6247473027653996
 30
0.0
 11
3325.8985068133019922
 21
195.6660311767109022
 31
0.0
  0
ARC
  5
8ACC
  8
0
 10
3325.8265122892280488
 20
195.6285644883409987
 30
0.0
 40
0.0440024477195299
 50
183.7345542585634064
 51
228.6401698391383093
  0
ARC
  5
8ACD
  8
0
 10
3325.8368968248992132
 20
195.6398432103023879
 30
0.0
 40
0.0593309059771841
 50
228.3103349602693868
 51
260.7300224222158249
  0
ARC
  5
8ACE
  8
0
 10
3325.8385787451170472
 20
195.6448378625964892
 30
0.0
 40
0.0645369333191782
 50
259.9705928458565722
 51
293.770900354086109
  0
ARC
  5
8ACF
  8
0
 10
3325.8470082549788458
 20
195.6291440854602968
 30
0.0
 40
0.0467973782742005
 50
292.0706193185906727
 51
354.6089032123636002
  0
CIRCLE
  5
8AD0
  8
0
 10
3325.8376923874220665
 20
195.6205467977769104
 30
0.0
 40
0.0166555298752413
  0
ARC
  5
8AD1
  8
0
 10
3325.8287681504771172
 20
195.6417149921668965
 30
0.0
 40
0.0552293641759222
 50
107.8497920275986957
 51
151.9206832870582957
  0
ARC
  5
8AD2
  8
0
 10
3325.8383098538670311
 20
195.6193869302148016
 30
0.0
 40
0.0794389175188702
 50
66.5133725592081504
 51
109.4644227635472049
  0
ARC
  5
8AD3
  8
0
 10
3325.8472183840149228
 20
195.6388357797393951
 30
0.0
 40
0.058052498612662
 50
27.9345160898193683
 51
66.9273472775674207
  0
ARC
  5
8AD4
  8
0
 10
3325.829316309584101
 20
195.6236888644453984
 30
0.0
 40
0.0467562347019241
 50
105.069585074858395
 51
177.5366931257223939
  0
ARC
  5
8AD5
  8
0
 10
3325.8372692755001481
 20
195.6068830837602093
 30
0.0
 40
0.0651359462523046
 50
50.132251168781977
 51
107.9825171503883041
  0
ARC
  5
8AD6
  8
0
 10
3325.8511241669111769
 20
195.6248489882358115
 30
0.0
 40
0.0424745834202148
 50
359.8628319953971868
 51
48.9417612339857229
  0
ARC
  5
8AD7
  8
0
 10
3325.8213463048477934
 20
195.6491472805809053
 30
0.0
 40
0.0452865399089404
 50
155.8002586547468127
 51
211.1840303444897131
  0
ARC
  5
8AD8
  8
0
 10
3325.8649379096350458
 20
195.6490884381466913
 30
0.0
 40
0.0376022297732119
 50
319.6592356188592134
 51
26.7807757367556682
  0
LINE
  5
8AD9
  8
0
 10
3325.8167828451018977
 20
195.0428728571108081
 30
0.0
 11
3325.8142190222019963
 21
195.0848855196107934
 31
0.0
  0
LINE
  5
8ADA
  8
0
 10
3325.9277781938121734
 20
195.0419217324653971
 30
0.0
 11
3325.9326863785017849
 21
195.0832056064108997
 31
0.0
  0
ARC
  5
8ADB
  8
0
 10
3325.8606918544292057
 20
195.0457389180409962
 30
0.0
 40
0.0440024477195299
 50
183.7345542585634064
 51
228.6401698391383093
  0
ARC
  5
8ADC
  8
0
 10
3325.8710763900990059
 20
195.0570176400024138
 30
0.0
 40
0.0593309059771841
 50
228.3103349602693868
 51
260.7300224222158249
  0
ARC
  5
8ADD
  8
0
 10
3325.8727583103182042
 20
195.0620122922964867
 30
0.0
 40
0.0645369333191782
 50
259.9705928458565722
 51
293.770900354086109
  0
ARC
  5
8ADE
  8
0
 10
3325.8811878201790933
 20
195.0463185151602943
 30
0.0
 40
0.0467973782742005
 50
292.0706193185906727
 51
354.6089032123636002
  0
CIRCLE
  5
8ADF
  8
0
 10
3325.8718719526209497
 20
195.0377212274769079
 30
0.0
 40
0.0166555298752413
  0
ARC
  5
8AE0
  8
0
 10
3325.8629477156769099
 20
195.0588894218668941
 30
0.0
 40
0.0552293641759222
 50
107.8497920275986957
 51
151.9206832870582957
  0
ARC
  5
8AE1
  8
0
 10
3325.8724894190668238
 20
195.0365613599147991
 30
0.0
 40
0.0794389175188702
 50
66.5133725592081504
 51
109.4644227635472049
  0
ARC
  5
8AE2
  8
0
 10
3325.8813979492151702
 20
195.0560102094393926
 30
0.0
 40
0.058052498612662
 50
27.9345160898193683
 51
66.9273472775674207
  0
ARC
  5
8AE3
  8
0
 10
3325.8634958747848032
 20
195.0408632941453959
 30
0.0
 40
0.0467562347019241
 50
105.069585074858395
 51
177.5366931257223939
  0
ARC
  5
8AE4
  8
0
 10
3325.8714488406999408
 20
195.0240575134602068
 30
0.0
 40
0.0651359462523046
 50
50.132251168781977
 51
107.9825171503883041
  0
ARC
  5
8AE5
  8
0
 10
3325.8853037321109696
 20
195.042023417935809
 30
0.0
 40
0.0424745834202148
 50
359.8628319953971868
 51
48.9417612339857229
  0
ARC
  5
8AE6
  8
0
 10
3325.8555258700480408
 20
195.0663217102809028
 30
0.0
 40
0.0452865399089404
 50
155.8002586547468127
 51
211.1840303444897131
  0
ARC
  5
8AE7
  8
0
 10
3325.8991174748348385
 20
195.0662628678466888
 30
0.0
 40
0.0376022297732119
 50
319.6592356188592134
 51
26.7807757367556682
  0
LINE
  5
8AE8
  8
0
 10
3326.1967600230518656
 20
195.1958223764108027
 30
0.0
 11
3326.1941962001519641
 21
195.2378350389109016
 31
0.0
  0
LINE
  5
8AE9
  8
0
 10
3326.3077553717607771
 20
195.1948712517655053
 30
0.0
 11
3326.3126635564522076
 21
195.236155125710809
 31
0.0
  0
ARC
  5
8AEA
  8
0
 10
3326.2406690323791736
 20
195.1986884373409907
 30
0.0
 40
0.0440024477195299
 50
183.7345542585634064
 51
228.6401698391383093
  0
ARC
  5
8AEB
  8
0
 10
3326.2510535680489738
 20
195.2099671593024084
 30
0.0
 40
0.0593309059771841
 50
228.3103349602693868
 51
260.7300224222158249
  0
ARC
  5
8AEC
  8
0
 10
3326.2527354882668078
 20
195.214961811596396
 30
0.0
 40
0.0645369333191782
 50
259.9705928458565722
 51
293.770900354086109
  0
ARC
  5
8AED
  8
0
 10
3326.2611649981290611
 20
195.1992680344602888
 30
0.0
 40
0.0467973782742005
 50
292.0706193185906727
 51
354.6089032123636002
  0
CIRCLE
  5
8AEE
  8
0
 10
3326.2518491305709176
 20
195.1906707467769024
 30
0.0
 40
0.0166555298752413
  0
ARC
  5
8AEF
  8
0
 10
3326.2429248936268777
 20
195.2118389411668886
 30
0.0
 40
0.0552293641759222
 50
107.8497920275986957
 51
151.9206832870582957
  0
ARC
  5
8AF0
  8
0
 10
3326.2524665970181559
 20
195.1895108792147937
 30
0.0
 40
0.0794389175188702
 50
66.5133725592081504
 51
109.4644227635472049
  0
ARC
  5
8AF1
  8
0
 10
3326.2613751271651381
 20
195.2089597287393872
 30
0.0
 40
0.058052498612662
 50
27.9345160898193683
 51
66.9273472775674207
  0
ARC
  5
8AF2
  8
0
 10
3326.2434730527352258
 20
195.1938128134453905
 30
0.0
 40
0.0467562347019241
 50
105.069585074858395
 51
177.5366931257223939
  0
ARC
  5
8AF3
  8
0
 10
3326.2514260186499087
 20
195.1770070327602014
 30
0.0
 40
0.0651359462523046
 50
50.132251168781977
 51
107.9825171503883041
  0
ARC
  5
8AF4
  8
0
 10
3326.2652809100609375
 20
195.1949729372358036
 30
0.0
 40
0.0424745834202148
 50
359.8628319953971868
 51
48.9417612339857229
  0
ARC
  5
8AF5
  8
0
 10
3326.2355030479970992
 20
195.2192712295808974
 30
0.0
 40
0.0452865399089404
 50
155.8002586547468127
 51
211.1840303444897131
  0
ARC
  5
8AF6
  8
0
 10
3326.2790946527848064
 20
195.2192123871467118
 30
0.0
 40
0.0376022297732119
 50
319.6592356188592134
 51
26.7807757367556682
  0
LINE
  5
8AF7
  8
0
 10
3325.1133495283020238
 20
194.5930331308107952
 30
0.0
 11
3325.1107857054021224
 21
194.6350457933108942
 31
0.0
  0
LINE
  5
8AF8
  8
0
 10
3325.2243448770118448
 20
194.5920820061654126
 30
0.0
 11
3325.2292530617019111
 21
194.6333658801108015
 31
0.0
  0
ARC
  5
8AF9
  8
0
 10
3325.1572585376288771
 20
194.595899191741097
 30
0.0
 40
0.0440024477195299
 50
183.7345542585634064
 51
228.6401698391383093
  0
ARC
  5
8AFA
  8
0
 10
3325.1676430732991321
 20
194.6071779137022872
 30
0.0
 40
0.0593309059771841
 50
228.3103349602693868
 51
260.7300224222158249
  0
ARC
  5
8AFB
  8
0
 10
3325.1693249935169661
 20
194.6121725659963886
 30
0.0
 40
0.0645369333191782
 50
259.9705928458565722
 51
293.770900354086109
  0
ARC
  5
8AFC
  8
0
 10
3325.1777545033792194
 20
194.5964787888603098
 30
0.0
 40
0.0467973782742005
 50
292.0706193185906727
 51
354.6089032123636002
  0
CIRCLE
  5
8AFD
  8
0
 10
3325.1684386358219854
 20
194.587881501176895
 30
0.0
 40
0.0166555298752413
  0
ARC
  5
8AFE
  8
0
 10
3325.159514398877036
 20
194.6090496955669096
 30
0.0
 40
0.0552293641759222
 50
107.8497920275986957
 51
151.9206832870582957
  0
ARC
  5
8AFF
  8
0
 10
3325.1690561022678594
 20
194.5867216336147862
 30
0.0
 40
0.0794389175188702
 50
66.5133725592081504
 51
109.4644227635472049
  0
ARC
  5
8B00
  8
0
 10
3325.1779646324148416
 20
194.6061704831392944
 30
0.0
 40
0.058052498612662
 50
27.9345160898193683
 51
66.9273472775674207
  0
ARC
  5
8B01
  8
0
 10
3325.1600625579849293
 20
194.5910235678454114
 30
0.0
 40
0.0467562347019241
 50
105.069585074858395
 51
177.5366931257223939
  0
ARC
  5
8B02
  8
0
 10
3325.1680155239000669
 20
194.5742177871601939
 30
0.0
 40
0.0651359462523046
 50
50.132251168781977
 51
107.9825171503883041
  0
ARC
  5
8B03
  8
0
 10
3325.1818704153110957
 20
194.5921836916357961
 30
0.0
 40
0.0424745834202148
 50
359.8628319953971868
 51
48.9417612339857229
  0
ARC
  5
8B04
  8
0
 10
3325.152092553248167
 20
194.6164819839808899
 30
0.0
 40
0.0452865399089404
 50
155.8002586547468127
 51
211.1840303444897131
  0
ARC
  5
8B05
  8
0
 10
3325.1956841580349646
 20
194.6164231415467043
 30
0.0
 40
0.0376022297732119
 50
319.6592356188592134
 51
26.7807757367556682
  0
LINE
  5
8B06
  8
0
 10
3325.5206153199019354
 20
194.6139384016107954
 30
0.0
 11
3325.518051497002034
 21
194.6559510641108091
 31
0.0
  0
LINE
  5
8B07
  8
0
 10
3325.6316106686122112
 20
194.6129872769654128
 30
0.0
 11
3325.6365188533018227
 21
194.6542711509108017
 31
0.0
  0
ARC
  5
8B08
  8
0
 10
3325.5645243292287887
 20
194.6168044625410971
 30
0.0
 40
0.0440024477195299
 50
183.7345542585634064
 51
228.6401698391383093
  0
ARC
  5
8B09
  8
0
 10
3325.5749088648981342
 20
194.6280831845022874
 30
0.0
 40
0.0593309059771841
 50
228.3103349602693868
 51
260.7300224222158249
  0
ARC
  5
8B0A
  8
0
 10
3325.5765907851168777
 20
194.6330778367965024
 30
0.0
 40
0.0645369333191782
 50
259.9705928458565722
 51
293.770900354086109
  0
ARC
  5
8B0B
  8
0
 10
3325.585020294979131
 20
194.61738405966031
 30
0.0
 40
0.0467973782742005
 50
292.0706193185906727
 51
354.6089032123636002
  0
CIRCLE
  5
8B0C
  8
0
 10
3325.5757044274209875
 20
194.6087867719768951
 30
0.0
 40
0.0166555298752413
  0
ARC
  5
8B0D
  8
0
 10
3325.5667801904769476
 20
194.6299549663669097
 30
0.0
 40
0.0552293641759222
 50
107.8497920275986957
 51
151.9206832870582957
  0
ARC
  5
8B0E
  8
0
 10
3325.5763218938682257
 20
194.6076269044147864
 30
0.0
 40
0.0794389175188702
 50
66.5133725592081504
 51
109.4644227635472049
  0
ARC
  5
8B0F
  8
0
 10
3325.585230424015208
 20
194.6270757539394083
 30
0.0
 40
0.058052498612662
 50
27.9345160898193683
 51
66.9273472775674207
  0
ARC
  5
8B10
  8
0
 10
3325.5673283495848409
 20
194.6119288386454116
 30
0.0
 40
0.0467562347019241
 50
105.069585074858395
 51
177.5366931257223939
  0
ARC
  5
8B11
  8
0
 10
3325.5752813154999785
 20
194.595123057960194
 30
0.0
 40
0.0651359462523046
 50
50.132251168781977
 51
107.9825171503883041
  0
ARC
  5
8B12
  8
0
 10
3325.5891362069110073
 20
194.6130889624357962
 30
0.0
 40
0.0424745834202148
 50
359.8628319953971868
 51
48.9417612339857229
  0
ARC
  5
8B13
  8
0
 10
3325.5593583448480786
 20
194.6373872547808901
 30
0.0
 40
0.0452865399089404
 50
155.8002586547468127
 51
211.1840303444897131
  0
ARC
  5
8B14
  8
0
 10
3325.6029499496348762
 20
194.6373284123467045
 30
0.0
 40
0.0376022297732119
 50
319.6592356188592134
 51
26.7807757367556682
  0
LINE
  5
8B15
  8
0
 10
3325.9320966371019495
 20
194.6456794322108124
 30
0.0
 11
3325.929532814202048
 21
194.6876920947109113
 31
0.0
  0
LINE
  5
8B16
  8
0
 10
3326.0430919858122252
 20
194.6447283075654013
 30
0.0
 11
3326.0480001705018367
 21
194.6860121815107902
 31
0.0
  0
ARC
  5
8B17
  8
0
 10
3325.9760056464288027
 20
194.6485454931410004
 30
0.0
 40
0.0440024477195299
 50
183.7345542585634064
 51
228.6401698391383093
  0
ARC
  5
8B18
  8
0
 10
3325.9863901820981482
 20
194.6598242151023896
 30
0.0
 40
0.0593309059771841
 50
228.3103349602693868
 51
260.7300224222158249
  0
ARC
  5
8B19
  8
0
 10
3325.9880721023178012
 20
194.664818867396491
 30
0.0
 40
0.0645369333191782
 50
259.9705928458565722
 51
293.770900354086109
  0
ARC
  5
8B1A
  8
0
 10
3325.996501612179145
 20
194.6491250902602985
 30
0.0
 40
0.0467973782742005
 50
292.0706193185906727
 51
354.6089032123636002
  0
CIRCLE
  5
8B1B
  8
0
 10
3325.9871857446210015
 20
194.6405278025769121
 30
0.0
 40
0.0166555298752413
  0
ARC
  5
8B1C
  8
0
 10
3325.9782615076769616
 20
194.6616959969668983
 30
0.0
 40
0.0552293641759222
 50
107.8497920275986957
 51
151.9206832870582957
  0
ARC
  5
8B1D
  8
0
 10
3325.987803211067785
 20
194.6393679350148034
 30
0.0
 40
0.0794389175188702
 50
66.5133725592081504
 51
109.4644227635472049
  0
ARC
  5
8B1E
  8
0
 10
3325.996711741215222
 20
194.6588167845393968
 30
0.0
 40
0.058052498612662
 50
27.9345160898193683
 51
66.9273472775674207
  0
ARC
  5
8B1F
  8
0
 10
3325.9788096667848549
 20
194.6436698692454002
 30
0.0
 40
0.0467562347019241
 50
105.069585074858395
 51
177.5366931257223939
  0
ARC
  5
8B20
  8
0
 10
3325.9867626326999925
 20
194.626864088560211
 30
0.0
 40
0.0651359462523046
 50
50.132251168781977
 51
107.9825171503883041
  0
ARC
  5
8B21
  8
0
 10
3326.0006175241110213
 20
194.6448299930358132
 30
0.0
 40
0.0424745834202148
 50
359.8628319953971868
 51
48.9417612339857229
  0
ARC
  5
8B22
  8
0
 10
3325.9708396620480926
 20
194.6691282853809071
 30
0.0
 40
0.0452865399089404
 50
155.8002586547468127
 51
211.1840303444897131
  0
ARC
  5
8B23
  8
0
 10
3326.0144312668348903
 20
194.669069442946693
 30
0.0
 40
0.0376022297732119
 50
319.6592356188592134
 51
26.7807757367556682
  0
LINE
  5
8B24
  8
0
 10
3326.3393421812020279
 20
194.6872151356108134
 30
0.0
 11
3326.3367783583021264
 21
194.7292277981109123
 31
0.0
  0
LINE
  5
8B25
  8
0
 10
3326.4503375299118488
 20
194.6862640109654876
 30
0.0
 11
3326.4552457146019151
 21
194.7275478849109049
 31
0.0
  0
ARC
  5
8B26
  8
0
 10
3326.3832511905288811
 20
194.6900811965410014
 30
0.0
 40
0.0440024477195299
 50
183.7345542585634064
 51
228.6401698391383093
  0
ARC
  5
8B27
  8
0
 10
3326.3936357261991361
 20
194.7013599185023907
 30
0.0
 40
0.0593309059771841
 50
228.3103349602693868
 51
260.7300224222158249
  0
ARC
  5
8B28
  8
0
 10
3326.3953176464169701
 20
194.706354570796492
 30
0.0
 40
0.0645369333191782
 50
259.9705928458565722
 51
293.770900354086109
  0
ARC
  5
8B29
  8
0
 10
3326.4037471562792234
 20
194.6906607936602995
 30
0.0
 40
0.0467973782742005
 50
292.0706193185906727
 51
354.6089032123636002
  0
CIRCLE
  5
8B2A
  8
0
 10
3326.3944312887219894
 20
194.6820635059769131
 30
0.0
 40
0.0166555298752413
  0
ARC
  5
8B2B
  8
0
 10
3326.38550705177704
 20
194.7032317003668993
 30
0.0
 40
0.0552293641759222
 50
107.8497920275986957
 51
151.9206832870582957
  0
ARC
  5
8B2C
  8
0
 10
3326.3950487551678634
 20
194.6809036384148044
 30
0.0
 40
0.0794389175188702
 50
66.5133725592081504
 51
109.4644227635472049
  0
ARC
  5
8B2D
  8
0
 10
3326.4039572853148456
 20
194.7003524879393979
 30
0.0
 40
0.058052498612662
 50
27.9345160898193683
 51
66.9273472775674207
  0
ARC
  5
8B2E
  8
0
 10
3326.3860552108849333
 20
194.6852055726454012
 30
0.0
 40
0.0467562347019241
 50
105.069585074858395
 51
177.5366931257223939
  0
ARC
  5
8B2F
  8
0
 10
3326.3940081768000709
 20
194.668399791960212
 30
0.0
 40
0.0651359462523046
 50
50.132251168781977
 51
107.9825171503883041
  0
ARC
  5
8B30
  8
0
 10
3326.4078630682110997
 20
194.6863656964357858
 30
0.0
 40
0.0424745834202148
 50
359.8628319953971868
 51
48.9417612339857229
  0
ARC
  5
8B31
  8
0
 10
3326.3780852061468067
 20
194.7106639887809081
 30
0.0
 40
0.0452865399089404
 50
155.8002586547468127
 51
211.1840303444897131
  0
ARC
  5
8B32
  8
0
 10
3326.4216768109349687
 20
194.710605146346694
 30
0.0
 40
0.0376022297732119
 50
319.6592356188592134
 51
26.7807757367556682
  0
LINE
  5
8B33
  8
0
 10
3324.9369656250019034
 20
194.2687292479108123
 30
0.0
 11
3324.934401802102002
 21
194.3107419104109113
 31
0.0
  0
LINE
  5
8B34
  8
0
 10
3325.0479609737121791
 20
194.2677781232654013
 30
0.0
 11
3325.0528691584017906
 21
194.3090619972107902
 31
0.0
  0
ARC
  5
8B35
  8
0
 10
3324.9808746343292114
 20
194.2715953088410004
 30
0.0
 40
0.0440024477195299
 50
183.7345542585634064
 51
228.6401698391383093
  0
ARC
  5
8B36
  8
0
 10
3324.9912591699990116
 20
194.2828740308023896
 30
0.0
 40
0.0593309059771841
 50
228.3103349602693868
 51
260.7300224222158249
  0
ARC
  5
8B37
  8
0
 10
3324.9929410902182099
 20
194.2878686830964909
 30
0.0
 40
0.0645369333191782
 50
259.9705928458565722
 51
293.770900354086109
  0
ARC
  5
8B38
  8
0
 10
3325.0013706000790989
 20
194.2721749059602985
 30
0.0
 40
0.0467973782742005
 50
292.0706193185906727
 51
354.6089032123636002
  0
CIRCLE
  5
8B39
  8
0
 10
3324.9920547325218649
 20
194.2635776182769121
 30
0.0
 40
0.0166555298752413
  0
ARC
  5
8B3A
  8
0
 10
3324.9831304955769156
 20
194.2847458126668982
 30
0.0
 40
0.0552293641759222
 50
107.8497920275986957
 51
151.9206832870582957
  0
ARC
  5
8B3B
  8
0
 10
3324.9926721989668295
 20
194.2624177507148033
 30
0.0
 40
0.0794389175188702
 50
66.5133725592081504
 51
109.4644227635472049
  0
ARC
  5
8B3C
  8
0
 10
3325.0015807291151759
 20
194.2818666002393968
 30
0.0
 40
0.058052498612662
 50
27.9345160898193683
 51
66.9273472775674207
  0
ARC
  5
8B3D
  8
0
 10
3324.9836786546848089
 20
194.2667196849454001
 30
0.0
 40
0.0467562347019241
 50
105.069585074858395
 51
177.5366931257223939
  0
ARC
  5
8B3E
  8
0
 10
3324.9916316205999465
 20
194.249913904260211
 30
0.0
 40
0.0651359462523046
 50
50.132251168781977
 51
107.9825171503883041
  0
ARC
  5
8B3F
  8
0
 10
3325.0054865120109753
 20
194.2678798087358132
 30
0.0
 40
0.0424745834202148
 50
359.8628319953971868
 51
48.9417612339857229
  0
ARC
  5
8B40
  8
0
 10
3324.9757086499480465
 20
194.292178101080907
 30
0.0
 40
0.0452865399089404
 50
155.8002586547468127
 51
211.1840303444897131
  0
ARC
  5
8B41
  8
0
 10
3325.0193002547348442
 20
194.292119258646693
 30
0.0
 40
0.0376022297732119
 50
319.6592356188592134
 51
26.7807757367556682
  0
LINE
  5
8B42
  8
0
 10
3325.2254269768018275
 20
194.0848466303108069
 30
0.0
 11
3325.2228631539019261
 21
194.1268592928109058
 31
0.0
  0
LINE
  5
8B43
  8
0
 10
3325.3364223255121033
 20
194.0838955056653958
 30
0.0
 11
3325.3413305102021695
 21
194.1251793796108132
 31
0.0
  0
ARC
  5
8B44
  8
0
 10
3325.2693359861291356
 20
194.0877126912409949
 30
0.0
 40
0.0440024477195299
 50
183.7345542585634064
 51
228.6401698391383093
  0
ARC
  5
8B45
  8
0
 10
3325.2797205217989358
 20
194.0989914132024126
 30
0.0
 40
0.0593309059771841
 50
228.3103349602693868
 51
260.7300224222158249
  0
ARC
  5
8B46
  8
0
 10
3325.281402442018134
 20
194.1039860654965139
 30
0.0
 40
0.0645369333191782
 50
259.9705928458565722
 51
293.770900354086109
  0
ARC
  5
8B47
  8
0
 10
3325.2898319518790231
 20
194.088292288360293
 30
0.0
 40
0.0467973782742005
 50
292.0706193185906727
 51
354.6089032123636002
  0
CIRCLE
  5
8B48
  8
0
 10
3325.2805160843217891
 20
194.0796950006769066
 30
0.0
 40
0.0166555298752413
  0
ARC
  5
8B49
  8
0
 10
3325.2715918473768397
 20
194.1008631950668928
 30
0.0
 40
0.0552293641759222
 50
107.8497920275986957
 51
151.9206832870582957
  0
ARC
  5
8B4A
  8
0
 10
3325.2811335507672084
 20
194.0785351331147979
 30
0.0
 40
0.0794389175188702
 50
66.5133725592081504
 51
109.4644227635472049
  0
ARC
  5
8B4B
  8
0
 10
3325.2900420809151001
 20
194.0979839826393913
 30
0.0
 40
0.058052498612662
 50
27.9345160898193683
 51
66.9273472775674207
  0
ARC
  5
8B4C
  8
0
 10
3325.2721400064851878
 20
194.0828370673453946
 30
0.0
 40
0.0467562347019241
 50
105.069585074858395
 51
177.5366931257223939
  0
ARC
  5
8B4D
  8
0
 10
3325.2800929724007801
 20
194.0660312866602055
 30
0.0
 40
0.0651359462523046
 50
50.132251168781977
 51
107.9825171503883041
  0
ARC
  5
8B4E
  8
0
 10
3325.2939478638108994
 20
194.0839971911358077
 30
0.0
 40
0.0424745834202148
 50
359.8628319953971868
 51
48.9417612339857229
  0
ARC
  5
8B4F
  8
0
 10
3325.2641700017479707
 20
194.1082954834809016
 30
0.0
 40
0.0452865399089404
 50
155.8002586547468127
 51
211.1840303444897131
  0
ARC
  5
8B50
  8
0
 10
3325.3077616065352231
 20
194.1082366410466875
 30
0.0
 40
0.0376022297732119
 50
319.6592356188592134
 51
26.7807757367556682
  0
LINE
  5
8B51
  8
0
 10
3325.8200590736519189
 20
194.2478209623108967
 30
0.0
 11
3325.8174952507529269
 21
194.2898336248109104
 31
0.0
  0
LINE
  5
8B52
  8
0
 10
3325.9310544223621946
 20
194.2468698376654004
 30
0.0
 11
3325.9359626070518061
 21
194.2881537116107893
 31
0.0
  0
ARC
  5
8B53
  8
0
 10
3325.8639680829778627
 20
194.2506870232409995
 30
0.0
 40
0.0440024477195299
 50
183.7345542585634064
 51
228.6401698391383093
  0
ARC
  5
8B54
  8
0
 10
3325.8743526186490271
 20
194.2619657452023887
 30
0.0
 40
0.0593309059771841
 50
228.3103349602693868
 51
260.7300224222158249
  0
ARC
  5
8B55
  8
0
 10
3325.8760345388668611
 20
194.26696039749649
 30
0.0
 40
0.0645369333191782
 50
259.9705928458565722
 51
293.770900354086109
  0
ARC
  5
8B56
  8
0
 10
3325.8844640487291144
 20
194.2512666203602976
 30
0.0
 40
0.0467973782742005
 50
292.0706193185906727
 51
354.6089032123636002
  0
CIRCLE
  5
8B57
  8
0
 10
3325.8751481811718804
 20
194.2426693326769112
 30
0.0
 40
0.0166555298752413
  0
ARC
  5
8B58
  8
0
 10
3325.8662239442278405
 20
194.2638375270668973
 30
0.0
 40
0.0552293641759222
 50
107.8497920275986957
 51
151.9206832870582957
  0
ARC
  5
8B59
  8
0
 10
3325.8757656476168449
 20
194.2415094651148024
 30
0.0
 40
0.0794389175188702
 50
66.5133725592081504
 51
109.4644227635472049
  0
ARC
  5
8B5A
  8
0
 10
3325.8846741777651914
 20
194.2609583146393959
 30
0.0
 40
0.058052498612662
 50
27.9345160898193683
 51
66.9273472775674207
  0
ARC
  5
8B5B
  8
0
 10
3325.8667721033348244
 20
194.2458113993453992
 30
0.0
 40
0.0467562347019241
 50
105.069585074858395
 51
177.5366931257223939
  0
ARC
  5
8B5C
  8
0
 10
3325.874725069249962
 20
194.2290056186602101
 30
0.0
 40
0.0651359462523046
 50
50.132251168781977
 51
107.9825171503883041
  0
ARC
  5
8B5D
  8
0
 10
3325.8885799606609908
 20
194.2469715231358123
 30
0.0
 40
0.0424745834202148
 50
359.8628319953971868
 51
48.9417612339857229
  0
ARC
  5
8B5E
  8
0
 10
3325.8588020985971525
 20
194.2712698154809061
 30
0.0
 40
0.0452865399089404
 50
155.8002586547468127
 51
211.1840303444897131
  0
ARC
  5
8B5F
  8
0
 10
3325.9023937033862239
 20
194.2712109730466921
 30
0.0
 40
0.0376022297732119
 50
319.6592356188592134
 51
26.7807757367556682
  0
LINE
  5
8B60
  8
0
 10
3326.1999813448019268
 20
194.1788404038107956
 30
0.0
 11
3326.1974175219020253
 21
194.2208530663108093
 31
0.0
  0
LINE
  5
8B61
  8
0
 10
3326.3109766935122025
 20
194.1778892791654982
 30
0.0
 11
3326.315884878201814
 21
194.2191731531108019
 31
0.0
  0
ARC
  5
8B62
  8
0
 10
3326.2438903541278705
 20
194.181706464741012
 30
0.0
 40
0.0440024477195299
 50
183.7345542585634064
 51
228.6401698391383093
  0
ARC
  5
8B63
  8
0
 10
3326.2542748897981255
 20
194.1929851867024013
 30
0.0
 40
0.0593309059771841
 50
228.3103349602693868
 51
260.7300224222158249
  0
ARC
  5
8B64
  8
0
 10
3326.2559568100177785
 20
194.1979798389963889
 30
0.0
 40
0.0645369333191782
 50
259.9705928458565722
 51
293.770900354086109
  0
ARC
  5
8B65
  8
0
 10
3326.2643863198791223
 20
194.1822860618603102
 30
0.0
 40
0.0467973782742005
 50
292.0706193185906727
 51
354.6089032123636002
  0
CIRCLE
  5
8B66
  8
0
 10
3326.2550704523209788
 20
194.1736887741768953
 30
0.0
 40
0.0166555298752413
  0
ARC
  5
8B67
  8
0
 10
3326.2461462153769389
 20
194.1948569685669952
 30
0.0
 40
0.0552293641759222
 50
107.8497920275986957
 51
151.9206832870582957
  0
ARC
  5
8B68
  8
0
 10
3326.2556879187668528
 20
194.1725289066147866
 30
0.0
 40
0.0794389175188702
 50
66.5133725592081504
 51
109.4644227635472049
  0
ARC
  5
8B69
  8
0
 10
3326.2645964489151993
 20
194.1919777561394085
 30
0.0
 40
0.058052498612662
 50
27.9345160898193683
 51
66.9273472775674207
  0
ARC
  5
8B6A
  8
0
 10
3326.2466943744848322
 20
194.1768308408454118
 30
0.0
 40
0.0467562347019241
 50
105.069585074858395
 51
177.5366931257223939
  0
ARC
  5
8B6B
  8
0
 10
3326.2546473403999698
 20
194.1600250601601942
 30
0.0
 40
0.0651359462523046
 50
50.132251168781977
 51
107.9825171503883041
  0
ARC
  5
8B6C
  8
0
 10
3326.2685022318109986
 20
194.1779909646357964
 30
0.0
 40
0.0424745834202148
 50
359.8628319953971868
 51
48.9417612339857229
  0
ARC
  5
8B6D
  8
0
 10
3326.2387243697480699
 20
194.2022892569808903
 30
0.0
 40
0.0452865399089404
 50
155.8002586547468127
 51
211.1840303444897131
  0
ARC
  5
8B6E
  8
0
 10
3326.2823159745348676
 20
194.2022304145467047
 30
0.0
 40
0.0376022297732119
 50
319.6592356188592134
 51
26.7807757367556682
  0
LINE
  5
8B6F
  8
0
 10
3325.5050775289018929
 20
193.9109133344109068
 30
0.0
 11
3325.5025137060019915
 21
193.9529259969108068
 31
0.0
  0
LINE
  5
8B70
  8
0
 10
3325.6160728776121687
 20
193.9099622097654105
 30
0.0
 11
3325.6209810623017802
 21
193.9512460837109131
 31
0.0
  0
ARC
  5
8B71
  8
0
 10
3325.548986538229201
 20
193.9137793953410096
 30
0.0
 40
0.0440024477195299
 50
183.7345542585634064
 51
228.6401698391383093
  0
ARC
  5
8B72
  8
0
 10
3325.5593710738990012
 20
193.9250581173023988
 30
0.0
 40
0.0593309059771841
 50
228.3103349602693868
 51
260.7300224222158249
  0
ARC
  5
8B73
  8
0
 10
3325.5610529941168352
 20
193.9300527695965002
 30
0.0
 40
0.0645369333191782
 50
259.9705928458565722
 51
293.770900354086109
  0
ARC
  5
8B74
  8
0
 10
3325.5694825039790885
 20
193.9143589924603077
 30
0.0
 40
0.0467973782742005
 50
292.0706193185906727
 51
354.6089032123636002
  0
CIRCLE
  5
8B75
  8
0
 10
3325.560166636420945
 20
193.9057617047768929
 30
0.0
 40
0.0166555298752413
  0
ARC
  5
8B76
  8
0
 10
3325.5512423994769051
 20
193.9269298991669075
 30
0.0
 40
0.0552293641759222
 50
107.8497920275986957
 51
151.9206832870582957
  0
ARC
  5
8B77
  8
0
 10
3325.560784102866819
 20
193.9046018372148978
 30
0.0
 40
0.0794389175188702
 50
66.5133725592081504
 51
109.4644227635472049
  0
ARC
  5
8B78
  8
0
 10
3325.5696926330151655
 20
193.924050686739406
 30
0.0
 40
0.058052498612662
 50
27.9345160898193683
 51
66.9273472775674207
  0
ARC
  5
8B79
  8
0
 10
3325.5517905585847984
 20
193.9089037714454093
 30
0.0
 40
0.0467562347019241
 50
105.069585074858395
 51
177.5366931257223939
  0
ARC
  5
8B7A
  8
0
 10
3325.559743524499936
 20
193.8920979907601918
 30
0.0
 40
0.0651359462523046
 50
50.132251168781977
 51
107.9825171503883041
  0
ARC
  5
8B7B
  8
0
 10
3325.5735984159109648
 20
193.910063895235794
 30
0.0
 40
0.0424745834202148
 50
359.8628319953971868
 51
48.9417612339857229
  0
ARC
  5
8B7C
  8
0
 10
3325.5438205538480361
 20
193.9343621875808878
 30
0.0
 40
0.0452865399089404
 50
155.8002586547468127
 51
211.1840303444897131
  0
ARC
  5
8B7D
  8
0
 10
3325.5874121586348338
 20
193.9343033451467022
 30
0.0
 40
0.0376022297732119
 50
319.6592356188592134
 51
26.7807757367556682
  0
LINE
  5
8B7E
  8
0
 10
3325.7977200785521745
 20
193.7476252748109005
 30
0.0
 11
3325.7951562556518184
 21
193.7896379373109141
 31
0.0
  0
LINE
  5
8B7F
  8
0
 10
3325.9087154272619955
 20
193.7466741501654042
 30
0.0
 11
3325.9136236119520618
 21
193.7879580241109068
 31
0.0
  0
ARC
  5
8B80
  8
0
 10
3325.8416290878790278
 20
193.7504913357410032
 30
0.0
 40
0.0440024477195299
 50
183.7345542585634064
 51
228.6401698391383093
  0
ARC
  5
8B81
  8
0
 10
3325.852013623548828
 20
193.7617700577023925
 30
0.0
 40
0.0593309059771841
 50
228.3103349602693868
 51
260.7300224222158249
  0
ARC
  5
8B82
  8
0
 10
3325.8536955437671168
 20
193.7667647099964938
 30
0.0
 40
0.0645369333191782
 50
259.9705928458565722
 51
293.770900354086109
  0
ARC
  5
8B83
  8
0
 10
3325.8621250536289153
 20
193.7510709328603014
 30
0.0
 40
0.0467973782742005
 50
292.0706193185906727
 51
354.6089032123636002
  0
CIRCLE
  5
8B84
  8
0
 10
3325.8528091860712266
 20
193.7424736451770002
 30
0.0
 40
0.0166555298752413
  0
ARC
  5
8B85
  8
0
 10
3325.8438849491271867
 20
193.7636418395669011
 30
0.0
 40
0.0552293641759222
 50
107.8497920275986957
 51
151.9206832870582957
  0
ARC
  5
8B86
  8
0
 10
3325.8534266525180101
 20
193.7413137776148062
 30
0.0
 40
0.0794389175188702
 50
66.5133725592081504
 51
109.4644227635472049
  0
ARC
  5
8B87
  8
0
 10
3325.8623351826649923
 20
193.7607626271393997
 30
0.0
 40
0.058052498612662
 50
27.9345160898193683
 51
66.9273472775674207
  0
ARC
  5
8B88
  8
0
 10
3325.84443310823508
 20
193.745615711845403
 30
0.0
 40
0.0467562347019241
 50
105.069585074858395
 51
177.5366931257223939
  0
ARC
  5
8B89
  8
0
 10
3325.8523860741511271
 20
193.7288099311602139
 30
0.0
 40
0.0651359462523046
 50
50.132251168781977
 51
107.9825171503883041
  0
ARC
  5
8B8A
  8
0
 10
3325.8662409655607917
 20
193.7467758356357876
 30
0.0
 40
0.0424745834202148
 50
359.8628319953971868
 51
48.9417612339857229
  0
ARC
  5
8B8B
  8
0
 10
3325.8364631034978629
 20
193.7710741279809099
 30
0.0
 40
0.0452865399089404
 50
155.8002586547468127
 51
211.1840303444897131
  0
ARC
  5
8B8C
  8
0
 10
3325.8800547082851153
 20
193.7710152855466958
 30
0.0
 40
0.0376022297732119
 50
319.6592356188592134
 51
26.7807757367556682
  0
LINE
  5
8B8D
  8
0
 10
3325.192348787301853
 20
193.4593159572607988
 30
0.0
 11
3325.1897849644019516
 21
193.5013286197608977
 31
0.0
  0
LINE
  5
8B8E
  8
0
 10
3325.3033441360121287
 20
193.4583648326155014
 30
0.0
 11
3325.308252320702195
 21
193.4996487065608051
 31
0.0
  0
ARC
  5
8B8F
  8
0
 10
3325.236257796629161
 20
193.4621820181909868
 30
0.0
 40
0.0440024477195299
 50
183.7345542585634064
 51
228.6401698391383093
  0
ARC
  5
8B90
  8
0
 10
3325.2466423322989613
 20
193.4734607401522908
 30
0.0
 40
0.0593309059771841
 50
228.3103349602693868
 51
260.7300224222158249
  0
ARC
  5
8B91
  8
0
 10
3325.2483242525167952
 20
193.4784553924465058
 30
0.0
 40
0.0645369333191782
 50
259.9705928458565722
 51
293.770900354086109
  0
ARC
  5
8B92
  8
0
 10
3325.2567537623790486
 20
193.4627616153103133
 30
0.0
 40
0.0467973782742005
 50
292.0706193185906727
 51
354.6089032123636002
  0
CIRCLE
  5
8B93
  8
0
 10
3325.2474378948218146
 20
193.4541643276268985
 30
0.0
 40
0.0166555298752413
  0
ARC
  5
8B94
  8
0
 10
3325.2385136578768652
 20
193.4753325220169131
 30
0.0
 40
0.0552293641759222
 50
107.8497920275986957
 51
151.9206832870582957
  0
ARC
  5
8B95
  8
0
 10
3325.2480553612667791
 20
193.4530044600649035
 30
0.0
 40
0.0794389175188702
 50
66.5133725592081504
 51
109.4644227635472049
  0
ARC
  5
8B96
  8
0
 10
3325.2569638914151255
 20
193.4724533095894117
 30
0.0
 40
0.058052498612662
 50
27.9345160898193683
 51
66.9273472775674207
  0
ARC
  5
8B97
  8
0
 10
3325.2390618169852132
 20
193.4573063942953866
 30
0.0
 40
0.0467562347019241
 50
105.069585074858395
 51
177.5366931257223939
  0
ARC
  5
8B98
  8
0
 10
3325.2470147828998961
 20
193.4405006136101974
 30
0.0
 40
0.0651359462523046
 50
50.132251168781977
 51
107.9825171503883041
  0
ARC
  5
8B99
  8
0
 10
3325.2608696743109249
 20
193.4584665180857996
 30
0.0
 40
0.0424745834202148
 50
359.8628319953971868
 51
48.9417612339857229
  0
ARC
  5
8B9A
  8
0
 10
3325.2310918122479961
 20
193.4827648104308935
 30
0.0
 40
0.0452865399089404
 50
155.8002586547468127
 51
211.1840303444897131
  0
ARC
  5
8B9B
  8
0
 10
3325.2746834170347938
 20
193.4827059679967078
 30
0.0
 40
0.0376022297732119
 50
319.6592356188592134
 51
26.7807757367556682
  0
LINE
  5
8B9C
  8
0
 10
3325.0320512422022148
 20
193.6856771789107938
 30
0.0
 11
3325.0294874193018586
 21
193.7276898414108075
 31
0.0
  0
LINE
  5
8B9D
  8
0
 10
3325.1430465909120358
 20
193.6847260542654965
 30
0.0
 11
3325.147954775602102
 21
193.7260099282109138
 31
0.0
  0
ARC
  5
8B9E
  8
0
 10
3325.075960251529068
 20
193.6885432398410103
 30
0.0
 40
0.0440024477195299
 50
183.7345542585634064
 51
228.6401698391383093
  0
ARC
  5
8B9F
  8
0
 10
3325.0863447871988683
 20
193.6998219618023995
 30
0.0
 40
0.0593309059771841
 50
228.3103349602693868
 51
260.7300224222158249
  0
ARC
  5
8BA0
  8
0
 10
3325.0880267074180665
 20
193.7048166140965009
 30
0.0
 40
0.0645369333191782
 50
259.9705928458565722
 51
293.770900354086109
  0
ARC
  5
8BA1
  8
0
 10
3325.0964562172780461
 20
193.6891228369603084
 30
0.0
 40
0.0467973782742005
 50
292.0706193185906727
 51
354.6089032123636002
  0
CIRCLE
  5
8BA2
  8
0
 10
3325.0871403497208121
 20
193.6805255492768936
 30
0.0
 40
0.0166555298752413
  0
ARC
  5
8BA3
  8
0
 10
3325.078216112777227
 20
193.7016937436669934
 30
0.0
 40
0.0552293641759222
 50
107.8497920275986957
 51
151.9206832870582957
  0
ARC
  5
8BA4
  8
0
 10
3325.0877578161680503
 20
193.6793656817148133
 30
0.0
 40
0.0794389175188702
 50
66.5133725592081504
 51
109.4644227635472049
  0
ARC
  5
8BA5
  8
0
 10
3325.0966663463150326
 20
193.6988145312394067
 30
0.0
 40
0.058052498612662
 50
27.9345160898193683
 51
66.9273472775674207
  0
ARC
  5
8BA6
  8
0
 10
3325.0787642718851203
 20
193.68366761594541
 30
0.0
 40
0.0467562347019241
 50
105.069585074858395
 51
177.5366931257223939
  0
ARC
  5
8BA7
  8
0
 10
3325.0867172377998031
 20
193.6668618352601925
 30
0.0
 40
0.0651359462523046
 50
50.132251168781977
 51
107.9825171503883041
  0
ARC
  5
8BA8
  8
0
 10
3325.1005721292108319
 20
193.6848277397357947
 30
0.0
 40
0.0424745834202148
 50
359.8628319953971868
 51
48.9417612339857229
  0
ARC
  5
8BA9
  8
0
 10
3325.0707942671479032
 20
193.7091260320808885
 30
0.0
 40
0.0452865399089404
 50
155.8002586547468127
 51
211.1840303444897131
  0
ARC
  5
8BAA
  8
0
 10
3325.1143858719351556
 20
193.7090671896467029
 30
0.0
 40
0.0376022297732119
 50
319.6592356188592134
 51
26.7807757367556682
  0
LINE
  5
8BAB
  8
0
 10
3324.4728131098140693
 20
193.3580769409273046
 30
0.0
 11
3324.4702492869128037
 21
193.4000896034272898
 31
0.0
  0
LINE
  5
8BAC
  8
0
 10
3324.5838084585238903
 20
193.3571258162818935
 30
0.0
 11
3324.5887166432130471
 21
193.3984096902273109
 31
0.0
  0
ARC
  5
8BAD
  8
0
 10
3324.5167221191400131
 20
193.3609430018574926
 30
0.0
 40
0.0440024477195299
 50
183.7345542585634064
 51
228.6401698391383093
  0
ARC
  5
8BAE
  8
0
 10
3324.5271066548111776
 20
193.3722217238187966
 30
0.0
 40
0.0593309059771841
 50
228.3103349602693868
 51
260.7300224222158249
  0
ARC
  5
8BAF
  8
0
 10
3324.5287885750290116
 20
193.3772163761128979
 30
0.0
 40
0.0645369333191782
 50
259.9705928458565722
 51
293.770900354086109
  0
ARC
  5
8BB0
  8
0
 10
3324.5372180848899006
 20
193.3615225989767055
 30
0.0
 40
0.0467973782742005
 50
292.0706193185906727
 51
354.6089032123636002
  0
CIRCLE
  5
8BB1
  8
0
 10
3324.5279022173331214
 20
193.3529253112934043
 30
0.0
 40
0.0166555298752413
  0
ARC
  5
8BB2
  8
0
 10
3324.518977980388172
 20
193.3740935056833905
 30
0.0
 40
0.0552293641759222
 50
107.8497920275986957
 51
151.9206832870582957
  0
ARC
  5
8BB3
  8
0
 10
3324.5285196837789954
 20
193.3517654437312956
 30
0.0
 40
0.0794389175188702
 50
66.5133725592081504
 51
109.4644227635472049
  0
ARC
  5
8BB4
  8
0
 10
3324.5374282139259776
 20
193.3712142932558038
 30
0.0
 40
0.058052498612662
 50
27.9345160898193683
 51
66.9273472775674207
  0
ARC
  5
8BB5
  8
0
 10
3324.5195261394960653
 20
193.3560673779618924
 30
0.0
 40
0.0467562347019241
 50
105.069585074858395
 51
177.5366931257223939
  0
ARC
  5
8BB6
  8
0
 10
3324.5274791054121124
 20
193.3392615972767032
 30
0.0
 40
0.0651359462523046
 50
50.132251168781977
 51
107.9825171503883041
  0
ARC
  5
8BB7
  8
0
 10
3324.5413339968231412
 20
193.3572275017523054
 30
0.0
 40
0.0424745834202148
 50
359.8628319953971868
 51
48.9417612339857229
  0
ARC
  5
8BB8
  8
0
 10
3324.5115561347588482
 20
193.381525794097314
 30
0.0
 40
0.0452865399089404
 50
155.8002586547468127
 51
211.1840303444897131
  0
ARC
  5
8BB9
  8
0
 10
3324.5551477395470101
 20
193.3814669516632136
 30
0.0
 40
0.0376022297732119
 50
319.6592356188592134
 51
26.7807757367556682
  0
LINE
  5
8BBA
  8
0
 10
3324.4728131792021486
 20
193.6065540617107956
 30
0.0
 11
3324.4702493563017924
 21
193.6485667242108093
 31
0.0
  0
LINE
  5
8BBB
  8
0
 10
3324.5838085279119696
 20
193.6056029370654983
 30
0.0
 11
3324.5887167126020358
 21
193.6468868110108019
 31
0.0
  0
ARC
  5
8BBC
  8
0
 10
3324.5167221885290019
 20
193.6094201226410121
 30
0.0
 40
0.0440024477195299
 50
183.7345542585634064
 51
228.6401698391383093
  0
ARC
  5
8BBD
  8
0
 10
3324.5271067241988021
 20
193.6206988446024013
 30
0.0
 40
0.0593309059771841
 50
228.3103349602693868
 51
260.7300224222158249
  0
ARC
  5
8BBE
  8
0
 10
3324.5287886444180003
 20
193.6256934968965027
 30
0.0
 40
0.0645369333191782
 50
259.9705928458565722
 51
293.770900354086109
  0
ARC
  5
8BBF
  8
0
 10
3324.5372181542788894
 20
193.6099997197603102
 30
0.0
 40
0.0467973782742005
 50
292.0706193185906727
 51
354.6089032123636002
  0
CIRCLE
  5
8BC0
  8
0
 10
3324.5279022867221101
 20
193.6014024320768954
 30
0.0
 40
0.0166555298752413
  0
ARC
  5
8BC1
  8
0
 10
3324.5189780497771608
 20
193.62257062646691
 30
0.0
 40
0.0552293641759222
 50
107.8497920275986957
 51
151.9206832870582957
  0
ARC
  5
8BC2
  8
0
 10
3324.5285197531679842
 20
193.6002425645147866
 30
0.0
 40
0.0794389175188702
 50
66.5133725592081504
 51
109.4644227635472049
  0
ARC
  5
8BC3
  8
0
 10
3324.5374282833149664
 20
193.6196914140394085
 30
0.0
 40
0.058052498612662
 50
27.9345160898193683
 51
66.9273472775674207
  0
ARC
  5
8BC4
  8
0
 10
3324.5195262088850541
 20
193.6045444987454118
 30
0.0
 40
0.0467562347019241
 50
105.069585074858395
 51
177.5366931257223939
  0
ARC
  5
8BC5
  8
0
 10
3324.5274791748001917
 20
193.5877387180601943
 30
0.0
 40
0.0651359462523046
 50
50.132251168781977
 51
107.9825171503883041
  0
ARC
  5
8BC6
  8
0
 10
3324.5413340662112205
 20
193.6057046225357965
 30
0.0
 40
0.0424745834202148
 50
359.8628319953971868
 51
48.9417612339857229
  0
ARC
  5
8BC7
  8
0
 10
3324.511556204147837
 20
193.6300029148808903
 30
0.0
 40
0.0452865399089404
 50
155.8002586547468127
 51
211.1840303444897131
  0
ARC
  5
8BC8
  8
0
 10
3324.5551478089350894
 20
193.6299440724467047
 30
0.0
 40
0.0376022297732119
 50
319.6592356188592134
 51
26.7807757367556682
  0
LINE
  5
8BC9
  8
0
 10
3324.4728131933029545
 20
193.8653445991108129
 30
0.0
 11
3324.4702493704021435
 21
193.9073572616107981
 31
0.0
  0
LINE
  5
8BCA
  8
0
 10
3324.5838085420118659
 20
193.8643934744654018
 30
0.0
 11
3324.5887167267019322
 21
193.9056773484109044
 31
0.0
  0
ARC
  5
8BCB
  8
0
 10
3324.5167222026279887
 20
193.8682106600410009
 30
0.0
 40
0.0440024477195299
 50
183.7345542585634064
 51
228.6401698391383093
  0
ARC
  5
8BCC
  8
0
 10
3324.5271067382991532
 20
193.8794893820023901
 30
0.0
 40
0.0593309059771841
 50
228.3103349602693868
 51
260.7300224222158249
  0
ARC
  5
8BCD
  8
0
 10
3324.5287886585169872
 20
193.8844840342964915
 30
0.0
 40
0.0645369333191782
 50
259.9705928458565722
 51
293.770900354086109
  0
ARC
  5
8BCE
  8
0
 10
3324.5372181683787858
 20
193.868790257160299
 30
0.0
 40
0.0467973782742005
 50
292.0706193185906727
 51
354.6089032123636002
  0
CIRCLE
  5
8BCF
  8
0
 10
3324.5279023008220065
 20
193.8601929694769126
 30
0.0
 40
0.0166555298752413
  0
ARC
  5
8BD0
  8
0
 10
3324.5189780638770571
 20
193.8813611638668988
 30
0.0
 40
0.0552293641759222
 50
107.8497920275986957
 51
151.9206832870582957
  0
ARC
  5
8BD1
  8
0
 10
3324.528519767266971
 20
193.8590331019148039
 30
0.0
 40
0.0794389175188702
 50
66.5133725592081504
 51
109.4644227635472049
  0
ARC
  5
8BD2
  8
0
 10
3324.5374282974148628
 20
193.8784819514393973
 30
0.0
 40
0.058052498612662
 50
27.9345160898193683
 51
66.9273472775674207
  0
ARC
  5
8BD3
  8
0
 10
3324.5195262229849504
 20
193.8633350361454006
 30
0.0
 40
0.0467562347019241
 50
105.069585074858395
 51
177.5366931257223939
  0
ARC
  5
8BD4
  8
0
 10
3324.527479188900088
 20
193.8465292554602115
 30
0.0
 40
0.0651359462523046
 50
50.132251168781977
 51
107.9825171503883041
  0
ARC
  5
8BD5
  8
0
 10
3324.5413340803102074
 20
193.8644951599358137
 30
0.0
 40
0.0424745834202148
 50
359.8628319953971868
 51
48.9417612339857229
  0
ARC
  5
8BD6
  8
0
 10
3324.5115562182481881
 20
193.8887934522809076
 30
0.0
 40
0.0452865399089404
 50
155.8002586547468127
 51
211.1840303444897131
  0
ARC
  5
8BD7
  8
0
 10
3324.5551478230358953
 20
193.8887346098466935
 30
0.0
 40
0.0376022297732119
 50
319.6592356188592134
 51
26.7807757367556682
  0
LINE
  5
8BD8
  8
0
 10
3324.4728131646020302
 20
194.1343397564108955
 30
0.0
 11
3324.4702493417021287
 21
194.1763524189109091
 31
0.0
  0
LINE
  5
8BD9
  8
0
 10
3324.5838085133118511
 20
194.1333886317653992
 30
0.0
 11
3324.5887166980019174
 21
194.1746725057107881
 31
0.0
  0
ARC
  5
8BDA
  8
0
 10
3324.5167221739288834
 20
194.1372058173409982
 30
0.0
 40
0.0440024477195299
 50
183.7345542585634064
 51
228.6401698391383093
  0
ARC
  5
8BDB
  8
0
 10
3324.5271067095991384
 20
194.1484845393023875
 30
0.0
 40
0.0593309059771841
 50
228.3103349602693868
 51
260.7300224222158249
  0
ARC
  5
8BDC
  8
0
 10
3324.5287886298169724
 20
194.1534791915964888
 30
0.0
 40
0.0645369333191782
 50
259.9705928458565722
 51
293.770900354086109
  0
ARC
  5
8BDD
  8
0
 10
3324.5372181396792257
 20
194.1377854144602964
 30
0.0
 40
0.0467973782742005
 50
292.0706193185906727
 51
354.6089032123636002
  0
CIRCLE
  5
8BDE
  8
0
 10
3324.5279022721219917
 20
194.1291881267769099
 30
0.0
 40
0.0166555298752413
  0
ARC
  5
8BDF
  8
0
 10
3324.5189780351779518
 20
194.1503563211668961
 30
0.0
 40
0.0552293641759222
 50
107.8497920275986957
 51
151.9206832870582957
  0
ARC
  5
8BE0
  8
0
 10
3324.5285197385678657
 20
194.1280282592148012
 30
0.0
 40
0.0794389175188702
 50
66.5133725592081504
 51
109.4644227635472049
  0
ARC
  5
8BE1
  8
0
 10
3324.5374282687148479
 20
194.1474771087393947
 30
0.0
 40
0.058052498612662
 50
27.9345160898193683
 51
66.9273472775674207
  0
ARC
  5
8BE2
  8
0
 10
3324.5195261942849356
 20
194.132330193445398
 30
0.0
 40
0.0467562347019241
 50
105.069585074858395
 51
177.5366931257223939
  0
ARC
  5
8BE3
  8
0
 10
3324.5274791602000732
 20
194.1155244127602089
 30
0.0
 40
0.0651359462523046
 50
50.132251168781977
 51
107.9825171503883041
  0
ARC
  5
8BE4
  8
0
 10
3324.541334051611102
 20
194.1334903172358111
 30
0.0
 40
0.0424745834202148
 50
359.8628319953971868
 51
48.9417612339857229
  0
ARC
  5
8BE5
  8
0
 10
3324.511556189546809
 20
194.1577886095809049
 30
0.0
 40
0.0452865399089404
 50
155.8002586547468127
 51
211.1840303444897131
  0
ARC
  5
8BE6
  8
0
 10
3324.555147794334971
 20
194.1577297671466908
 30
0.0
 40
0.0376022297732119
 50
319.6592356188592134
 51
26.7807757367556682
  0
LINE
  5
8BE7
  8
0
 10
3323.7608362214018598
 20
193.4590189937107994
 30
0.0
 11
3323.7582723985019584
 21
193.501031656210813
 31
0.0
  0
LINE
  5
8BE8
  8
0
 10
3323.8718315701121355
 20
193.458067869065502
 30
0.0
 11
3323.8767397548022018
 21
193.4993517430108056
 31
0.0
  0
ARC
  5
8BE9
  8
0
 10
3323.8047452307291678
 20
193.4618850546409874
 30
0.0
 40
0.0440024477195299
 50
183.7345542585634064
 51
228.6401698391383093
  0
ARC
  5
8BEA
  8
0
 10
3323.8151297663980586
 20
193.4731637766024051
 30
0.0
 40
0.0593309059771841
 50
228.3103349602693868
 51
260.7300224222158249
  0
ARC
  5
8BEB
  8
0
 10
3323.816811686616802
 20
193.4781584288965064
 30
0.0
 40
0.0645369333191782
 50
259.9705928458565722
 51
293.770900354086109
  0
ARC
  5
8BEC
  8
0
 10
3323.8252411964790554
 20
193.4624646517603139
 30
0.0
 40
0.0467973782742005
 50
292.0706193185906727
 51
354.6089032123636002
  0
CIRCLE
  5
8BED
  8
0
 10
3323.8159253289209119
 20
193.4538673640768991
 30
0.0
 40
0.0166555298752413
  0
ARC
  5
8BEE
  8
0
 10
3323.807001091976872
 20
193.4750355584669137
 30
0.0
 40
0.0552293641759222
 50
107.8497920275986957
 51
151.9206832870582957
  0
ARC
  5
8BEF
  8
0
 10
3323.8165427953681501
 20
193.4527074965149041
 30
0.0
 40
0.0794389175188702
 50
66.5133725592081504
 51
109.4644227635472049
  0
ARC
  5
8BF0
  8
0
 10
3323.8254513255151323
 20
193.4721563460394123
 30
0.0
 40
0.058052498612662
 50
27.9345160898193683
 51
66.9273472775674207
  0
ARC
  5
8BF1
  8
0
 10
3323.80754925108522
 20
193.4570094307453871
 30
0.0
 40
0.0467562347019241
 50
105.069585074858395
 51
177.5366931257223939
  0
ARC
  5
8BF2
  8
0
 10
3323.8155022169999029
 20
193.440203650060198
 30
0.0
 40
0.0651359462523046
 50
50.132251168781977
 51
107.9825171503883041
  0
ARC
  5
8BF3
  8
0
 10
3323.8293571084109317
 20
193.4581695545358002
 30
0.0
 40
0.0424745834202148
 50
359.8628319953971868
 51
48.9417612339857229
  0
ARC
  5
8BF4
  8
0
 10
3323.7995792463480029
 20
193.4824678468808941
 30
0.0
 40
0.0452865399089404
 50
155.8002586547468127
 51
211.1840303444897131
  0
ARC
  5
8BF5
  8
0
 10
3323.8431708511348006
 20
193.4824090044467084
 30
0.0
 40
0.0376022297732119
 50
319.6592356188592134
 51
26.7807757367556682
  0
LINE
  5
8BF6
  8
0
 10
3323.9127848029020242
 20
193.6856997773107878
 30
0.0
 11
3323.9102209800021228
 21
193.7277124398108015
 31
0.0
  0
LINE
  5
8BF7
  8
0
 10
3324.0237801516118452
 20
193.6847486526654052
 30
0.0
 11
3324.0286883363019115
 21
193.7260325266109078
 31
0.0
  0
ARC
  5
8BF8
  8
0
 10
3323.9566938122288775
 20
193.6885658382410043
 30
0.0
 40
0.0440024477195299
 50
183.7345542585634064
 51
228.6401698391383093
  0
ARC
  5
8BF9
  8
0
 10
3323.967078347898223
 20
193.6998445602023082
 30
0.0
 40
0.0593309059771841
 50
228.3103349602693868
 51
260.7300224222158249
  0
ARC
  5
8BFA
  8
0
 10
3323.968760268117876
 20
193.7048392124964948
 30
0.0
 40
0.0645369333191782
 50
259.9705928458565722
 51
293.770900354086109
  0
ARC
  5
8BFB
  8
0
 10
3323.9771897779792198
 20
193.6891454353603024
 30
0.0
 40
0.0467973782742005
 50
292.0706193185906727
 51
354.6089032123636002
  0
CIRCLE
  5
8BFC
  8
0
 10
3323.9678739104210763
 20
193.6805481476768875
 30
0.0
 40
0.0166555298752413
  0
ARC
  5
8BFD
  8
0
 10
3323.9589496734770364
 20
193.7017163420669021
 30
0.0
 40
0.0552293641759222
 50
107.8497920275986957
 51
151.9206832870582957
  0
ARC
  5
8BFE
  8
0
 10
3323.9684913768678598
 20
193.6793882801148072
 30
0.0
 40
0.0794389175188702
 50
66.5133725592081504
 51
109.4644227635472049
  0
ARC
  5
8BFF
  8
0
 10
3323.977399907014842
 20
193.6988371296394007
 30
0.0
 40
0.058052498612662
 50
27.9345160898193683
 51
66.9273472775674207
  0
ARC
  5
8C00
  8
0
 10
3323.9594978325849297
 20
193.683690214345404
 30
0.0
 40
0.0467562347019241
 50
105.069585074858395
 51
177.5366931257223939
  0
ARC
  5
8C01
  8
0
 10
3323.9674507985000673
 20
193.6668844336601865
 30
0.0
 40
0.0651359462523046
 50
50.132251168781977
 51
107.9825171503883041
  0
ARC
  5
8C02
  8
0
 10
3323.9813056899110961
 20
193.6848503381357887
 30
0.0
 40
0.0424745834202148
 50
359.8628319953971868
 51
48.9417612339857229
  0
ARC
  5
8C03
  8
0
 10
3323.9515278278481674
 20
193.7091486304809109
 30
0.0
 40
0.0452865399089404
 50
155.8002586547468127
 51
211.1840303444897131
  0
ARC
  5
8C04
  8
0
 10
3323.9951194326349651
 20
193.7090897880466969
 30
0.0
 40
0.0376022297732119
 50
319.6592356188592134
 51
26.7807757367556682
  0
LINE
  5
8C05
  8
0
 10
3324.0196812118520029
 20
194.2685805837608086
 30
0.0
 11
3324.017117388951192
 21
194.3105932462609076
 31
0.0
  0
LINE
  5
8C06
  8
0
 10
3324.1306765605618239
 20
194.2676294591153976
 30
0.0
 11
3324.1355847452518901
 21
194.3089133330609002
 31
0.0
  0
ARC
  5
8C07
  8
0
 10
3324.0635902211788562
 20
194.2714466446909967
 30
0.0
 40
0.0440024477195299
 50
183.7345542585634064
 51
228.6401698391383093
  0
ARC
  5
8C08
  8
0
 10
3324.0739747568491111
 20
194.2827253666523859
 30
0.0
 40
0.0593309059771841
 50
228.3103349602693868
 51
260.7300224222158249
  0
ARC
  5
8C09
  8
0
 10
3324.0756566770669451
 20
194.2877200189464872
 30
0.0
 40
0.0645369333191782
 50
259.9705928458565722
 51
293.770900354086109
  0
ARC
  5
8C0A
  8
0
 10
3324.0840861869291984
 20
194.2720262418102948
 30
0.0
 40
0.0467973782742005
 50
292.0706193185906727
 51
354.6089032123636002
  0
CIRCLE
  5
8C0B
  8
0
 10
3324.0747703193719644
 20
194.2634289541269084
 30
0.0
 40
0.0166555298752413
  0
ARC
  5
8C0C
  8
0
 10
3324.0658460824270151
 20
194.2845971485168945
 30
0.0
 40
0.0552293641759222
 50
107.8497920275986957
 51
151.9206832870582957
  0
ARC
  5
8C0D
  8
0
 10
3324.0753877858178384
 20
194.2622690865647996
 30
0.0
 40
0.0794389175188702
 50
66.5133725592081504
 51
109.4644227635472049
  0
ARC
  5
8C0E
  8
0
 10
3324.0842963159648207
 20
194.2817179360893931
 30
0.0
 40
0.058052498612662
 50
27.9345160898193683
 51
66.9273472775674207
  0
ARC
  5
8C0F
  8
0
 10
3324.0663942415358179
 20
194.2665710207953964
 30
0.0
 40
0.0467562347019241
 50
105.069585074858395
 51
177.5366931257223939
  0
ARC
  5
8C10
  8
0
 10
3324.074347207450046
 20
194.2497652401102073
 30
0.0
 40
0.0651359462523046
 50
50.132251168781977
 51
107.9825171503883041
  0
ARC
  5
8C11
  8
0
 10
3324.0882020988619843
 20
194.2677311445858095
 30
0.0
 40
0.0424745834202148
 50
359.8628319953971868
 51
48.9417612339857229
  0
ARC
  5
8C12
  8
0
 10
3324.058424236798146
 20
194.2920294369309033
 30
0.0
 40
0.0452865399089404
 50
155.8002586547468127
 51
211.1840303444897131
  0
ARC
  5
8C13
  8
0
 10
3324.1020158415849437
 20
194.2919705944966893
 30
0.0
 40
0.0376022297732119
 50
319.6592356188592134
 51
26.7807757367556682
  0
LINE
  5
8C14
  8
0
 10
3323.7237469278520621
 20
194.0848121093108034
 30
0.0
 11
3323.7211831049521606
 21
194.1268247718107887
 31
0.0
  0
LINE
  5
8C15
  8
0
 10
3323.834742276561883
 20
194.0838609846655061
 30
0.0
 11
3323.8396504612519493
 21
194.1251448586108097
 31
0.0
  0
ARC
  5
8C16
  8
0
 10
3323.7676559371780058
 20
194.0876781702409914
 30
0.0
 40
0.0440024477195299
 50
183.7345542585634064
 51
228.6401698391383093
  0
ARC
  5
8C17
  8
0
 10
3323.7780404728491703
 20
194.0989568922024091
 30
0.0
 40
0.0593309059771841
 50
228.3103349602693868
 51
260.7300224222158249
  0
ARC
  5
8C18
  8
0
 10
3323.7797223930670043
 20
194.1039515444965105
 30
0.0
 40
0.0645369333191782
 50
259.9705928458565722
 51
293.770900354086109
  0
ARC
  5
8C19
  8
0
 10
3323.7881519029288029
 20
194.0882577673602896
 30
0.0
 40
0.0467973782742005
 50
292.0706193185906727
 51
354.6089032123636002
  0
CIRCLE
  5
8C1A
  8
0
 10
3323.7788360353720236
 20
194.0796604796769032
 30
0.0
 40
0.0166555298752413
  0
ARC
  5
8C1B
  8
0
 10
3323.7699117984270742
 20
194.1008286740668893
 30
0.0
 40
0.0552293641759222
 50
107.8497920275986957
 51
151.9206832870582957
  0
ARC
  5
8C1C
  8
0
 10
3323.7794535018169881
 20
194.0785006121147944
 30
0.0
 40
0.0794389175188702
 50
66.5133725592081504
 51
109.4644227635472049
  0
ARC
  5
8C1D
  8
0
 10
3323.7883620319648799
 20
194.0979494616393879
 30
0.0
 40
0.058052498612662
 50
27.9345160898193683
 51
66.9273472775674207
  0
ARC
  5
8C1E
  8
0
 10
3323.7704599575349675
 20
194.0828025463453912
 30
0.0
 40
0.0467562347019241
 50
105.069585074858395
 51
177.5366931257223939
  0
ARC
  5
8C1F
  8
0
 10
3323.7784129234501052
 20
194.0659967656602021
 30
0.0
 40
0.0651359462523046
 50
50.132251168781977
 51
107.9825171503883041
  0
ARC
  5
8C20
  8
0
 10
3323.792267814861134
 20
194.0839626701358043
 30
0.0
 40
0.0424745834202148
 50
359.8628319953971868
 51
48.9417612339857229
  0
ARC
  5
8C21
  8
0
 10
3323.762489952796841
 20
194.1082609624808981
 30
0.0
 40
0.0452865399089404
 50
155.8002586547468127
 51
211.1840303444897131
  0
ARC
  5
8C22
  8
0
 10
3323.8060815575850029
 20
194.1082021200467125
 30
0.0
 40
0.0376022297732119
 50
319.6592356188592134
 51
26.7807757367556682
  0
LINE
  5
8C23
  8
0
 10
3323.4398699509019934
 20
193.9109563128108107
 30
0.0
 11
3323.437306128002092
 21
193.9529689753109096
 31
0.0
  0
LINE
  5
8C24
  8
0
 10
3323.5508652996118144
 20
193.9100051881653997
 30
0.0
 11
3323.5557734843018807
 21
193.9512890621107886
 31
0.0
  0
ARC
  5
8C25
  8
0
 10
3323.4837789602279372
 20
193.9138223737409987
 30
0.0
 40
0.0440024477195299
 50
183.7345542585634064
 51
228.6401698391383093
  0
ARC
  5
8C26
  8
0
 10
3323.4941634958991017
 20
193.925101095702388
 30
0.0
 40
0.0593309059771841
 50
228.3103349602693868
 51
260.7300224222158249
  0
ARC
  5
8C27
  8
0
 10
3323.4958454161169357
 20
193.9300957479964893
 30
0.0
 40
0.0645369333191782
 50
259.9705928458565722
 51
293.770900354086109
  0
ARC
  5
8C28
  8
0
 10
3323.504274925979189
 20
193.9144019708602968
 30
0.0
 40
0.0467973782742005
 50
292.0706193185906727
 51
354.6089032123636002
  0
CIRCLE
  5
8C29
  8
0
 10
3323.494959058421955
 20
193.9058046831769104
 30
0.0
 40
0.0166555298752413
  0
ARC
  5
8C2A
  8
0
 10
3323.4860348214779151
 20
193.9269728775668966
 30
0.0
 40
0.0552293641759222
 50
107.8497920275986957
 51
151.9206832870582957
  0
ARC
  5
8C2B
  8
0
 10
3323.4955765248669195
 20
193.9046448156148017
 30
0.0
 40
0.0794389175188702
 50
66.5133725592081504
 51
109.4644227635472049
  0
ARC
  5
8C2C
  8
0
 10
3323.5044850550148112
 20
193.9240936651393952
 30
0.0
 40
0.058052498612662
 50
27.9345160898193683
 51
66.9273472775674207
  0
ARC
  5
8C2D
  8
0
 10
3323.4865829805848989
 20
193.9089467498453985
 30
0.0
 40
0.0467562347019241
 50
105.069585074858395
 51
177.5366931257223939
  0
ARC
  5
8C2E
  8
0
 10
3323.4945359465000365
 20
193.8921409691602094
 30
0.0
 40
0.0651359462523046
 50
50.132251168781977
 51
107.9825171503883041
  0
ARC
  5
8C2F
  8
0
 10
3323.5083908379110653
 20
193.9101068736358116
 30
0.0
 40
0.0424745834202148
 50
359.8628319953971868
 51
48.9417612339857229
  0
ARC
  5
8C30
  8
0
 10
3323.4786129758481366
 20
193.9344051659809054
 30
0.0
 40
0.0452865399089404
 50
155.8002586547468127
 51
211.1840303444897131
  0
ARC
  5
8C31
  8
0
 10
3323.5222045806358437
 20
193.9343463235466913
 30
0.0
 40
0.0376022297732119
 50
319.6592356188592134
 51
26.7807757367556682
  0
LINE
  5
8C32
  8
0
 10
3323.1558367830521092
 20
193.7469338384107971
 30
0.0
 11
3323.1532729601522078
 21
193.7889465009108108
 31
0.0
  0
LINE
  5
8C33
  8
0
 10
3323.2668321317619302
 20
193.7459827137654997
 30
0.0
 11
3323.2717403164519965
 21
193.7872665877108034
 31
0.0
  0
ARC
  5
8C34
  8
0
 10
3323.199745792378053
 20
193.7497998993410135
 30
0.0
 40
0.0440024477195299
 50
183.7345542585634064
 51
228.6401698391383093
  0
ARC
  5
8C35
  8
0
 10
3323.2101303280492175
 20
193.7610786213024028
 30
0.0
 40
0.0593309059771841
 50
228.3103349602693868
 51
260.7300224222158249
  0
ARC
  5
8C36
  8
0
 10
3323.2118122482670515
 20
193.7660732735965041
 30
0.0
 40
0.0645369333191782
 50
259.9705928458565722
 51
293.770900354086109
  0
ARC
  5
8C37
  8
0
 10
3323.2202417581288501
 20
193.7503794964603117
 30
0.0
 40
0.0467973782742005
 50
292.0706193185906727
 51
354.6089032123636002
  0
CIRCLE
  5
8C38
  8
0
 10
3323.2109258905720708
 20
193.7417822087768968
 30
0.0
 40
0.0166555298752413
  0
ARC
  5
8C39
  8
0
 10
3323.2020016536280309
 20
193.7629504031669967
 30
0.0
 40
0.0552293641759222
 50
107.8497920275986957
 51
151.9206832870582957
  0
ARC
  5
8C3A
  8
0
 10
3323.2115433570170353
 20
193.7406223412147881
 30
0.0
 40
0.0794389175188702
 50
66.5133725592081504
 51
109.4644227635472049
  0
ARC
  5
8C3B
  8
0
 10
3323.220451887164927
 20
193.76007119073941
 30
0.0
 40
0.058052498612662
 50
27.9345160898193683
 51
66.9273472775674207
  0
ARC
  5
8C3C
  8
0
 10
3323.2025498127350147
 20
193.7449242754454133
 30
0.0
 40
0.0467562347019241
 50
105.069585074858395
 51
177.5366931257223939
  0
ARC
  5
8C3D
  8
0
 10
3323.2105027786501523
 20
193.7281184947601957
 30
0.0
 40
0.0651359462523046
 50
50.132251168781977
 51
107.9825171503883041
  0
ARC
  5
8C3E
  8
0
 10
3323.2243576700611811
 20
193.7460843992357979
 30
0.0
 40
0.0424745834202148
 50
359.8628319953971868
 51
48.9417612339857229
  0
ARC
  5
8C3F
  8
0
 10
3323.1945798079977976
 20
193.7703826915808918
 30
0.0
 40
0.0452865399089404
 50
155.8002586547468127
 51
211.1840303444897131
  0
ARC
  5
8C40
  8
0
 10
3323.2381714127859595
 20
193.7703238491467062
 30
0.0
 40
0.0376022297732119
 50
319.6592356188592134
 51
26.7807757367556682
  0
LINE
  5
8C41
  8
0
 10
3322.7486799199018606
 20
194.1784130873608945
 30
0.0
 11
3322.7461160970028686
 21
194.2204257498609081
 31
0.0
  0
LINE
  5
8C42
  8
0
 10
3322.8596752686121363
 20
194.1774619627153982
 30
0.0
 11
3322.8645834533022025
 21
194.2187458366609007
 31
0.0
  0
ARC
  5
8C43
  8
0
 10
3322.7925889292291686
 20
194.1812791482909972
 30
0.0
 40
0.0440024477195299
 50
183.7345542585634064
 51
228.6401698391383093
  0
ARC
  5
8C44
  8
0
 10
3322.8029734648989688
 20
194.1925578702523012
 30
0.0
 40
0.0593309059771841
 50
228.3103349602693868
 51
260.7300224222158249
  0
ARC
  5
8C45
  8
0
 10
3322.8046553851168028
 20
194.1975525225464878
 30
0.0
 40
0.0645369333191782
 50
259.9705928458565722
 51
293.770900354086109
  0
ARC
  5
8C46
  8
0
 10
3322.8130848949790561
 20
194.1818587454102953
 30
0.0
 40
0.0467973782742005
 50
292.0706193185906727
 51
354.6089032123636002
  0
CIRCLE
  5
8C47
  8
0
 10
3322.8037690274218221
 20
194.1732614577269089
 30
0.0
 40
0.0166555298752413
  0
ARC
  5
8C48
  8
0
 10
3322.7948447904777822
 20
194.1944296521168951
 30
0.0
 40
0.0552293641759222
 50
107.8497920275986957
 51
151.9206832870582957
  0
ARC
  5
8C49
  8
0
 10
3322.8043864938667866
 20
194.1721015901648002
 30
0.0
 40
0.0794389175188702
 50
66.5133725592081504
 51
109.4644227635472049
  0
ARC
  5
8C4A
  8
0
 10
3322.8132950240151331
 20
194.1915504396893937
 30
0.0
 40
0.058052498612662
 50
27.9345160898193683
 51
66.9273472775674207
  0
ARC
  5
8C4B
  8
0
 10
3322.7953929495852208
 20
194.176403524395397
 30
0.0
 40
0.0467562347019241
 50
105.069585074858395
 51
177.5366931257223939
  0
ARC
  5
8C4C
  8
0
 10
3322.8033459154999036
 20
194.1595977437102079
 30
0.0
 40
0.0651359462523046
 50
50.132251168781977
 51
107.9825171503883041
  0
ARC
  5
8C4D
  8
0
 10
3322.8172008069109324
 20
194.1775636481858101
 30
0.0
 40
0.0424745834202148
 50
359.8628319953971868
 51
48.9417612339857229
  0
ARC
  5
8C4E
  8
0
 10
3322.7874229448470942
 20
194.2018619405309039
 30
0.0
 40
0.0452865399089404
 50
155.8002586547468127
 51
211.1840303444897131
  0
ARC
  5
8C4F
  8
0
 10
3322.8310145496348014
 20
194.2018030980966898
 30
0.0
 40
0.0376022297732119
 50
319.6592356188592134
 51
26.7807757367556682
  0
LINE
  5
8C50
  8
0
 10
3323.1250848691529427
 20
194.2478710422109032
 30
0.0
 11
3323.1225210462521318
 21
194.2898837047108032
 31
0.0
  0
LINE
  5
8C51
  8
0
 10
3323.2360802178618542
 20
194.2469199175654069
 30
0.0
 11
3323.2409884025519204
 21
194.2882037915109095
 31
0.0
  0
ARC
  5
8C52
  8
0
 10
3323.168993878477977
 20
194.2507371031410059
 30
0.0
 40
0.0440024477195299
 50
183.7345542585634064
 51
228.6401698391383093
  0
ARC
  5
8C53
  8
0
 10
3323.1793784141491415
 20
194.2620158251023099
 30
0.0
 40
0.0593309059771841
 50
228.3103349602693868
 51
260.7300224222158249
  0
ARC
  5
8C54
  8
0
 10
3323.1810603343669754
 20
194.2670104773964965
 30
0.0
 40
0.0645369333191782
 50
259.9705928458565722
 51
293.770900354086109
  0
ARC
  5
8C55
  8
0
 10
3323.189489844228774
 20
194.2513167002603041
 30
0.0
 40
0.0467973782742005
 50
292.0706193185906727
 51
354.6089032123636002
  0
CIRCLE
  5
8C56
  8
0
 10
3323.1801739766719948
 20
194.2427194125768892
 30
0.0
 40
0.0166555298752413
  0
ARC
  5
8C57
  8
0
 10
3323.1712497397270454
 20
194.2638876069669038
 30
0.0
 40
0.0552293641759222
 50
107.8497920275986957
 51
151.9206832870582957
  0
ARC
  5
8C58
  8
0
 10
3323.1807914431169593
 20
194.2415595450148942
 30
0.0
 40
0.0794389175188702
 50
66.5133725592081504
 51
109.4644227635472049
  0
ARC
  5
8C59
  8
0
 10
3323.189699973264851
 20
194.2610083945394024
 30
0.0
 40
0.058052498612662
 50
27.9345160898193683
 51
66.9273472775674207
  0
ARC
  5
8C5A
  8
0
 10
3323.1717978988349387
 20
194.245861479245491
 30
0.0
 40
0.0467562347019241
 50
105.069585074858395
 51
177.5366931257223939
  0
ARC
  5
8C5B
  8
0
 10
3323.1797508647500763
 20
194.2290556985601881
 30
0.0
 40
0.0651359462523046
 50
50.132251168781977
 51
107.9825171503883041
  0
ARC
  5
8C5C
  8
0
 10
3323.1936057561611051
 20
194.2470216030357903
 30
0.0
 40
0.0424745834202148
 50
359.8628319953971868
 51
48.9417612339857229
  0
ARC
  5
8C5D
  8
0
 10
3323.1638278940968121
 20
194.2713198953809126
 30
0.0
 40
0.0452865399089404
 50
155.8002586547468127
 51
211.1840303444897131
  0
ARC
  5
8C5E
  8
0
 10
3323.207419498884974
 20
194.2712610529466986
 30
0.0
 40
0.0376022297732119
 50
319.6592356188592134
 51
26.7807757367556682
  0
LINE
  5
8C5F
  8
0
 10
3322.6106473259019367
 20
194.6864113600609016
 30
0.0
 11
3322.6080835030020353
 21
194.7284240225608016
 31
0.0
  0
LINE
  5
8C60
  8
0
 10
3322.7216426746122124
 20
194.6854602354154054
 30
0.0
 11
3322.7265508593018239
 21
194.7267441093609079
 31
0.0
  0
ARC
  5
8C61
  8
0
 10
3322.6545563352278805
 20
194.6892774209910044
 30
0.0
 40
0.0440024477195299
 50
183.7345542585634064
 51
228.6401698391383093
  0
ARC
  5
8C62
  8
0
 10
3322.664940870899045
 20
194.7005561429523084
 30
0.0
 40
0.0593309059771841
 50
228.3103349602693868
 51
260.7300224222158249
  0
ARC
  5
8C63
  8
0
 10
3322.6666227911177884
 20
194.705550795246495
 30
0.0
 40
0.0645369333191782
 50
259.9705928458565722
 51
293.770900354086109
  0
ARC
  5
8C64
  8
0
 10
3322.6750523009782228
 20
194.6898570181103025
 30
0.0
 40
0.0467973782742005
 50
292.0706193185906727
 51
354.6089032123636002
  0
CIRCLE
  5
8C65
  8
0
 10
3322.6657364334218983
 20
194.6812597304268877
 30
0.0
 40
0.0166555298752413
  0
ARC
  5
8C66
  8
0
 10
3322.6568121964769489
 20
194.7024279248169023
 30
0.0
 40
0.0552293641759222
 50
107.8497920275986957
 51
151.9206832870582957
  0
ARC
  5
8C67
  8
0
 10
3322.6663538998668628
 20
194.6800998628648074
 30
0.0
 40
0.0794389175188702
 50
66.5133725592081504
 51
109.4644227635472049
  0
ARC
  5
8C68
  8
0
 10
3322.6752624300152092
 20
194.6995487123894009
 30
0.0
 40
0.058052498612662
 50
27.9345160898193683
 51
66.9273472775674207
  0
ARC
  5
8C69
  8
0
 10
3322.6573603555848422
 20
194.6844017970954042
 30
0.0
 40
0.0467562347019241
 50
105.069585074858395
 51
177.5366931257223939
  0
ARC
  5
8C6A
  8
0
 10
3322.6653133214999798
 20
194.6675960164101866
 30
0.0
 40
0.0651359462523046
 50
50.132251168781977
 51
107.9825171503883041
  0
ARC
  5
8C6B
  8
0
 10
3322.6791682129110086
 20
194.6855619208857888
 30
0.0
 40
0.0424745834202148
 50
359.8628319953971868
 51
48.9417612339857229
  0
ARC
  5
8C6C
  8
0
 10
3322.6493903508480798
 20
194.7098602132309111
 30
0.0
 40
0.0452865399089404
 50
155.8002586547468127
 51
211.1840303444897131
  0
ARC
  5
8C6D
  8
0
 10
3322.6929819556348775
 20
194.709801370796697
 30
0.0
 40
0.0376022297732119
 50
319.6592356188592134
 51
26.7807757367556682
  0
LINE
  5
8C6E
  8
0
 10
3323.0136990157020591
 20
194.6456579259107968
 30
0.0
 11
3323.0111351928021577
 21
194.6876705884108105
 31
0.0
  0
LINE
  5
8C6F
  8
0
 10
3323.1246943644118801
 20
194.6447068012653858
 30
0.0
 11
3323.1296025491019464
 21
194.6859906752108031
 31
0.0
  0
ARC
  5
8C70
  8
0
 10
3323.0576080250289124
 20
194.6485239868410133
 30
0.0
 40
0.0440024477195299
 50
183.7345542585634064
 51
228.6401698391383093
  0
ARC
  5
8C71
  8
0
 10
3323.0679925606978031
 20
194.6598027088024025
 30
0.0
 40
0.0593309059771841
 50
228.3103349602693868
 51
260.7300224222158249
  0
ARC
  5
8C72
  8
0
 10
3323.0696744809179108
 20
194.6647973610963902
 30
0.0
 40
0.0645369333191782
 50
259.9705928458565722
 51
293.770900354086109
  0
ARC
  5
8C73
  8
0
 10
3323.0781039907787999
 20
194.6491035839603114
 30
0.0
 40
0.0467973782742005
 50
292.0706193185906727
 51
354.6089032123636002
  0
CIRCLE
  5
8C74
  8
0
 10
3323.0687881232211112
 20
194.6405062962768966
 30
0.0
 40
0.0166555298752413
  0
ARC
  5
8C75
  8
0
 10
3323.0598638862770713
 20
194.6616744906669965
 30
0.0
 40
0.0552293641759222
 50
107.8497920275986957
 51
151.9206832870582957
  0
ARC
  5
8C76
  8
0
 10
3323.0694055896678947
 20
194.6393464287147879
 30
0.0
 40
0.0794389175188702
 50
66.5133725592081504
 51
109.4644227635472049
  0
ARC
  5
8C77
  8
0
 10
3323.0783141198148769
 20
194.6587952782394098
 30
0.0
 40
0.058052498612662
 50
27.9345160898193683
 51
66.9273472775674207
  0
ARC
  5
8C78
  8
0
 10
3323.0604120453849646
 20
194.6436483629454131
 30
0.0
 40
0.0467562347019241
 50
105.069585074858395
 51
177.5366931257223939
  0
ARC
  5
8C79
  8
0
 10
3323.0683650113001022
 20
194.6268425822601955
 30
0.0
 40
0.0651359462523046
 50
50.132251168781977
 51
107.9825171503883041
  0
ARC
  5
8C7A
  8
0
 10
3323.082219902711131
 20
194.6448084867357977
 30
0.0
 40
0.0424745834202148
 50
359.8628319953971868
 51
48.9417612339857229
  0
ARC
  5
8C7B
  8
0
 10
3323.0524420406482022
 20
194.6691067790808916
 30
0.0
 40
0.0452865399089404
 50
155.8002586547468127
 51
211.1840303444897131
  0
ARC
  5
8C7C
  8
0
 10
3323.0960336454349999
 20
194.6690479366467059
 30
0.0
 40
0.0376022297732119
 50
319.6592356188592134
 51
26.7807757367556682
  0
LINE
  5
8C7D
  8
0
 10
3323.4168012896020628
 20
194.6145882744608002
 30
0.0
 11
3323.4142374667021613
 21
194.6566009369608139
 31
0.0
  0
LINE
  5
8C7E
  8
0
 10
3323.5277966383118837
 20
194.6136371498153892
 30
0.0
 11
3323.53270482300195
 21
194.6549210237608065
 31
0.0
  0
ARC
  5
8C7F
  8
0
 10
3323.460710298928916
 20
194.6174543353911019
 30
0.0
 40
0.0440024477195299
 50
183.7345542585634064
 51
228.6401698391383093
  0
ARC
  5
8C80
  8
0
 10
3323.4710948345978068
 20
194.6287330573522922
 30
0.0
 40
0.0593309059771841
 50
228.3103349602693868
 51
260.7300224222158249
  0
ARC
  5
8C81
  8
0
 10
3323.4727767548179145
 20
194.6337277096465073
 30
0.0
 40
0.0645369333191782
 50
259.9705928458565722
 51
293.770900354086109
  0
ARC
  5
8C82
  8
0
 10
3323.4812062646788036
 20
194.6180339325102864
 30
0.0
 40
0.0467973782742005
 50
292.0706193185906727
 51
354.6089032123636002
  0
CIRCLE
  5
8C83
  8
0
 10
3323.4718903971211148
 20
194.6094366448269
 30
0.0
 40
0.0166555298752413
  0
ARC
  5
8C84
  8
0
 10
3323.4629661601770749
 20
194.6306048392168861
 30
0.0
 40
0.0552293641759222
 50
107.8497920275986957
 51
151.9206832870582957
  0
ARC
  5
8C85
  8
0
 10
3323.4725078635678983
 20
194.6082767772649049
 30
0.0
 40
0.0794389175188702
 50
66.5133725592081504
 51
109.4644227635472049
  0
ARC
  5
8C86
  8
0
 10
3323.4814163937148805
 20
194.6277256267894131
 30
0.0
 40
0.058052498612662
 50
27.9345160898193683
 51
66.9273472775674207
  0
ARC
  5
8C87
  8
0
 10
3323.4635143192849682
 20
194.612578711495388
 30
0.0
 40
0.0467562347019241
 50
105.069585074858395
 51
177.5366931257223939
  0
ARC
  5
8C88
  8
0
 10
3323.4714672852001058
 20
194.5957729308101989
 30
0.0
 40
0.0651359462523046
 50
50.132251168781977
 51
107.9825171503883041
  0
ARC
  5
8C89
  8
0
 10
3323.4853221766111346
 20
194.6137388352858011
 30
0.0
 40
0.0424745834202148
 50
359.8628319953971868
 51
48.9417612339857229
  0
ARC
  5
8C8A
  8
0
 10
3323.4555443145482059
 20
194.6380371276308949
 30
0.0
 40
0.0452865399089404
 50
155.8002586547468127
 51
211.1840303444897131
  0
ARC
  5
8C8B
  8
0
 10
3323.4991359193350036
 20
194.6379782851967093
 30
0.0
 40
0.0376022297732119
 50
319.6592356188592134
 51
26.7807757367556682
  0
LINE
  5
8C8C
  8
0
 10
3323.8322843088021727
 20
194.593034669110807
 30
0.0
 11
3323.8297204859018166
 21
194.6350473316107923
 31
0.0
  0
LINE
  5
8C8D
  8
0
 10
3323.9432796575129032
 20
194.592083544465396
 30
0.0
 11
3323.94818784220206
 21
194.6333674184108133
 31
0.0
  0
ARC
  5
8C8E
  8
0
 10
3323.876193318129026
 20
194.5959007300409951
 30
0.0
 40
0.0440024477195299
 50
183.7345542585634064
 51
228.6401698391383093
  0
ARC
  5
8C8F
  8
0
 10
3323.8865778537988263
 20
194.6071794520024127
 30
0.0
 40
0.0593309059771841
 50
228.3103349602693868
 51
260.7300224222158249
  0
ARC
  5
8C90
  8
0
 10
3323.8882597740180245
 20
194.6121741042965141
 30
0.0
 40
0.0645369333191782
 50
259.9705928458565722
 51
293.770900354086109
  0
ARC
  5
8C91
  8
0
 10
3323.8966892838789136
 20
194.5964803271602932
 30
0.0
 40
0.0467973782742005
 50
292.0706193185906727
 51
354.6089032123636002
  0
CIRCLE
  5
8C92
  8
0
 10
3323.8873734163212248
 20
194.5878830394769068
 30
0.0
 40
0.0166555298752413
  0
ARC
  5
8C93
  8
0
 10
3323.8784491793771849
 20
194.609051233866893
 30
0.0
 40
0.0552293641759222
 50
107.8497920275986957
 51
151.9206832870582957
  0
ARC
  5
8C94
  8
0
 10
3323.8879908827680083
 20
194.5867231719147981
 30
0.0
 40
0.0794389175188702
 50
66.5133725592081504
 51
109.4644227635472049
  0
ARC
  5
8C95
  8
0
 10
3323.8968994129149905
 20
194.6061720214393915
 30
0.0
 40
0.058052498612662
 50
27.9345160898193683
 51
66.9273472775674207
  0
ARC
  5
8C96
  8
0
 10
3323.8789973384850782
 20
194.5910251061453948
 30
0.0
 40
0.0467562347019241
 50
105.069585074858395
 51
177.5366931257223939
  0
ARC
  5
8C97
  8
0
 10
3323.8869503044002158
 20
194.5742193254602057
 30
0.0
 40
0.0651359462523046
 50
50.132251168781977
 51
107.9825171503883041
  0
ARC
  5
8C98
  8
0
 10
3323.9008051958107899
 20
194.5921852299358079
 30
0.0
 40
0.0424745834202148
 50
359.8628319953971868
 51
48.9417612339857229
  0
ARC
  5
8C99
  8
0
 10
3323.8710273337478611
 20
194.6164835222809018
 30
0.0
 40
0.0452865399089404
 50
155.8002586547468127
 51
211.1840303444897131
  0
ARC
  5
8C9A
  8
0
 10
3323.9146189385351136
 20
194.6164246798466877
 30
0.0
 40
0.0376022297732119
 50
319.6592356188592134
 51
26.7807757367556682
  0
LINE
  5
8C9B
  8
0
 10
3322.7517857375019048
 20
195.1954569810108069
 30
0.0
 11
3322.7492219146020034
 21
195.2374696435109058
 31
0.0
  0
LINE
  5
8C9C
  8
0
 10
3322.8627810862108163
 20
195.1945058563653959
 30
0.0
 11
3322.867689270901792
 21
195.2357897303108984
 31
0.0
  0
ARC
  5
8C9D
  8
0
 10
3322.7956947468292128
 20
195.1983230419409949
 30
0.0
 40
0.0440024477195299
 50
183.7345542585634064
 51
228.6401698391370871
  0
ARC
  5
8C9E
  8
0
 10
3322.8060792824990131
 20
195.2096017639022989
 30
0.0
 40
0.0593309059771841
 50
228.3103349602693868
 51
260.7300224222158249
  0
ARC
  5
8C9F
  8
0
 10
3322.807761202716847
 20
195.2145964161965139
 30
0.0
 40
0.0645369333191782
 50
259.9705928458565722
 51
293.770900354086109
  0
ARC
  5
8CA0
  8
0
 10
3322.8161907125791004
 20
195.198902639060293
 30
0.0
 40
0.0467973782742005
 50
292.0706193185906727
 51
354.6089032123636002
  0
CIRCLE
  5
8CA1
  8
0
 10
3322.8068748450209569
 20
195.1903053513769066
 30
0.0
 40
0.0166555298752413
  0
ARC
  5
8CA2
  8
0
 10
3322.797950608076917
 20
195.2114735457668928
 30
0.0
 40
0.0552293641759222
 50
107.8497920275986957
 51
151.9206832870582957
  0
ARC
  5
8CA3
  8
0
 10
3322.8074923114681951
 20
195.1891454838147979
 30
0.0
 40
0.0794389175188702
 50
66.5133725592081504
 51
109.4644227635472049
  0
ARC
  5
8CA4
  8
0
 10
3322.8164008416151773
 20
195.2085943333393914
 30
0.0
 40
0.058052498612662
 50
27.9345160898193683
 51
66.9273472775674207
  0
ARC
  5
8CA5
  8
0
 10
3322.7984987671848103
 20
195.1934474180453947
 30
0.0
 40
0.0467562347019241
 50
105.069585074858395
 51
177.5366931257223939
  0
ARC
  5
8CA6
  8
0
 10
3322.8064517330999479
 20
195.1766416373602056
 30
0.0
 40
0.0651359462523046
 50
50.132251168781977
 51
107.9825171503883041
  0
ARC
  5
8CA7
  8
0
 10
3322.8203066245109767
 20
195.1946075418358078
 30
0.0
 40
0.0424745834202148
 50
359.8628319953971868
 51
48.9417612339857229
  0
ARC
  5
8CA8
  8
0
 10
3322.7905287624471384
 20
195.2189058341809016
 30
0.0
 40
0.0452865399089404
 50
155.8002586547468127
 51
211.1840303444897131
  0
ARC
  5
8CA9
  8
0
 10
3322.8341203672348456
 20
195.2188469917466875
 30
0.0
 40
0.0376022297732119
 50
319.6592356188592134
 51
26.7807757367556682
  0
LINE
  5
8CAA
  8
0
 10
3323.1279519933018491
 20
195.0429999443109068
 30
0.0
 11
3323.1253881704019477
 21
195.0850126068108068
 31
0.0
  0
LINE
  5
8CAB
  8
0
 10
3323.2389473420121249
 20
195.0420488196654105
 30
0.0
 11
3323.2438555267021911
 21
195.0833326936109131
 31
0.0
  0
ARC
  5
8CAC
  8
0
 10
3323.1718610026291572
 20
195.0458660052410949
 30
0.0
 40
0.0440024477195299
 50
183.7345542585634064
 51
228.6401698391370871
  0
ARC
  5
8CAD
  8
0
 10
3323.1822455382980479
 20
195.0571447272023136
 30
0.0
 40
0.0593309059771841
 50
228.3103349602693868
 51
260.7300224222158249
  0
ARC
  5
8CAE
  8
0
 10
3323.1839274585167914
 20
195.0621393794965002
 30
0.0
 40
0.0645369333191782
 50
259.9705928458565722
 51
293.770900354086109
  0
ARC
  5
8CAF
  8
0
 10
3323.1923569683790447
 20
195.0464456023603077
 30
0.0
 40
0.0467973782742005
 50
292.0706193185906727
 51
354.6089032123636002
  0
CIRCLE
  5
8CB0
  8
0
 10
3323.1830411008209012
 20
195.0378483146768929
 30
0.0
 40
0.0166555298752413
  0
ARC
  5
8CB1
  8
0
 10
3323.1741168638768613
 20
195.0590165090669075
 30
0.0
 40
0.0552293641759222
 50
107.8497920275986957
 51
151.9206832870582957
  0
ARC
  5
8CB2
  8
0
 10
3323.1836585672681394
 20
195.0366884471148978
 30
0.0
 40
0.0794389175188702
 50
66.5133725592081504
 51
109.4644227635472049
  0
ARC
  5
8CB3
  8
0
 10
3323.1925670974151217
 20
195.056137296639406
 30
0.0
 40
0.058052498612662
 50
27.9345160898193683
 51
66.9273472775674207
  0
ARC
  5
8CB4
  8
0
 10
3323.1746650229852094
 20
195.0409903813454093
 30
0.0
 40
0.0467562347019241
 50
105.069585074858395
 51
177.5366931257223939
  0
ARC
  5
8CB5
  8
0
 10
3323.1826179888998922
 20
195.0241846006601918
 30
0.0
 40
0.0651359462523046
 50
50.132251168781977
 51
107.9825171503883041
  0
ARC
  5
8CB6
  8
0
 10
3323.196472880310921
 20
195.042150505135794
 30
0.0
 40
0.0424745834202148
 50
359.8628319953971868
 51
48.9417612339857229
  0
ARC
  5
8CB7
  8
0
 10
3323.1666950182479923
 20
195.0664487974808878
 30
0.0
 40
0.0452865399089404
 50
155.8002586547468127
 51
211.1840303444897131
  0
ARC
  5
8CB8
  8
0
 10
3323.21028662303479
 20
195.0663899550467022
 30
0.0
 40
0.0376022297732119
 50
319.6592356188592134
 51
26.7807757367556682
  0
LINE
  5
8CB9
  8
0
 10
3324.013229460202183
 20
194.918018104160808
 30
0.0
 11
3324.0106656373018268
 21
194.9600307666609069
 31
0.0
  0
LINE
  5
8CBA
  8
0
 10
3324.1242248089120039
 20
194.917066979515397
 30
0.0
 11
3324.1291329936020702
 21
194.9583508534607859
 31
0.0
  0
ARC
  5
8CBB
  8
0
 10
3324.0571384695290362
 20
194.920884165090996
 30
0.0
 40
0.0440024477195299
 50
183.7345542585634064
 51
228.6401698391383093
  0
ARC
  5
8CBC
  8
0
 10
3324.0675230051988365
 20
194.9321628870524137
 30
0.0
 40
0.0593309059771841
 50
228.3103349602693868
 51
260.7300224222158249
  0
ARC
  5
8CBD
  8
0
 10
3324.0692049254171252
 20
194.9371575393464866
 30
0.0
 40
0.0645369333191782
 50
259.9705928458565722
 51
293.770900354086109
  0
ARC
  5
8CBE
  8
0
 10
3324.0776344352789238
 20
194.9214637622102941
 30
0.0
 40
0.0467973782742005
 50
292.0706193185906727
 51
354.6089032123636002
  0
CIRCLE
  5
8CBF
  8
0
 10
3324.0683185677221445
 20
194.912866474526993
 30
0.0
 40
0.0166555298752413
  0
ARC
  5
8CC0
  8
0
 10
3324.0593943307771951
 20
194.9340346689168939
 30
0.0
 40
0.0552293641759222
 50
107.8497920275986957
 51
151.9206832870582957
  0
ARC
  5
8CC1
  8
0
 10
3324.0689360341680185
 20
194.911706606964799
 30
0.0
 40
0.0794389175188702
 50
66.5133725592081504
 51
109.4644227635472049
  0
ARC
  5
8CC2
  8
0
 10
3324.0778445643140913
 20
194.9311554564893925
 30
0.0
 40
0.058052498612662
 50
27.9345160898193683
 51
66.9273472775674207
  0
ARC
  5
8CC3
  8
0
 10
3324.0599424898850884
 20
194.9160085411953958
 30
0.0
 40
0.0467562347019241
 50
105.069585074858395
 51
177.5366931257223939
  0
ARC
  5
8CC4
  8
0
 10
3324.067895455800226
 20
194.8992027605102066
 30
0.0
 40
0.0651359462523046
 50
50.132251168781977
 51
107.9825171503883041
  0
ARC
  5
8CC5
  8
0
 10
3324.0817503472108001
 20
194.9171686649858088
 30
0.0
 40
0.0424745834202148
 50
359.8628319953971868
 51
48.9417612339857229
  0
ARC
  5
8CC6
  8
0
 10
3324.0519724851469618
 20
194.9414669573309027
 30
0.0
 40
0.0452865399089404
 50
155.8002586547468127
 51
211.1840303444897131
  0
ARC
  5
8CC7
  8
0
 10
3324.0955640899351238
 20
194.9414081148966886
 30
0.0
 40
0.0376022297732119
 50
319.6592356188592134
 51
26.7807757367556682
  0
LINE
  5
8CC8
  8
0
 10
3323.7337094172021352
 20
195.1437308174108125
 30
0.0
 11
3323.7311455943008696
 21
195.1857434799109114
 31
0.0
  0
LINE
  5
8CC9
  8
0
 10
3323.8447047659119562
 20
195.1427796927654015
 30
0.0
 11
3323.8496129506020225
 21
195.1840635667107904
 31
0.0
  0
ARC
  5
8CCA
  8
0
 10
3323.7776184265289885
 20
195.1465968783410005
 30
0.0
 40
0.0440024477195299
 50
183.7345542585634064
 51
228.6401698391383093
  0
ARC
  5
8CCB
  8
0
 10
3323.7880029621987887
 20
195.1578756003023898
 30
0.0
 40
0.0593309059771841
 50
228.3103349602693868
 51
260.7300224222158249
  0
ARC
  5
8CCC
  8
0
 10
3323.7896848824170775
 20
195.1628702525964911
 30
0.0
 40
0.0645369333191782
 50
259.9705928458565722
 51
293.770900354086109
  0
ARC
  5
8CCD
  8
0
 10
3323.798114392278876
 20
195.1471764754602987
 30
0.0
 40
0.0467973782742005
 50
292.0706193185906727
 51
354.6089032123636002
  0
CIRCLE
  5
8CCE
  8
0
 10
3323.7887985247211873
 20
195.1385791877769122
 30
0.0
 40
0.0166555298752413
  0
ARC
  5
8CCF
  8
0
 10
3323.7798742877757832
 20
195.1597473821668984
 30
0.0
 40
0.0552293641759222
 50
107.8497920275986957
 51
151.9206832870582957
  0
ARC
  5
8CD0
  8
0
 10
3323.7894159911679708
 20
195.1374193202148035
 30
0.0
 40
0.0794389175188702
 50
66.5133725592081504
 51
109.4644227635472049
  0
ARC
  5
8CD1
  8
0
 10
3323.798324521314953
 20
195.156868169739397
 30
0.0
 40
0.058052498612662
 50
27.9345160898193683
 51
66.9273472775674207
  0
ARC
  5
8CD2
  8
0
 10
3323.7804224468850407
 20
195.1417212544454003
 30
0.0
 40
0.0467562347019241
 50
105.069585074858395
 51
177.5366931257223939
  0
ARC
  5
8CD3
  8
0
 10
3323.7883754128001783
 20
195.1249154737602112
 30
0.0
 40
0.0651359462523046
 50
50.132251168781977
 51
107.9825171503883041
  0
ARC
  5
8CD4
  8
0
 10
3323.8022303042112071
 20
195.1428813782358134
 30
0.0
 40
0.0424745834202148
 50
359.8628319953971868
 51
48.9417612339857229
  0
ARC
  5
8CD5
  8
0
 10
3323.7724524421478236
 20
195.1671796705809072
 30
0.0
 40
0.0452865399089404
 50
155.8002586547468127
 51
211.1840303444897131
  0
ARC
  5
8CD6
  8
0
 10
3323.816044046935076
 20
195.1671208281466932
 30
0.0
 40
0.0376022297732119
 50
319.6592356188592134
 51
26.7807757367556682
  0
LINE
  5
8CD7
  8
0
 10
3323.4415946745020847
 20
195.3805505749108988
 30
0.0
 11
3323.4390308516021832
 21
195.4225632374109125
 31
0.0
  0
LINE
  5
8CD8
  8
0
 10
3323.5525900232119056
 20
195.3795994502654025
 30
0.0
 11
3323.5574982079028814
 21
195.4208833242109051
 31
0.0
  0
ARC
  5
8CD9
  8
0
 10
3323.4855036838289379
 20
195.3834166358410016
 30
0.0
 40
0.0440024477195299
 50
183.7345542585634064
 51
228.6401698391383093
  0
ARC
  5
8CDA
  8
0
 10
3323.4958882194991929
 20
195.3946953578023908
 30
0.0
 40
0.0593309059771841
 50
228.3103349602693868
 51
260.7300224222158249
  0
ARC
  5
8CDB
  8
0
 10
3323.4975701397170269
 20
195.3996900100964922
 30
0.0
 40
0.0645369333191782
 50
259.9705928458565722
 51
293.770900354086109
  0
ARC
  5
8CDC
  8
0
 10
3323.5059996495788255
 20
195.3839962329602997
 30
0.0
 40
0.0467973782742005
 50
292.0706193185906727
 51
354.6089032123636002
  0
CIRCLE
  5
8CDD
  8
0
 10
3323.4966837820220462
 20
195.3753989452769986
 30
0.0
 40
0.0166555298752413
  0
ARC
  5
8CDE
  8
0
 10
3323.4877595450770968
 20
195.3965671396668995
 30
0.0
 40
0.0552293641759222
 50
107.8497920275986957
 51
151.9206832870582957
  0
ARC
  5
8CDF
  8
0
 10
3323.4973012484679202
 20
195.3742390777148898
 30
0.0
 40
0.0794389175188702
 50
66.5133725592081504
 51
109.4644227635472049
  0
ARC
  5
8CE0
  8
0
 10
3323.5062097786149025
 20
195.3936879272393981
 30
0.0
 40
0.058052498612662
 50
27.9345160898193683
 51
66.9273472775674207
  0
ARC
  5
8CE1
  8
0
 10
3323.4883077041849901
 20
195.3785410119454014
 30
0.0
 40
0.0467562347019241
 50
105.069585074858395
 51
177.5366931257223939
  0
ARC
  5
8CE2
  8
0
 10
3323.4962606701010372
 20
195.3617352312602122
 30
0.0
 40
0.0651359462523046
 50
50.132251168781977
 51
107.9825171503883041
  0
ARC
  5
8CE3
  8
0
 10
3323.5101155615111566
 20
195.379701135735786
 30
0.0
 40
0.0424745834202148
 50
359.8628319953971868
 51
48.9417612339857229
  0
ARC
  5
8CE4
  8
0
 10
3323.4803376994468636
 20
195.4039994280809083
 30
0.0
 40
0.0452865399089404
 50
155.8002586547468127
 51
211.1840303444897131
  0
ARC
  5
8CE5
  8
0
 10
3323.5239293042350255
 20
195.4039405856466942
 30
0.0
 40
0.0376022297732119
 50
319.6592356188592134
 51
26.7807757367556682
  0
LINE
  5
8CE6
  8
0
 10
3323.1621967014020811
 20
195.6258783447107987
 30
0.0
 11
3323.1596328785021797
 21
195.6678910072108124
 31
0.0
  0
LINE
  5
8CE7
  8
0
 10
3323.2731920501119021
 20
195.6249272200653877
 30
0.0
 11
3323.2781002348019683
 21
195.666211094010805
 31
0.0
  0
ARC
  5
8CE8
  8
0
 10
3323.2061057107289344
 20
195.6287444056411005
 30
0.0
 40
0.0440024477195299
 50
183.7345542585634064
 51
228.6401698391383093
  0
ARC
  5
8CE9
  8
0
 10
3323.2164902463978251
 20
195.6400231276024044
 30
0.0
 40
0.0593309059771841
 50
228.3103349602693868
 51
260.7300224222158249
  0
ARC
  5
8CEA
  8
0
 10
3323.2181721666179328
 20
195.6450177798965058
 30
0.0
 40
0.0645369333191782
 50
259.9705928458565722
 51
293.770900354086109
  0
ARC
  5
8CEB
  8
0
 10
3323.2266016764788219
 20
195.6293240027603133
 30
0.0
 40
0.0467973782742005
 50
292.0706193185906727
 51
354.6089032123636002
  0
CIRCLE
  5
8CEC
  8
0
 10
3323.2172858089211331
 20
195.6207267150768985
 30
0.0
 40
0.0166555298752413
  0
ARC
  5
8CED
  8
0
 10
3323.2083615719770933
 20
195.6418949094669131
 30
0.0
 40
0.0552293641759222
 50
107.8497920275986957
 51
151.9206832870582957
  0
ARC
  5
8CEE
  8
0
 10
3323.2179032753679166
 20
195.6195668475147897
 30
0.0
 40
0.0794389175188702
 50
66.5133725592081504
 51
109.4644227635472049
  0
ARC
  5
8CEF
  8
0
 10
3323.2268118055148989
 20
195.6390156970394116
 30
0.0
 40
0.058052498612662
 50
27.9345160898193683
 51
66.9273472775674207
  0
ARC
  5
8CF0
  8
0
 10
3323.2089097310849866
 20
195.6238687817453865
 30
0.0
 40
0.0467562347019241
 50
105.069585074858395
 51
177.5366931257223939
  0
ARC
  5
8CF1
  8
0
 10
3323.2168626970001242
 20
195.6070630010601974
 30
0.0
 40
0.0651359462523046
 50
50.132251168781977
 51
107.9825171503883041
  0
ARC
  5
8CF2
  8
0
 10
3323.230717588411153
 20
195.6250289055357996
 30
0.0
 40
0.0424745834202148
 50
359.8628319953971868
 51
48.9417612339857229
  0
ARC
  5
8CF3
  8
0
 10
3323.2009397263482242
 20
195.6493271978808934
 30
0.0
 40
0.0452865399089404
 50
155.8002586547468127
 51
211.1840303444897131
  0
ARC
  5
8CF4
  8
0
 10
3323.2445313311350219
 20
195.6492683554467078
 30
0.0
 40
0.0376022297732119
 50
319.6592356188592134
 51
26.7807757367556682
  0
LINE
  5
8CF5
  8
0
 10
3323.7603133991019604
 20
195.915457352210808
 30
0.0
 11
3323.757749576202059
 21
195.957470014710907
 31
0.0
  0
LINE
  5
8CF6
  8
0
 10
3323.8713087478117814
 20
195.914506227565397
 30
0.0
 11
3323.8762169325018476
 21
195.9557901015107859
 31
0.0
  0
ARC
  5
8CF7
  8
0
 10
3323.8042224084279042
 20
195.9183234131409961
 30
0.0
 40
0.0440024477195299
 50
183.7345542585634064
 51
228.6401698391383093
  0
ARC
  5
8CF8
  8
0
 10
3323.8146069440990686
 20
195.9296021351024137
 30
0.0
 40
0.0593309059771841
 50
228.3103349602693868
 51
260.7300224222158249
  0
ARC
  5
8CF9
  8
0
 10
3323.8162888643178121
 20
195.9345967873964867
 30
0.0
 40
0.0645369333191782
 50
259.9705928458565722
 51
293.770900354086109
  0
ARC
  5
8CFA
  8
0
 10
3323.8247183741791559
 20
195.9189030102602942
 30
0.0
 40
0.0467973782742005
 50
292.0706193185906727
 51
354.6089032123636002
  0
CIRCLE
  5
8CFB
  8
0
 10
3323.8154025066210124
 20
195.9103057225769078
 30
0.0
 40
0.0166555298752413
  0
ARC
  5
8CFC
  8
0
 10
3323.8064782696769726
 20
195.931473916966894
 30
0.0
 40
0.0552293641759222
 50
107.8497920275986957
 51
151.9206832870582957
  0
ARC
  5
8CFD
  8
0
 10
3323.8160199730668865
 20
195.9091458550147991
 30
0.0
 40
0.0794389175188702
 50
66.5133725592081504
 51
109.4644227635472049
  0
ARC
  5
8CFE
  8
0
 10
3323.8249285032147782
 20
195.9285947045393925
 30
0.0
 40
0.058052498612662
 50
27.9345160898193683
 51
66.9273472775674207
  0
ARC
  5
8CFF
  8
0
 10
3323.8070264287848659
 20
195.9134477892453958
 30
0.0
 40
0.0467562347019241
 50
105.069585074858395
 51
177.5366931257223939
  0
ARC
  5
8D00
  8
0
 10
3323.8149793947000035
 20
195.8966420085602067
 30
0.0
 40
0.0651359462523046
 50
50.132251168781977
 51
107.9825171503883041
  0
ARC
  5
8D01
  8
0
 10
3323.8288342861110323
 20
195.9146079130358089
 30
0.0
 40
0.0424745834202148
 50
359.8628319953971868
 51
48.9417612339857229
  0
ARC
  5
8D02
  8
0
 10
3323.7990564240481035
 20
195.9389062053809027
 30
0.0
 40
0.0452865399089404
 50
155.8002586547468127
 51
211.1840303444897131
  0
ARC
  5
8D03
  8
0
 10
3323.8426480288349012
 20
195.9388473629466887
 30
0.0
 40
0.0376022297732119
 50
319.6592356188592134
 51
26.7807757367556682
  0
LINE
  5
8D04
  8
0
 10
3323.9242254295018029
 20
195.6049268144109021
 30
0.0
 11
3323.9216616066019014
 21
195.6469394769108021
 31
0.0
  0
LINE
  5
8D05
  8
0
 10
3324.0352207782120786
 20
195.6039756897654058
 30
0.0
 11
3324.0401289629021448
 21
195.6452595637109084
 31
0.0
  0
ARC
  5
8D06
  8
0
 10
3323.9681344388291109
 20
195.6077928753410049
 30
0.0
 40
0.0440024477195299
 50
183.7345542585634064
 51
228.6401698391383093
  0
ARC
  5
8D07
  8
0
 10
3323.9785189744989111
 20
195.6190715973023089
 30
0.0
 40
0.0593309059771841
 50
228.3103349602693868
 51
260.7300224222158249
  0
ARC
  5
8D08
  8
0
 10
3323.9802008947171998
 20
195.6240662495964955
 30
0.0
 40
0.0645369333191782
 50
259.9705928458565722
 51
293.770900354086109
  0
ARC
  5
8D09
  8
0
 10
3323.9886304045780889
 20
195.608372472460303
 30
0.0
 40
0.0467973782742005
 50
292.0706193185906727
 51
354.6089032123636002
  0
CIRCLE
  5
8D0A
  8
0
 10
3323.9793145370222192
 20
195.5997751847768882
 30
0.0
 40
0.0166555298752413
  0
ARC
  5
8D0B
  8
0
 10
3323.970390300076815
 20
195.6209433791669028
 30
0.0
 40
0.0552293641759222
 50
107.8497920275986957
 51
151.9206832870582957
  0
ARC
  5
8D0C
  8
0
 10
3323.9799320034671837
 20
195.5986153172148079
 30
0.0
 40
0.0794389175188702
 50
66.5133725592081504
 51
109.4644227635472049
  0
ARC
  5
8D0D
  8
0
 10
3323.9888405336150754
 20
195.6180641667394013
 30
0.0
 40
0.058052498612662
 50
27.9345160898193683
 51
66.9273472775674207
  0
ARC
  5
8D0E
  8
0
 10
3323.9709384591851631
 20
195.6029172514454899
 30
0.0
 40
0.0467562347019241
 50
105.069585074858395
 51
177.5366931257223939
  0
ARC
  5
8D0F
  8
0
 10
3323.9788914250998459
 20
195.5861114707601871
 30
0.0
 40
0.0651359462523046
 50
50.132251168781977
 51
107.9825171503883041
  0
ARC
  5
8D10
  8
0
 10
3323.9927463165108747
 20
195.6040773752357893
 30
0.0
 40
0.0424745834202148
 50
359.8628319953971868
 51
48.9417612339857229
  0
ARC
  5
8D11
  8
0
 10
3323.962968454447946
 20
195.6283756675809116
 30
0.0
 40
0.0452865399089404
 50
155.8002586547468127
 51
211.1840303444897131
  0
ARC
  5
8D12
  8
0
 10
3324.0065600592351984
 20
195.6283168251466975
 30
0.0
 40
0.0376022297732119
 50
319.6592356188592134
 51
26.7807757367556682
  0
ARC
  5
8D13
  8
0
 10
3324.5273153271509727
 20
196.4549414273400032
 30
0.0
 40
3.8065370870970852
 50
262.9384579723409843
 51
277.3462045534902813
  0
ARC
  5
8D14
  8
0
 10
3324.4632627401288119
 20
197.0139238185819863
 30
0.0
 40
0.4870391268009338
 50
112.1034373135102982
 51
132.7328925833550102
  0
ARC
  5
8D15
  8
0
 10
3324.5273760871659761
 20
196.8466986146067086
 30
0.0
 40
0.6661081634555118
 50
83.9372603925470315
 51
111.8004825051807956
  0
ARC
  5
8D16
  8
0
 10
3324.5426770489721093
 20
196.9104567932076861
 30
0.0
 40
0.6011503800636663
 50
61.1230230948046227
 51
84.7456520524672925
  0
ARC
  5
8D17
  8
0
 10
3324.6188067641201087
 20
197.0513527119177866
 30
0.0
 40
0.441010440839665
 50
46.6129704307952792
 51
60.9438249807652284
  0
ENDSEC
  0
EOF
