  0
SECTION
  2
HEADER
  9
$ACADVER
  1
AC1009
  9
$INSBASE
 10
3321.6979591157792129
 20
195.8124928900516011
 30
0.0
  9
$EXTMIN
 10
3320.6349677625330514
 20
192.56194711269751
 30
0.0
  9
$EXTMAX
 10
3323.748868574295102
 20
195.8173514751867117
 30
0.0
  9
$LIMMIN
 10
0.0
 20
0.0
  9
$LIMMAX
 10
11.6929133858000007
 20
8.2677165353999982
  9
$ORTHOMODE
 70
     0
  9
$REGENMODE
 70
     1
  9
$FILLMODE
 70
     1
  9
$QTEXTMODE
 70
     0
  9
$MIRRTEXT
 70
     0
  9
$DRAGMODE
 70
     2
  9
$LTSCALE
 40
0.6431102362
  9
$OSMODE
 70
   575
  9
$ATTMODE
 70
     1
  9
$TEXTSIZE
 40
0.2
  9
$TRACEWID
 40
0.05
  9
$TEXTSTYLE
  7
STANDARD
  9
$CLAYER
  8
0
  9
$CELTYPE
  6
BYLAYER
  9
$CECOLOR
 62
   256
  9
$DIMSCALE
 40
1.0
  9
$DIMASZ
 40
0.1875
  9
$DIMEXO
 40
0.0625
  9
$DIMDLI
 40
0.4443307087
  9
$DIMRND
 40
0.0
  9
$DIMDLE
 40
0.0
  9
$DIMEXE
 40
0.125
  9
$DIMTP
 40
0.01
  9
$DIMTM
 40
0.01
  9
$DIMTXT
 40
2.0
  9
$DIMCEN
 40
0.1052362205
  9
$DIMTSZ
 40
0.0
  9
$DIMTOL
 70
     1
  9
$DIMLIM
 70
     0
  9
$DIMTIH
 70
     1
  9
$DIMTOH
 70
     1
  9
$DIMSE1
 70
     0
  9
$DIMSE2
 70
     0
  9
$DIMTAD
 70
     0
  9
$DIMZIN
 70
     0
  9
$DIMBLK
  1

  9
$DIMASO
 70
     1
  9
$DIMSHO
 70
     1
  9
$DIMPOST
  1
\X
  9
$DIMAPOST
  1

  9
$DIMALT
 70
     1
  9
$DIMALTD
 70
     2
  9
$DIMALTF
 40
25.3999999999999986
  9
$DIMLFAC
 40
1.0
  9
$DIMTOFL
 70
     0
  9
$DIMTVP
 40
0.0
  9
$DIMTIX
 70
     0
  9
$DIMSOXD
 70
     0
  9
$DIMSAH
 70
     0
  9
$DIMBLK1
  1

  9
$DIMBLK2
  1

  9
$DIMSTYLE
  2
STANDARD
  9
$DIMCLRD
 70
     0
  9
$DIMCLRE
 70
     0
  9
$DIMCLRT
 70
     0
  9
$DIMTFAC
 40
1.0
  9
$DIMGAP
 40
0.09
  9
$LUNITS
 70
     2
  9
$LUPREC
 70
     4
  9
$SKETCHINC
 40
0.1
  9
$FILLETRAD
 40
0.0
  9
$AUNITS
 70
     0
  9
$AUPREC
 70
     0
  9
$MENU
  1
.
  9
$ELEVATION
 40
0.0
  9
$PELEVATION
 40
0.0
  9
$THICKNESS
 40
0.0
  9
$LIMCHECK
 70
     0
  9
$BLIPMODE
 70
     0
  9
$CHAMFERA
 40
0.0
  9
$CHAMFERB
 40
0.0
  9
$SKPOLY
 70
     0
  9
$TDCREATE
 40
2458060.468368056230247
  9
$TDUPDATE
 40
2459593.6475115739740431
  9
$TDINDWG
 40
0.4216853009
  9
$TDUSRTIMER
 40
0.4216853009
  9
$USRTIMER
 70
     1
  9
$ANGBASE
 50
0.0
  9
$ANGDIR
 70
     0
  9
$PDMODE
 70
     0
  9
$PDSIZE
 40
0.3125
  9
$PLINEWID
 40
0.0
  9
$COORDS
 70
     1
  9
$SPLFRAME
 70
     0
  9
$SPLINETYPE
 70
     6
  9
$SPLINESEGS
 70
     8
  9
$ATTDIA
 70
     1
  9
$ATTREQ
 70
     1
  9
$HANDLING
 70
     1
  9
$HANDSEED
  5
8734
  9
$SURFTAB1
 70
     6
  9
$SURFTAB2
 70
     6
  9
$SURFTYPE
 70
     6
  9
$SURFU
 70
     6
  9
$SURFV
 70
     6
  9
$UCSNAME
  2

  9
$UCSORG
 10
0.0
 20
0.0
 30
0.0
  9
$UCSXDIR
 10
1.0
 20
0.0
 30
0.0
  9
$UCSYDIR
 10
0.0
 20
1.0
 30
0.0
  9
$PUCSNAME
  2

  9
$PUCSORG
 10
0.0
 20
0.0
 30
0.0
  9
$PUCSXDIR
 10
1.0
 20
0.0
 30
0.0
  9
$PUCSYDIR
 10
0.0
 20
1.0
 30
0.0
  9
$USERI1
 70
     0
  9
$USERI2
 70
     0
  9
$USERI3
 70
     0
  9
$USERI4
 70
     0
  9
$USERI5
 70
     0
  9
$USERR1
 40
0.0
  9
$USERR2
 40
0.0
  9
$USERR3
 40
0.0
  9
$USERR4
 40
0.0
  9
$USERR5
 40
0.0
  9
$WORLDVIEW
 70
     1
  9
$SHADEDGE
 70
     3
  9
$SHADEDIF
 70
    70
  9
$TILEMODE
 70
     1
  9
$MAXACTVP
 70
    64
  9
$PLIMCHECK
 70
     0
  9
$PEXTMIN
 10
1.0000000000000000E+20
 20
1.0000000000000000E+20
 30
1.0000000000000000E+20
  9
$PEXTMAX
 10
-1.0000000000000000E+20
 20
-1.0000000000000000E+20
 30
-1.0000000000000000E+20
  9
$PLIMMIN
 10
0.0
 20
0.0
  9
$PLIMMAX
 10
12.0
 20
9.0
  9
$UNITMODE
 70
     0
  9
$VISRETAIN
 70
     1
  9
$PLINEGEN
 70
     0
  9
$PSLTSCALE
 70
     1
  0
ENDSEC
  0
SECTION
  2
TABLES
  0
TABLE
  2
VPORT
 70
     1
  0
VPORT
  2
*ACTIVE
 70
     0
 10
0.0
 20
0.0
 11
1.0
 21
1.0
 12
234.2120316023703879
 22
-1.93593586529672
 13
0.0
 23
0.0
 14
1.0
 24
1.0
 15
0.0
 25
0.0
 16
0.0
 26
0.0
 36
95.5902297660485658
 17
3089.811279296875
 27
197.161570589386713
 37
0.0
 40
13.4523183701641305
 41
2.469551282051281
 42
50.0
 43
0.0
 44
0.0
 50
0.0
 51
0.0
 71
     0
 72
   100
 73
     1
 74
     1
 75
     0
 76
     0
 77
     0
 78
     0
  0
ENDTAB
  0
TABLE
  2
LTYPE
 70
     2
  0
LTYPE
  2
CONTINUOUS
 70
     0
  3
Solid line
 72
    65
 73
     0
 40
0.0
  0
LTYPE
  2
PHANTOM2
 70
     0
  3
___ _ _ ___ _ _ ___ _ _ ___ _ _
 72
    65
 73
     6
 40
1.25
 49
0.625
 49
-0.125
 49
0.125
 49
-0.125
 49
0.125
 49
-0.125
  0
ENDTAB
  0
TABLE
  2
LAYER
 70
     2
  0
LAYER
  2
0
 70
     0
 62
   255
  6
CONTINUOUS
  0
LAYER
  2
DEFPOINTS
 70
     0
 62
     7
  6
CONTINUOUS
  0
ENDTAB
  0
TABLE
  2
STYLE
 70
     1
  0
STYLE
  2
STANDARD
 70
     0
 40
0.0
 41
0.8
 50
0.0
 71
     0
 42
0.2
  3
txt
  4

  0
ENDTAB
  0
TABLE
  2
VIEW
 70
     0
  0
ENDTAB
  0
TABLE
  2
UCS
 70
     0
  0
ENDTAB
  0
TABLE
  2
APPID
 70
     9
  0
APPID
  2
ACAD
 70
     0
  0
APPID
  2
ACAD_MLEADERVER
 70
     0
  0
APPID
  2
ACAD_EXEMPT_FROM_CAD_STANDARDS
 70
     0
  0
APPID
  2
ACAD_NAV_VCDISPLAY
 70
     0
  0
APPID
  2
ACAECLAYERSTANDARD
 70
     0
  0
APPID
  2
ACCMTRANSPARENCY
 70
     0
  0
APPID
  2
ACAD_DSTYLE_DIMJAG
 70
     0
  0
APPID
  2
ACAD_DSTYLE_DIMTALN
 70
     0
  0
APPID
  2
ACDBATTR
 70
     0
  0
ENDTAB
  0
TABLE
  2
DIMSTYLE
 70
     1
  0
DIMSTYLE
  2
STANDARD
 70
     0
  3

  4

  5

  6

  7

 40
1.0
 41
0.1875
 42
0.0625
 43
0.38
 44
0.125
 45
0.0
 46
0.0
 47
0.01
 48
0.01
140
0.15625
141
0.09
142
0.0
143
25.3999999999999986
144
1.0
145
0.0
146
1.0
147
0.09
 71
     1
 72
     0
 73
     1
 74
     1
 75
     0
 76
     0
 77
     0
 78
     4
170
     0
171
     2
172
     0
173
     0
174
     0
175
     0
176
     0
177
     0
178
     0
  0
ENDTAB
  0
ENDSEC
  0
SECTION
  2
BLOCKS
  0
BLOCK
  8
0
  2
$MODEL_SPACE
 70
     0
 10
0.0
 20
0.0
 30
0.0
  3
$MODEL_SPACE
  1

  0
ENDBLK
  5
21
  8
0
  0
BLOCK
 67
     1
  8
0
  2
$PAPER_SPACE
 70
     0
 10
0.0
 20
0.0
 30
0.0
  3
$PAPER_SPACE
  1

  0
ENDBLK
  5
1D
 67
     1
  8
0
  0
ENDSEC
  0
SECTION
  2
ENTITIES
  0
ATTDEF
  5
3930
  8
DEFPOINTS
 10
3321.7003003285130944
 20
195.8163514751865932
 30
0.0
 40
0.001
  1
K-9038BR
  3

  2
MODELNUMBER
 70
     0
1001
ACDBATTR
1070
     0
1070
     1
  0
ATTDEF
  5
3931
  8
DEFPOINTS
 10
3321.7003003285130944
 20
195.8146848085198997
 30
0.0
 40
0.001
  1
COMPLEMENTARY
  3

  2
TRADENAME
 70
     0
1001
ACDBATTR
1070
     0
1070
     1
  0
ATTDEF
  5
3932
  8
DEFPOINTS
 10
3321.7003003285130944
 20
195.8130181418532914
 30
0.0
 40
0.001
  1
HANDSHOWER HOLDER
  3

  2
PRODUCT
 70
     0
1001
ACDBATTR
1070
     0
1070
     1
  0
ARC
  5
853F
  8
0
 10
3322.7019108051617877
 20
195.4975266966974061
 30
0.0
 40
0.1968658483316587
 50
100.8218404323420998
 51
179.9983808139218979
  0
ARC
  5
8540
  8
0
 10
3322.6428556488599497
 20
195.806901388449802
 30
0.0
 40
0.1180948199797151
 50
280.7820720362025213
 51
0.0026925354317061
  0
LINE
  5
8541
  8
0
 10
3322.6649481128088155
 20
195.6908914339516059
 30
0.0
 11
3320.7309307837281267
 21
195.6908914339389014
 31
0.0
  0
LINE
  5
8542
  8
0
 10
3322.7609504687097797
 20
195.8069069381722045
 30
0.0
 11
3322.7609504687097797
 21
195.8124928900516011
 31
0.0
  0
LINE
  5
8543
  8
0
 10
3322.7609504687097797
 20
195.8124928900516011
 30
0.0
 11
3320.6349677628481913
 21
195.8124928900516011
 31
0.0
  0
ARC
  5
8544
  8
0
 10
3320.6940058802560998
 20
195.4975266966974061
 30
0.0
 40
0.1968658483316587
 50
0.0016191860780477
 51
79.1781595676578434
  0
ARC
  5
8545
  8
0
 10
3320.7530592155881095
 20
195.8068983077884866
 30
0.0
 40
0.1180914530548891
 50
179.9958127081605994
 51
259.2185162520889889
  0
LINE
  5
8546
  8
0
 10
3320.6349677628481913
 20
195.8069069381722045
 30
0.0
 11
3320.6349677628481913
 21
195.8124928900516011
 31
0.0
  0
ARC
  5
8547
  8
0
 10
3320.884273464609123
 20
195.3971385593515038
 30
0.0
 40
0.0078740157000006
 50
90.0
 51
166.762289891625386
  0
ARC
  5
8548
  8
0
 10
3321.7963835396099057
 20
195.1825716301515001
 30
0.0
 40
0.9448818898000055
 50
166.7622899042065967
 51
193.2377100957934033
  0
ARC
  5
8549
  8
0
 10
3320.8842734646727877
 20
194.9680047012311945
 30
0.0
 40
0.0078740158796258
 50
193.2377115323835142
 51
269.9999995450779124
  0
LINE
  5
854A
  8
0
 10
3320.8766086740088213
 20
194.9662016177132955
 30
0.0
 11
3320.8766086740088213
 21
195.39894164258979
 31
0.0
  0
LINE
  5
854B
  8
0
 10
3320.884273464609123
 20
195.4050125750515008
 30
0.0
 11
3320.8908717285098646
 21
195.4050125750515008
 31
0.0
  0
LINE
  5
854C
  8
0
 10
3320.8908717285098646
 20
195.4050125750515008
 30
0.0
 11
3320.8908717285098646
 21
195.4975322600722052
 31
0.0
  0
LINE
  5
854D
  8
0
 10
3320.8842734646727877
 20
194.9601306853516007
 30
0.0
 11
3320.8908717285098646
 21
194.9601306853516007
 31
0.0
  0
LINE
  5
854E
  8
0
 10
3320.8908717285098646
 20
194.9601306853516007
 30
0.0
 11
3320.8908717285098646
 21
193.3636352031516026
 31
0.0
  0
ARC
  5
854F
  8
0
 10
3321.6943070061270191
 20
193.3653842941114078
 30
0.0
 40
0.8034371814139344
 50
180.1247335964351919
 51
283.0060491507337019
  0
LINE
  5
8550
  8
0
 10
3321.875123697008803
 20
192.5825582442514872
 30
0.0
 11
3321.875123697008803
 21
193.589199035551502
 31
0.0
  0
LINE
  5
8551
  8
0
 10
3321.875123697008803
 20
193.589199035551502
 30
0.0
 11
3322.5050449569098419
 21
194.1884771420515108
 31
0.0
  0
LINE
  5
8552
  8
0
 10
3322.5050449569098419
 20
194.1884771420515108
 30
0.0
 11
3322.5050449569098419
 21
195.4975322601515018
 31
0.0
  0
ARC
  5
8553
  8
0
 10
3323.0641000766067918
 20
193.3678373636782055
 30
0.0
 40
0.7598425142162137
 50
270.3786370566227788
 51
333.9707594873704011
  0
LINE
  5
8554
  8
0
 10
3321.875123697008803
 20
192.6001208337515038
 30
0.0
 11
3323.0691214314038007
 21
192.6080114412417004
 31
0.0
  0
LINE
  5
8555
  8
0
 10
3323.0691214314088029
 20
194.1276632970514981
 30
0.0
 11
3322.4475939668118372
 21
194.1317706995756112
 31
0.0
  0
ARC
  5
8556
  8
0
 10
3323.0641000750069907
 20
193.3678373690781882
 30
0.0
 40
0.7598425197635982
 50
26.0292407781364297
 51
89.6213628245893972
  0
ARC
  5
8557
  8
0
 10
3323.1712193650459994
 20
193.7125762334295018
 30
0.0
 40
0.0396594805583073
 50
227.9392621117825115
 51
272.5322351924122017
  0
ARC
  5
8558
  8
0
 10
3323.729183536724122
 20
193.692640516922097
 30
0.0
 40
0.0196850375705701
 50
269.9999970475399209
 51
26.0292494573706215
  0
LINE
  5
8559
  8
0
 10
3323.1729715786100314
 20
193.6729554794515025
 30
0.0
 11
3323.7291835355099465
 21
193.6729554794515025
 31
0.0
  0
ARC
  5
855A
  8
0
 10
3323.1712193629477952
 20
193.0230985187214117
 30
0.0
 40
0.0396594668167503
 50
87.4677608953456627
 51
132.0630874478331975
  0
ARC
  5
855B
  8
0
 10
3323.729183536724122
 20
193.0430342213809922
 30
0.0
 40
0.0196850375705701
 50
333.9707505426293892
 51
90.0000029524601644
  0
LINE
  5
855C
  8
0
 10
3323.1729715786100314
 20
193.0627192588515015
 30
0.0
 11
3323.7291835355099465
 21
193.0627192588515015
 31
0.0
  0
ARC
  5
855D
  8
0
 10
3322.8593756286240932
 20
193.3678373692224
 30
0.0
 40
0.4251968751994049
 50
47.861517188449298
 51
312.138264687794674
  0
ENDSEC
  0
EOF
