  0
SECTION
  2
HEADER
  9
$ACADVER
  1
AC1009
  9
$INSBASE
 10
39.1133860358094623
 20
-2.5075010754511791
 30
0.0
  9
$EXTMIN
 10
33.9505576563795799
 20
-17.6086133028549909
 30
-0.0015258207003583
  9
$EXTMAX
 10
39.1266027344689533
 20
12.5936905650772406
 30
0.0000000349246037
  9
$LIMMIN
 10
0.0
 20
0.0
  9
$LIMMAX
 10
11.6929133858000007
 20
8.2677165353999982
  9
$ORTHOMODE
 70
     0
  9
$REGENMODE
 70
     1
  9
$FILLMODE
 70
     1
  9
$QTEXTMODE
 70
     0
  9
$MIRRTEXT
 70
     0
  9
$DRAGMODE
 70
     2
  9
$LTSCALE
 40
0.6431102362
  9
$OSMODE
 70
   575
  9
$ATTMODE
 70
     1
  9
$TEXTSIZE
 40
0.2
  9
$TRACEWID
 40
0.05
  9
$TEXTSTYLE
  7
STANDARD
  9
$CLAYER
  8
0
  9
$CELTYPE
  6
BYLAYER
  9
$CECOLOR
 62
   256
  9
$DIMSCALE
 40
1.0
  9
$DIMASZ
 40
0.1875
  9
$DIMEXO
 40
0.0625
  9
$DIMDLI
 40
0.4443307087
  9
$DIMRND
 40
0.0
  9
$DIMDLE
 40
0.0
  9
$DIMEXE
 40
0.125
  9
$DIMTP
 40
0.01
  9
$DIMTM
 40
0.01
  9
$DIMTXT
 40
1.0
  9
$DIMCEN
 40
0.1052362205
  9
$DIMTSZ
 40
0.0
  9
$DIMTOL
 70
     1
  9
$DIMLIM
 70
     0
  9
$DIMTIH
 70
     1
  9
$DIMTOH
 70
     1
  9
$DIMSE1
 70
     0
  9
$DIMSE2
 70
     0
  9
$DIMTAD
 70
     0
  9
$DIMZIN
 70
     0
  9
$DIMBLK
  1

  9
$DIMASO
 70
     1
  9
$DIMSHO
 70
     1
  9
$DIMPOST
  1
\X
  9
$DIMAPOST
  1

  9
$DIMALT
 70
     1
  9
$DIMALTD
 70
     2
  9
$DIMALTF
 40
25.3999999999999986
  9
$DIMLFAC
 40
1.0
  9
$DIMTOFL
 70
     0
  9
$DIMTVP
 40
0.0
  9
$DIMTIX
 70
     0
  9
$DIMSOXD
 70
     0
  9
$DIMSAH
 70
     0
  9
$DIMBLK1
  1

  9
$DIMBLK2
  1

  9
$DIMSTYLE
  2
STANDARD
  9
$DIMCLRD
 70
     0
  9
$DIMCLRE
 70
     0
  9
$DIMCLRT
 70
     0
  9
$DIMTFAC
 40
1.0
  9
$DIMGAP
 40
0.09
  9
$LUNITS
 70
     2
  9
$LUPREC
 70
     4
  9
$SKETCHINC
 40
0.1
  9
$FILLETRAD
 40
0.0
  9
$AUNITS
 70
     0
  9
$AUPREC
 70
     0
  9
$MENU
  1
.
  9
$ELEVATION
 40
0.0
  9
$PELEVATION
 40
0.0
  9
$THICKNESS
 40
0.0
  9
$LIMCHECK
 70
     0
  9
$BLIPMODE
 70
     0
  9
$CHAMFERA
 40
0.0
  9
$CHAMFERB
 40
0.0
  9
$SKPOLY
 70
     0
  9
$TDCREATE
 40
2458172.4620254631154239
  9
$TDUPDATE
 40
2459599.6617939821444452
  9
$TDINDWG
 40
0.105399456
  9
$TDUSRTIMER
 40
0.105399456
  9
$USRTIMER
 70
     1
  9
$ANGBASE
 50
0.0
  9
$ANGDIR
 70
     0
  9
$PDMODE
 70
     0
  9
$PDSIZE
 40
0.3125
  9
$PLINEWID
 40
0.0
  9
$COORDS
 70
     1
  9
$SPLFRAME
 70
     0
  9
$SPLINETYPE
 70
     6
  9
$SPLINESEGS
 70
     8
  9
$ATTDIA
 70
     1
  9
$ATTREQ
 70
     1
  9
$HANDLING
 70
     1
  9
$HANDSEED
  5
4672
  9
$SURFTAB1
 70
     6
  9
$SURFTAB2
 70
     6
  9
$SURFTYPE
 70
     6
  9
$SURFU
 70
     6
  9
$SURFV
 70
     6
  9
$UCSNAME
  2

  9
$UCSORG
 10
0.0
 20
0.0
 30
0.0
  9
$UCSXDIR
 10
1.0
 20
0.0
 30
0.0
  9
$UCSYDIR
 10
0.0
 20
1.0
 30
0.0
  9
$PUCSNAME
  2

  9
$PUCSORG
 10
0.0
 20
0.0
 30
0.0
  9
$PUCSXDIR
 10
1.0
 20
0.0
 30
0.0
  9
$PUCSYDIR
 10
0.0
 20
1.0
 30
0.0
  9
$USERI1
 70
     0
  9
$USERI2
 70
     0
  9
$USERI3
 70
     0
  9
$USERI4
 70
     0
  9
$USERI5
 70
     0
  9
$USERR1
 40
0.0
  9
$USERR2
 40
0.0
  9
$USERR3
 40
0.0
  9
$USERR4
 40
0.0
  9
$USERR5
 40
0.0
  9
$WORLDVIEW
 70
     1
  9
$SHADEDGE
 70
     3
  9
$SHADEDIF
 70
    70
  9
$TILEMODE
 70
     1
  9
$MAXACTVP
 70
    64
  9
$PLIMCHECK
 70
     0
  9
$PEXTMIN
 10
1.0000000000000000E+20
 20
1.0000000000000000E+20
 30
1.0000000000000000E+20
  9
$PEXTMAX
 10
-1.0000000000000000E+20
 20
-1.0000000000000000E+20
 30
-1.0000000000000000E+20
  9
$PLIMMIN
 10
0.0
 20
0.0
  9
$PLIMMAX
 10
12.0
 20
9.0
  9
$UNITMODE
 70
     0
  9
$VISRETAIN
 70
     1
  9
$PLINEGEN
 70
     0
  9
$PSLTSCALE
 70
     1
  0
ENDSEC
  0
SECTION
  2
TABLES
  0
TABLE
  2
VPORT
 70
     1
  0
VPORT
  2
*ACTIVE
 70
     0
 10
0.0
 20
0.0
 11
1.0
 21
1.0
 12
-62.5655230671909521
 22
3.0519720444646832
 13
0.0
 23
0.0
 14
1.0
 24
1.0
 15
0.0
 25
0.0
 16
-0.0000000000000284
 26
0.0
 36
125.4823799192243996
 17
99.1041030883789063
 27
-5.5594334602355948
 37
0.0
 40
37.2074646259776074
 41
2.5179738562091498
 42
50.0
 43
0.0
 44
0.0
 50
0.0
 51
0.0
 71
     0
 72
   100
 73
     1
 74
     1
 75
     0
 76
     0
 77
     0
 78
     0
  0
ENDTAB
  0
TABLE
  2
LTYPE
 70
     2
  0
LTYPE
  2
CONTINUOUS
 70
     0
  3
Solid line
 72
    65
 73
     0
 40
0.0
  0
LTYPE
  2
PHANTOM2
 70
     0
  3
___ _ _ ___ _ _ ___ _ _ ___ _ _
 72
    65
 73
     6
 40
1.25
 49
0.625
 49
-0.125
 49
0.125
 49
-0.125
 49
0.125
 49
-0.125
  0
ENDTAB
  0
TABLE
  2
LAYER
 70
     2
  0
LAYER
  2
0
 70
     0
 62
   255
  6
CONTINUOUS
  0
LAYER
  2
DEFPOINTS
 70
     0
 62
     7
  6
CONTINUOUS
  0
ENDTAB
  0
TABLE
  2
STYLE
 70
     1
  0
STYLE
  2
STANDARD
 70
     0
 40
0.0
 41
0.8
 50
0.0
 71
     0
 42
0.2
  3
txt
  4

  0
ENDTAB
  0
TABLE
  2
VIEW
 70
     0
  0
ENDTAB
  0
TABLE
  2
UCS
 70
     0
  0
ENDTAB
  0
TABLE
  2
APPID
 70
     9
  0
APPID
  2
ACAD
 70
     0
  0
APPID
  2
ACAD_MLEADERVER
 70
     0
  0
APPID
  2
ACAD_EXEMPT_FROM_CAD_STANDARDS
 70
     0
  0
APPID
  2
ACAD_DSTYLE_DIMJAG
 70
     0
  0
APPID
  2
ACAD_DSTYLE_DIMTALN
 70
     0
  0
APPID
  2
ACAD_NAV_VCDISPLAY
 70
     0
  0
APPID
  2
ACAECLAYERSTANDARD
 70
     0
  0
APPID
  2
ACCMTRANSPARENCY
 70
     0
  0
APPID
  2
ACDBATTR
 70
     0
  0
ENDTAB
  0
TABLE
  2
DIMSTYLE
 70
     1
  0
DIMSTYLE
  2
STANDARD
 70
     0
  3

  4

  5

  6

  7

 40
1.0
 41
0.1875
 42
0.0625
 43
0.38
 44
0.125
 45
0.0
 46
0.0
 47
0.01
 48
0.01
140
0.15625
141
0.09
142
0.0
143
25.3999999999999986
144
1.0
145
0.0
146
1.0
147
0.09
 71
     1
 72
     0
 73
     1
 74
     1
 75
     0
 76
     0
 77
     0
 78
     4
170
     0
171
     2
172
     0
173
     0
174
     0
175
     0
176
     0
177
     0
178
     0
  0
ENDTAB
  0
ENDSEC
  0
SECTION
  2
BLOCKS
  0
BLOCK
  8
0
  2
$MODEL_SPACE
 70
     0
 10
0.0
 20
0.0
 30
0.0
  3
$MODEL_SPACE
  1

  0
ENDBLK
  5
21
  8
0
  0
BLOCK
 67
     1
  8
0
  2
$PAPER_SPACE
 70
     0
 10
0.0
 20
0.0
 30
0.0
  3
$PAPER_SPACE
  1

  0
ENDBLK
  5
1D
 67
     1
  8
0
  0
ENDSEC
  0
SECTION
  2
ENTITIES
  0
ATTDEF
  5
39EB
  8
DEFPOINTS
 10
39.1133481695003695
 20
-2.5040038297850482
 30
0.0
 40
0.001
  1
K-8524BR
  3

  2
MODELNUMBER
 70
     0
1001
ACDBATTR
1070
     0
1070
     1
  0
ATTDEF
  5
39EC
  8
DEFPOINTS
 10
39.1133481695003695
 20
-2.5056704964517129
 30
0.0
 40
0.001
  1

  3

  2
TRADENAME
 70
     0
1001
ACDBATTR
1070
     0
1070
     1
  0
ATTDEF
  5
39ED
  8
DEFPOINTS
 10
39.1133481695003695
 20
-2.5073371631183781
 30
0.0
 40
0.001
  1
SLIDEBAR
  3

  2
PRODUCT
 70
     0
1001
ACDBATTR
1070
     0
1070
     1
  0
LINE
  5
4553
  8
0
 10
37.0623860358094603
 20
-17.6075010754511787
 30
0.0
 11
36.1643860358094571
 21
-17.6075010754511787
 31
0.0
  0
LINE
  5
4554
  8
0
 10
37.0858360358094501
 20
-17.5075010754511702
 30
0.0
 11
36.1409360358094602
 21
-17.5075010754511702
 31
0.0
  0
LINE
  5
4555
  8
0
 10
37.1033390026094594
 20
-16.9075010754511688
 30
0.0
 11
39.0733860358094631
 21
-16.9075010754511688
 31
0.0
  0
LINE
  5
4556
  8
0
 10
37.1033440744094634
 20
-16.1075010754511787
 30
0.0
 11
39.0733860358094631
 21
-16.1075010754511787
 31
0.0
  0
LINE
  5
4557
  8
0
 10
39.113386035809441
 20
11.8524989245488204
 30
0.0
 11
39.1133860358094694
 21
11.1324989245488197
 31
0.0
  0
LINE
  5
4558
  8
0
 10
39.113386035809441
 20
-16.1475010754511814
 30
0.0
 11
39.1133860358094694
 21
-16.8675010754511696
 31
0.0
  0
LINE
  5
4559
  8
0
 10
35.7056857320094565
 20
6.4919173959488212
 30
0.0
 11
35.7422352188094479
 21
6.4756614659488214
 31
0.0
  0
LINE
  5
455A
  8
0
 10
37.2076291529094618
 20
6.7668880903488251
 30
0.0
 11
37.2333753736094621
 21
8.2418880877488228
 31
0.0
  0
LINE
  5
455B
  8
0
 10
37.0858360358094501
 20
-17.5075010754511702
 30
0.0
 11
37.0858360358094501
 21
-16.8997471089511784
 31
0.0
  0
LINE
  5
455C
  8
0
 10
37.0858360358094217
 20
-16.1152821607512102
 30
0.0
 11
37.085836035809443
 21
6.7324989245488238
 31
0.0
  0
LINE
  5
455D
  8
0
 10
37.0858360358094501
 20
8.4924989245488227
 30
0.0
 11
37.0858360358094501
 21
11.1002800099488201
 31
0.0
  0
LINE
  5
455E
  8
0
 10
37.0858360358094501
 20
11.8847449581488203
 30
0.0
 11
37.0858360358094501
 21
12.4924989245488192
 31
0.0
  0
LINE
  5
455F
  8
0
 10
37.0823860358094706
 20
-17.5275010754511698
 30
0.0
 11
37.0823860358094706
 21
-17.5875010754511685
 31
0.0
  0
LINE
  5
4560
  8
0
 10
37.0823860358094706
 20
12.5124989245488205
 30
0.0
 11
37.0823860358094706
 21
12.5724989245488192
 31
0.0
  0
LINE
  5
4561
  8
0
 10
37.2296225347094634
 20
8.4581097598488206
 30
0.0
 11
37.2333753736094621
 21
8.2418880877488228
 31
0.0
  0
LINE
  5
4562
  8
0
 10
35.997149537009463
 20
8.4581097593488188
 30
0.0
 11
35.9948590542094635
 21
8.3268880903488203
 31
0.0
  0
LINE
  5
4563
  8
0
 10
36.1443860358094611
 20
-17.5275010754511698
 30
0.0
 11
36.1443860358094611
 21
-17.5875010754511685
 31
0.0
  0
LINE
  5
4564
  8
0
 10
36.1443860358094611
 20
12.5124989245488205
 30
0.0
 11
36.1443860358094611
 21
12.5724989245488192
 31
0.0
  0
LINE
  5
4565
  8
0
 10
36.1409360358094602
 20
-17.5075010754511702
 30
0.0
 11
36.1409360358094602
 21
6.7324989245488283
 31
0.0
  0
LINE
  5
4566
  8
0
 10
36.1409360358094602
 20
8.4924989245488227
 30
0.0
 11
36.1409360358094602
 21
12.4924989245488192
 31
0.0
  0
LINE
  5
4567
  8
0
 10
36.0098704100094622
 20
7.2981097587488248
 30
0.0
 11
36.0191429187094627
 21
6.7668880906488234
 31
0.0
  0
LINE
  5
4568
  8
0
 10
35.3483860358094617
 20
7.3624989245488273
 30
0.0
 11
35.3483860358094617
 21
8.2624989245488258
 31
0.0
  0
LINE
  5
4569
  8
0
 10
35.3283860358094586
 20
7.3624989245488273
 30
0.0
 11
35.3283860358094586
 21
8.2624989245488258
 31
0.0
  0
LINE
  5
456A
  8
0
 10
35.3083860358094626
 20
8.2574989245488233
 30
0.0
 11
35.3083860358094626
 21
7.3674989245488218
 31
0.0
  0
LINE
  5
456B
  8
0
 10
33.9578131929094695
 20
7.3672199373488239
 30
0.0
 11
33.950719261209457
 21
8.2572199372488235
 31
0.0
  0
LINE
  5
456C
  8
0
 10
37.1726344836094569
 20
6.7324989245488238
 30
0.0
 11
36.0541375881094623
 21
6.7324989245488238
 31
0.0
  0
LINE
  5
456D
  8
0
 10
36.1719649915094621
 20
7.3324989245488261
 30
0.0
 11
35.3833860358094512
 21
7.3324989245488261
 31
0.0
  0
LINE
  5
456E
  8
0
 10
35.2733860358094731
 20
7.3324989245488261
 30
0.0
 11
33.9928147391094626
 21
7.3324989245488261
 31
0.0
  0
LINE
  5
456F
  8
0
 10
35.3283860358094586
 20
7.3624989245488273
 30
0.0
 11
35.3483860358094617
 21
7.3624989245488273
 31
0.0
  0
LINE
  5
4570
  8
0
 10
35.3283860358094586
 20
7.4674989245488241
 30
0.0
 11
35.3083860358094626
 21
7.4674989245488241
 31
0.0
  0
LINE
  5
4571
  8
0
 10
35.3283860358094586
 20
8.1574989245488219
 30
0.0
 11
35.3083860358094626
 21
8.1574989245488219
 31
0.0
  0
LINE
  5
4572
  8
0
 10
35.3483860358094617
 20
8.2624989245488258
 30
0.0
 11
35.3283860358094586
 21
8.2624989245488258
 31
0.0
  0
LINE
  5
4573
  8
0
 10
35.3833860358094512
 20
8.2924989245488252
 30
0.0
 11
36.1644770352094582
 21
8.2924989245488252
 31
0.0
  0
LINE
  5
4574
  8
0
 10
35.2733860358094731
 20
8.2924989245488252
 30
0.0
 11
33.9857208418094672
 21
8.2924989245488252
 31
0.0
  0
LINE
  5
4575
  8
0
 10
36.0321442063094466
 20
8.4924989245488227
 30
0.0
 11
37.1946278654094584
 21
8.4924989245488227
 31
0.0
  0
LINE
  5
4576
  8
0
 10
37.1033390026094594
 20
11.0924989245488206
 30
0.0
 11
39.0733860358094631
 21
11.0924989245488206
 31
0.0
  0
LINE
  5
4577
  8
0
 10
37.1033440744094634
 20
11.8924989245488195
 30
0.0
 11
39.0733860358094631
 21
11.8924989245488195
 31
0.0
  0
LINE
  5
4578
  8
0
 10
36.1409360358094602
 20
12.4924989245488192
 30
0.0
 11
37.0858360358094501
 21
12.4924989245488192
 31
0.0
  0
LINE
  5
4579
  8
0
 10
36.1643860358094571
 20
12.5924989245488206
 30
0.0
 11
37.0623860358094603
 21
12.5924989245488206
 31
0.0
  0
ARC
  5
457A
  8
0
 10
39.0733860358094631
 20
-16.8675010754511696
 30
0.0
 40
0.04
 50
270.0
 51
0.0
  0
ARC
  5
457B
  8
0
 10
39.0733860358094631
 20
-16.1475010754511814
 30
0.0
 40
0.04
 50
0.0
 51
90.0
  0
ARC
  5
457C
  8
0
 10
37.0623860358094603
 20
-17.5875010754511685
 30
0.0
 40
0.02
 50
270.0
 51
0.0
  0
ARC
  5
457D
  8
0
 10
39.0733860358094631
 20
11.1324989245488197
 30
0.0
 40
0.04
 50
270.0
 51
0.0
  0
ARC
  5
457E
  8
0
 10
39.0733860358094631
 20
11.8524989245488204
 30
0.0
 40
0.04
 50
0.0
 51
90.0
  0
ARC
  5
457F
  8
0
 10
37.1726344836094569
 20
6.7674989245488213
 30
0.0
 40
0.035
 50
270.0
 51
358.9999986235997085
  0
ARC
  5
4580
  8
0
 10
37.1946278654094371
 20
8.4574989245488261
 30
0.0
 40
0.0350000000000093
 50
1.0000009819990501
 51
89.9999999999763958
  0
ARC
  5
4581
  8
0
 10
37.0623860358094603
 20
12.5724989245488192
 30
0.0
 40
0.02
 50
0.0
 51
90.0
  0
ARC
  5
4582
  8
0
 10
36.1643860358094571
 20
-17.5875010754511685
 30
0.0
 40
0.02
 50
180.0
 51
270.0
  0
ARC
  5
4583
  8
0
 10
35.2733860358094731
 20
8.2574989245488233
 30
0.0
 40
0.035
 50
0.0
 51
90.0
  0
ARC
  5
4584
  8
0
 10
35.2733860358094731
 20
7.3674989245488218
 30
0.0
 40
0.035
 50
270.0
 51
0.0
  0
ARC
  5
4585
  8
0
 10
35.9598643849094515
 20
8.3274989245488236
 30
0.0
 40
0.035
 50
270.0
 51
359.0000000000001137
  0
ARC
  5
4586
  8
0
 10
35.9748757407094502
 20
7.2974989245488224
 30
0.0
 40
0.035
 50
0.9999999999999442
 51
90.0
  0
ARC
  5
4587
  8
0
 10
36.0541375881094694
 20
6.7674989245488284
 30
0.0
 40
0.0350000000000155
 50
180.9999995443110095
 51
269.99999999997641
  0
ARC
  5
4588
  8
0
 10
35.3837200245902324
 20
8.2566926043045754
 30
0.0
 40
0.0358078778753968
 50
90.5344194114793055
 51
170.6681698785228036
  0
ARC
  5
4589
  8
0
 10
36.0321442063094679
 20
8.4574989245488101
 30
0.0
 40
0.035000000000013
 50
90.0000000000236184
 51
178.9999982876794036
  0
ARC
  5
458A
  8
0
 10
35.3837200245902324
 20
7.368305244793059
 30
0.0
 40
0.0358078778753882
 50
189.3318301214495989
 51
269.4655805885230961
  0
ARC
  5
458B
  8
0
 10
36.1643860358094571
 20
12.5724989245488192
 30
0.0
 40
0.02
 50
90.0
 51
180.0
  0
ARC
  5
458C
  8
0
 10
33.6133860358094694
 20
7.4224989245488224
 30
0.0
 40
2.3500000000000001
 50
336.513999613400415
 51
357.8051567881141182
  0
ARC
  5
458D
  8
0
 10
33.6133860358094694
 20
7.4224989245488224
 30
0.0
 40
2.27
 50
336.5225915846996827
 51
357.7277656002876256
  0
LINE
  5
458E
  8
0
 10
36.4993074288249915
 20
8.3419629920251488
 30
0.0
 11
36.4993074288249915
 21
7.814137065162992
 31
0.0
  0
LINE
  5
458F
  8
0
 10
36.5001026294818018
 20
7.2863117373093429
 30
0.0
 11
36.4993074288249915
 21
7.814137065162992
 31
0.0
  0
ARC
  5
4590
  8
0
 10
36.1168826374428704
 20
9.7726662036175931
 30
0.0
 40
1.4809322741856219
 50
271.8416964866095782
 51
284.9652086710578942
  0
ARC
  5
4591
  8
0
 10
36.1124231845033421
 20
5.72075992894381
 30
0.0
 40
1.612838434789859
 50
76.0915671031081899
 51
87.8843078352051492
  0
LINE
  5
4592
  8
0
 10
36.4993074288249915
 20
8.3419629920251488
 30
0.0
 11
35.9951131473933685
 21
8.3414450788028667
 31
0.0
  0
LINE
  5
4593
  8
0
 10
36.5001026294818018
 20
7.2863117373093429
 30
0.0
 11
36.0100764842189633
 21
7.286303775182847
 31
0.0
  0
ARC
  5
4594
  8
0
 10
37.0602725614519031
 20
12.5145751264351404
 30
0.0
 40
0.0222107262923784
 50
276.3092281816041123
 51
354.6363062929909233
  0
ARC
  5
4595
  8
0
 10
37.0616014707517678
 20
-17.5278660076815385
 30
0.0
 40
0.0207877685231192
 50
1.0058872218311861
 51
78.423994220597578
  0
ARC
  5
4596
  8
0
 10
36.1700346796366716
 20
-17.5320270667444298
 30
0.0
 40
0.0260449136562536
 50
109.6642569995723022
 51
169.992540072591396
  0
ARC
  5
4597
  8
0
 10
36.1673068120238597
 20
12.5153692147958697
 30
0.0
 40
0.0230997953402724
 50
187.1377967810956875
 51
261.916676553033426
  0
ARC
  5
4598
  8
0
 10
35.7503627605670573
 20
6.4939358183039806
 30
0.0
 40
0.0200002222243197
 50
246.022831762283289
 51
336.5139497456078175
  0
ARC
  5
4599
  8
0
 10
35.7139079122859826
 20
6.5102282516474466
 30
0.0
 40
0.0200721619392447
 50
156.7257221192153906
 51
245.818341498784406
  0
LINE
  5
459A
  8
0
 10
35.836386035809447
 20
7.3324989245488261
 30
0.0
 11
35.8363860358094612
 21
7.2841474731488161
 31
0.0
  0
ARC
  5
459B
  8
0
 10
35.8563861283926428
 20
7.2841474731488161
 30
0.0
 40
0.0200000925831958
 50
180.0000000000044906
 51
269.9311002057604014
  0
ARC
  5
459C
  8
0
 10
35.8560357067471003
 20
7.2433295805450832
 30
0.0
 40
0.020820372662199
 50
9.4652017258153478
 51
89.1018198559418835
  0
ARC
  5
459D
  8
0
 10
37.1067173212054797
 20
11.8612392275261698
 30
0.0
 40
0.0314411744674771
 50
96.1589785816903344
 51
131.6162452952370927
  0
ARC
  5
459E
  8
0
 10
39.443153925990579
 20
10.1344851096846593
 30
0.0
 40
2.9360444772710408
 50
143.4068764013345003
 51
147.7311329588534932
  0
ARC
  5
459F
  8
0
 10
37.3114108341860131
 20
11.4925301883494502
 30
0.0
 40
0.40862068727329
 50
149.1580142712967074
 51
210.876503842759206
  0
ARC
  5
45A0
  8
0
 10
39.5510825050762733
 20
12.9243160129850203
 30
0.0
 40
3.0666834682772142
 50
212.361824556016586
 51
216.4977408181538863
  0
ARC
  5
45A1
  8
0
 10
37.1068464927145385
 20
11.1239651067941399
 30
0.0
 40
0.0316610661843941
 50
228.4245699248922961
 51
263.6395783491892075
  0
ARC
  5
45A2
  8
0
 10
37.1067204638964085
 20
-16.8762364928297188
 30
0.0
 40
0.0314469141082055
 50
228.3853856354149059
 51
263.8270961513686075
  0
ARC
  5
45A3
  8
0
 10
39.443153925990579
 20
-15.1494872604870192
 30
0.0
 40
2.9360444772710408
 50
212.2688670411461942
 51
216.5931235986653007
  0
ARC
  5
45A4
  8
0
 10
37.3114108341860131
 20
-16.5075323391518083
 30
0.0
 40
0.40862068727329
 50
149.1234961572409077
 51
210.8419857287032073
  0
ARC
  5
45A5
  8
0
 10
39.5510825050762733
 20
-17.9393181637873695
 30
0.0
 40
3.0666834682772142
 50
143.5022591818454885
 51
147.6381754439833003
  0
ARC
  5
45A6
  8
0
 10
37.106843212980003
 20
-16.1389621629156998
 30
0.0
 40
0.0316550785054506
 50
96.3464199834087793
 51
131.5771085726456988
  0
ARC
  5
45A7
  8
0
 10
33.9955902586160192
 20
7.3702995487679992
 30
0.0
 40
0.0379023838285944
 50
184.6604841966220079
 51
265.8005801511615118
  0
ARC
  5
45A8
  8
0
 10
33.9864971708088532
 20
8.2567260287449322
 30
0.0
 40
0.0357813186021825
 50
91.2432148232601463
 51
179.2090908723596101
  0
ENDSEC
  0
EOF
