  0
SECTION
  2
HEADER
  9
$ACADVER
  1
AC1009
  9
$INSBASE
 10
58.0155552099610929
 20
-2.8814088470624362
 30
0.0
  9
$EXTMIN
 10
57.3916275015474184
 20
-17.9832964192330316
 30
-0.0000000000000058
  9
$EXTMAX
 10
58.6397966828387425
 20
12.2194684821243804
 30
0.0000000000000104
  9
$LIMMIN
 10
0.0
 20
0.0
  9
$LIMMAX
 10
11.6929133858000007
 20
8.2677165353999982
  9
$ORTHOMODE
 70
     0
  9
$REGENMODE
 70
     1
  9
$FILLMODE
 70
     1
  9
$QTEXTMODE
 70
     0
  9
$MIRRTEXT
 70
     0
  9
$DRAGMODE
 70
     2
  9
$LTSCALE
 40
0.6431102362
  9
$OSMODE
 70
   575
  9
$ATTMODE
 70
     1
  9
$TEXTSIZE
 40
0.2
  9
$TRACEWID
 40
0.05
  9
$TEXTSTYLE
  7
STANDARD
  9
$CLAYER
  8
0
  9
$CELTYPE
  6
BYLAYER
  9
$CECOLOR
 62
   256
  9
$DIMSCALE
 40
1.0
  9
$DIMASZ
 40
0.1875
  9
$DIMEXO
 40
0.0625
  9
$DIMDLI
 40
0.4443307087
  9
$DIMRND
 40
0.0
  9
$DIMDLE
 40
0.0
  9
$DIMEXE
 40
0.125
  9
$DIMTP
 40
0.01
  9
$DIMTM
 40
0.01
  9
$DIMTXT
 40
1.0
  9
$DIMCEN
 40
0.1052362205
  9
$DIMTSZ
 40
0.0
  9
$DIMTOL
 70
     1
  9
$DIMLIM
 70
     0
  9
$DIMTIH
 70
     1
  9
$DIMTOH
 70
     1
  9
$DIMSE1
 70
     0
  9
$DIMSE2
 70
     0
  9
$DIMTAD
 70
     0
  9
$DIMZIN
 70
     0
  9
$DIMBLK
  1

  9
$DIMASO
 70
     1
  9
$DIMSHO
 70
     1
  9
$DIMPOST
  1
\X
  9
$DIMAPOST
  1

  9
$DIMALT
 70
     1
  9
$DIMALTD
 70
     2
  9
$DIMALTF
 40
25.3999999999999986
  9
$DIMLFAC
 40
1.0
  9
$DIMTOFL
 70
     0
  9
$DIMTVP
 40
0.0
  9
$DIMTIX
 70
     0
  9
$DIMSOXD
 70
     0
  9
$DIMSAH
 70
     0
  9
$DIMBLK1
  1

  9
$DIMBLK2
  1

  9
$DIMSTYLE
  2
STANDARD
  9
$DIMCLRD
 70
     0
  9
$DIMCLRE
 70
     0
  9
$DIMCLRT
 70
     0
  9
$DIMTFAC
 40
1.0
  9
$DIMGAP
 40
0.09
  9
$LUNITS
 70
     2
  9
$LUPREC
 70
     4
  9
$SKETCHINC
 40
0.1
  9
$FILLETRAD
 40
0.0
  9
$AUNITS
 70
     0
  9
$AUPREC
 70
     0
  9
$MENU
  1
.
  9
$ELEVATION
 40
0.0
  9
$PELEVATION
 40
0.0
  9
$THICKNESS
 40
0.0
  9
$LIMCHECK
 70
     0
  9
$BLIPMODE
 70
     0
  9
$CHAMFERA
 40
0.0
  9
$CHAMFERB
 40
0.0
  9
$SKPOLY
 70
     0
  9
$TDCREATE
 40
2458172.4620254631154239
  9
$TDUPDATE
 40
2459599.6607291670516133
  9
$TDINDWG
 40
0.1045545486
  9
$TDUSRTIMER
 40
0.1045545486
  9
$USRTIMER
 70
     1
  9
$ANGBASE
 50
0.0
  9
$ANGDIR
 70
     0
  9
$PDMODE
 70
     0
  9
$PDSIZE
 40
0.3125
  9
$PLINEWID
 40
0.0
  9
$COORDS
 70
     1
  9
$SPLFRAME
 70
     0
  9
$SPLINETYPE
 70
     6
  9
$SPLINESEGS
 70
     8
  9
$ATTDIA
 70
     1
  9
$ATTREQ
 70
     1
  9
$HANDLING
 70
     1
  9
$HANDSEED
  5
4578
  9
$SURFTAB1
 70
     6
  9
$SURFTAB2
 70
     6
  9
$SURFTYPE
 70
     6
  9
$SURFU
 70
     6
  9
$SURFV
 70
     6
  9
$UCSNAME
  2

  9
$UCSORG
 10
0.0
 20
0.0
 30
0.0
  9
$UCSXDIR
 10
1.0
 20
0.0
 30
0.0
  9
$UCSYDIR
 10
0.0
 20
1.0
 30
0.0
  9
$PUCSNAME
  2

  9
$PUCSORG
 10
0.0
 20
0.0
 30
0.0
  9
$PUCSXDIR
 10
1.0
 20
0.0
 30
0.0
  9
$PUCSYDIR
 10
0.0
 20
1.0
 30
0.0
  9
$USERI1
 70
     0
  9
$USERI2
 70
     0
  9
$USERI3
 70
     0
  9
$USERI4
 70
     0
  9
$USERI5
 70
     0
  9
$USERR1
 40
0.0
  9
$USERR2
 40
0.0
  9
$USERR3
 40
0.0
  9
$USERR4
 40
0.0
  9
$USERR5
 40
0.0
  9
$WORLDVIEW
 70
     1
  9
$SHADEDGE
 70
     3
  9
$SHADEDIF
 70
    70
  9
$TILEMODE
 70
     1
  9
$MAXACTVP
 70
    64
  9
$PLIMCHECK
 70
     0
  9
$PEXTMIN
 10
1.0000000000000000E+20
 20
1.0000000000000000E+20
 30
1.0000000000000000E+20
  9
$PEXTMAX
 10
-1.0000000000000000E+20
 20
-1.0000000000000000E+20
 30
-1.0000000000000000E+20
  9
$PLIMMIN
 10
0.0
 20
0.0
  9
$PLIMMAX
 10
12.0
 20
9.0
  9
$UNITMODE
 70
     0
  9
$VISRETAIN
 70
     1
  9
$PLINEGEN
 70
     0
  9
$PSLTSCALE
 70
     1
  0
ENDSEC
  0
SECTION
  2
TABLES
  0
TABLE
  2
VPORT
 70
     1
  0
VPORT
  2
*ACTIVE
 70
     0
 10
0.0
 20
0.0
 11
1.0
 21
1.0
 12
-41.088391139021212
 22
2.6775195100989211
 13
0.0
 23
0.0
 14
1.0
 24
1.0
 15
0.0
 25
0.0
 16
-0.0000000000000284
 26
0.0
 36
125.4823799192243996
 17
99.1041030883789063
 27
-5.5594334602355948
 37
0.0
 40
37.8180004457296803
 41
2.5179738562091498
 42
50.0
 43
0.0
 44
0.0
 50
0.0
 51
0.0
 71
     0
 72
   100
 73
     1
 74
     1
 75
     0
 76
     0
 77
     0
 78
     0
  0
ENDTAB
  0
TABLE
  2
LTYPE
 70
     2
  0
LTYPE
  2
CONTINUOUS
 70
     0
  3
Solid line
 72
    65
 73
     0
 40
0.0
  0
LTYPE
  2
PHANTOM2
 70
     0
  3
___ _ _ ___ _ _ ___ _ _ ___ _ _
 72
    65
 73
     6
 40
1.25
 49
0.625
 49
-0.125
 49
0.125
 49
-0.125
 49
0.125
 49
-0.125
  0
ENDTAB
  0
TABLE
  2
LAYER
 70
     2
  0
LAYER
  2
0
 70
     0
 62
   255
  6
CONTINUOUS
  0
LAYER
  2
DEFPOINTS
 70
     0
 62
     7
  6
CONTINUOUS
  0
ENDTAB
  0
TABLE
  2
STYLE
 70
     1
  0
STYLE
  2
STANDARD
 70
     0
 40
0.0
 41
0.8
 50
0.0
 71
     0
 42
0.2
  3
txt
  4

  0
ENDTAB
  0
TABLE
  2
VIEW
 70
     0
  0
ENDTAB
  0
TABLE
  2
UCS
 70
     0
  0
ENDTAB
  0
TABLE
  2
APPID
 70
     9
  0
APPID
  2
ACAD
 70
     0
  0
APPID
  2
ACAD_MLEADERVER
 70
     0
  0
APPID
  2
ACAD_EXEMPT_FROM_CAD_STANDARDS
 70
     0
  0
APPID
  2
ACAD_DSTYLE_DIMJAG
 70
     0
  0
APPID
  2
ACAD_DSTYLE_DIMTALN
 70
     0
  0
APPID
  2
ACAD_NAV_VCDISPLAY
 70
     0
  0
APPID
  2
ACAECLAYERSTANDARD
 70
     0
  0
APPID
  2
ACCMTRANSPARENCY
 70
     0
  0
APPID
  2
ACDBATTR
 70
     0
  0
ENDTAB
  0
TABLE
  2
DIMSTYLE
 70
     1
  0
DIMSTYLE
  2
STANDARD
 70
     0
  3

  4

  5

  6

  7

 40
1.0
 41
0.1875
 42
0.0625
 43
0.38
 44
0.125
 45
0.0
 46
0.0
 47
0.01
 48
0.01
140
0.15625
141
0.09
142
0.0
143
25.3999999999999986
144
1.0
145
0.0
146
1.0
147
0.09
 71
     1
 72
     0
 73
     1
 74
     1
 75
     0
 76
     0
 77
     0
 78
     4
170
     0
171
     2
172
     0
173
     0
174
     0
175
     0
176
     0
177
     0
178
     0
  0
ENDTAB
  0
ENDSEC
  0
SECTION
  2
BLOCKS
  0
BLOCK
  8
0
  2
$MODEL_SPACE
 70
     0
 10
0.0
 20
0.0
 30
0.0
  3
$MODEL_SPACE
  1

  0
ENDBLK
  5
21
  8
0
  0
BLOCK
 67
     1
  8
0
  2
$PAPER_SPACE
 70
     0
 10
0.0
 20
0.0
 30
0.0
  3
$PAPER_SPACE
  1

  0
ENDBLK
  5
1D
 67
     1
  8
0
  0
ENDSEC
  0
SECTION
  2
ENTITIES
  0
ATTDEF
  5
39EB
  8
DEFPOINTS
 10
58.0156060690564672
 20
-2.8780337310589341
 30
0.0
 40
0.001
  1
K-8524BR
  3

  2
MODELNUMBER
 70
     0
1001
ACDBATTR
1070
     0
1070
     1
  0
ATTDEF
  5
39EC
  8
DEFPOINTS
 10
58.0156060690564672
 20
-2.8797003977255988
 30
0.0
 40
0.001
  1

  3

  2
TRADENAME
 70
     0
1001
ACDBATTR
1070
     0
1070
     1
  0
ATTDEF
  5
39ED
  8
DEFPOINTS
 10
58.0156060690564672
 20
-2.881367064392264
 30
0.0
 40
0.001
  1
SLIDEBAR
  3

  2
PRODUCT
 70
     0
1001
ACDBATTR
1070
     0
1070
     1
  0
LINE
  5
4432
  8
0
 10
57.5665556023110625
 20
-17.9814088470624291
 30
0.0
 11
58.464554817711047
 21
-17.9814088470624291
 31
0.0
  0
LINE
  5
4433
  8
0
 10
57.5431056023110727
 20
-17.8814088470624384
 30
0.0
 11
58.4880056023110484
 21
-17.8814088470624313
 31
0.0
  0
LINE
  5
4434
  8
0
 10
58.6317921012110475
 20
8.0842019871375648
 30
0.0
 11
58.6355502708110592
 21
7.869201989037566
 31
0.0
  0
LINE
  5
4435
  8
0
 10
58.2605556023110509
 20
6.1661054201375647
 30
0.0
 11
58.2605556023110509
 21
6.9585911529375677
 31
0.0
  0
LINE
  5
4436
  8
0
 10
58.4845556023110476
 20
-17.9014088470624415
 30
0.0
 11
58.4845556023110476
 21
-17.9614088470624296
 31
0.0
  0
LINE
  5
4437
  8
0
 10
58.4845556023110476
 20
12.1385911529375701
 30
0.0
 11
58.4845556023110476
 21
12.1985911529375599
 31
0.0
  0
LINE
  5
4438
  8
0
 10
58.4880056023110484
 20
12.1185911529375598
 30
0.0
 11
58.4880056023110484
 21
8.1185911529375616
 31
0.0
  0
LINE
  5
4439
  8
0
 10
58.4880056023110484
 20
6.3585911529375698
 30
0.0
 11
58.4880056023110484
 21
-17.8814088470624313
 31
0.0
  0
LINE
  5
443A
  8
0
 10
58.3299553372110466
 20
7.884201987137561
 30
0.0
 11
58.3144203294110497
 21
6.9942019871375614
 31
0.0
  0
LINE
  5
443B
  8
0
 10
58.5643989428110601
 20
6.992980318737561
 30
0.0
 11
58.5799339506110996
 21
7.8842019889061836
 31
0.0
  0
LINE
  5
443C
  8
0
 10
58.609798719411053
 20
6.3929803186375649
 30
0.0
 11
58.6355502708110592
 21
7.869201989037566
 31
0.0
  0
LINE
  5
443D
  8
0
 10
58.2605556023110509
 20
6.3585911529375672
 30
0.0
 11
58.5748040501110623
 21
6.3585911529375672
 31
0.0
  0
LINE
  5
443E
  8
0
 10
57.5017069311110589
 20
6.9585911529375677
 30
0.0
 11
58.5294040666110504
 21
6.9585911529375677
 31
0.0
  0
LINE
  5
443F
  8
0
 10
58.5449391490110571
 20
7.9185911529375623
 30
0.0
 11
57.486171923311062
 21
7.9185911529375623
 31
0.0
  0
LINE
  5
4440
  8
0
 10
57.4343137727110573
 20
8.1185911529375652
 30
0.0
 11
58.5967964170110633
 21
8.1185911529375652
 31
0.0
  0
LINE
  5
4441
  8
0
 10
58.4880056023110484
 20
12.1185911529375598
 30
0.0
 11
57.5431056023110727
 21
12.1185911529375598
 31
0.0
  0
LINE
  5
4442
  8
0
 10
58.464554817711047
 20
12.2185911529375701
 30
0.0
 11
57.5665556023110625
 21
12.2185911529375701
 31
0.0
  0
ARC
  5
4443
  8
0
 10
58.4645556023110586
 20
-17.9014088470624415
 30
0.0
 40
0.02
 50
0.0
 51
90.0
  0
ARC
  5
4444
  8
0
 10
58.4645556023110586
 20
-17.9614088470624296
 30
0.0
 40
0.02
 50
269.9977521212999818
 51
0.0
  0
CIRCLE
  5
4445
  8
0
 10
58.0155556023110606
 20
7.4385911529375646
 30
0.0
 40
0.17
  0
CIRCLE
  5
4446
  8
0
 10
58.0155556023110606
 20
7.4385911529375646
 30
0.0
 40
0.1315
  0
ARC
  5
4447
  8
0
 10
58.5294042735100817
 20
6.9935911529379409
 30
0.0
 40
0.0350000000009847
 50
269.9996613017024174
 51
358.9999999994101927
  0
ARC
  5
4448
  8
0
 10
58.5449392813106684
 20
7.8835911529374298
 30
0.0
 40
0.0350000000003816
 50
1.000002854488597
 51
90.0002165774029379
  0
ARC
  5
4449
  8
0
 10
58.3649500066110605
 20
7.8835911529375648
 30
0.0
 40
0.035
 50
90.0
 51
178.9999999908999087
  0
ARC
  5
444A
  8
0
 10
58.3494149988110493
 20
6.9935911529375652
 30
0.0
 40
0.035
 50
179.0000000206999005
 51
270.0
  0
ARC
  5
444B
  8
0
 10
58.5967974318883478
 20
8.0835911529294435
 30
0.0
 40
0.0350000000228353
 50
1.000001724947905
 51
90.0016613767357967
  0
ARC
  5
444C
  8
0
 10
58.5748040501110623
 20
6.3935911529375629
 30
0.0
 40
0.035
 50
270.0
 51
358.999998623599879
  0
ARC
  5
444D
  8
0
 10
58.4645556023110586
 20
12.1985911529375599
 30
0.0
 40
0.02
 50
0.0
 51
90.0022478786999613
  0
ARC
  5
444E
  8
0
 10
58.4645556023110586
 20
12.1385911529375701
 30
0.0
 40
0.02
 50
270.0
 51
0.0
  0
CIRCLE
  5
444F
  8
0
 10
58.0155556023110606
 20
7.4384383949051163
 30
0.0
 40
0.0805280698978895
  0
ARC
  5
4450
  8
0
 10
58.1926268133825388
 20
6.1679787539239106
 30
0.0
 40
0.0679546153308712
 50
270.5967610054586885
 51
358.4203027462120872
  0
LINE
  5
4451
  8
0
 10
58.1205556023110503
 20
6.9585911529375677
 30
0.0
 11
58.1205556023110574
 21
6.9102397015375621
 31
0.0
  0
ARC
  5
4452
  8
0
 10
58.1005556023110614
 20
6.9102397015375621
 30
0.0
 40
0.0199999999999978
 50
270.0000512396921977
 51
359.9999999999976126
  0
ARC
  5
4453
  8
0
 10
58.1005555656517814
 20
6.9512317893041384
 30
0.0
 40
0.0609920877665923
 50
255.023915131136107
 51
270.0000512396937893
  0
LINE
  5
4454
  8
0
 10
57.7705556023110489
 20
6.1661054201375647
 30
0.0
 11
57.7705556023110489
 21
6.9585911529375677
 31
0.0
  0
LINE
  5
4455
  8
0
 10
57.5465556023110523
 20
-17.9014088470624415
 30
0.0
 11
57.5465556023110523
 21
-17.9614088470624296
 31
0.0
  0
LINE
  5
4456
  8
0
 10
57.5465556023110523
 20
12.1385911529375701
 30
0.0
 11
57.5465556023110523
 21
12.1985911529375599
 31
0.0
  0
LINE
  5
4457
  8
0
 10
57.5431056023110727
 20
12.1185911529375598
 30
0.0
 11
57.5431056023110727
 21
8.1185911529375616
 31
0.0
  0
LINE
  5
4458
  8
0
 10
57.5431056023110727
 20
6.3585911523303116
 30
0.0
 11
57.5431056023110727
 21
-17.8814088470624313
 31
0.0
  0
LINE
  5
4459
  8
0
 10
57.7011558674110603
 20
7.884201987137561
 30
0.0
 11
57.7166908752110572
 21
6.9942019871375614
 31
0.0
  0
LINE
  5
445A
  8
0
 10
57.7705556023110489
 20
6.3585911529375627
 30
0.0
 11
57.4563071559633372
 21
6.3585911520985681
 31
0.0
  0
ARC
  5
445B
  8
0
 10
57.5665556023110625
 20
-17.9014088470624415
 30
0.0
 40
0.02
 50
90.0
 51
180.0
  0
ARC
  5
445C
  8
0
 10
57.5665556023110625
 20
-17.9614088470624296
 30
0.0
 40
0.019999999999996
 50
180.0000000000100897
 51
270.0
  0
ARC
  5
445D
  8
0
 10
57.5017069311110589
 20
6.9935911529375652
 30
0.0
 40
0.035
 50
180.9999999999998863
 51
269.9999983861998203
  0
ARC
  5
445E
  8
0
 10
57.6661611980110607
 20
7.8835911529375648
 30
0.0
 40
0.035
 50
1.000000009100056
 51
90.0
  0
ARC
  5
445F
  8
0
 10
57.6816962058110505
 20
6.9935911529375652
 30
0.0
 40
0.035
 50
270.0
 51
0.999999979300078
  0
ARC
  5
4460
  8
0
 10
57.4343137727110573
 20
8.0835911529375686
 30
0.0
 40
0.035
 50
90.0
 51
178.9999982877000946
  0
ARC
  5
4461
  8
0
 10
57.4563071559633016
 20
6.3935911535614984
 30
0.0
 40
0.0350000014629113
 50
181.0000023561511
 51
270.0000000000463842
  0
ARC
  5
4462
  8
0
 10
57.5665472446277704
 20
12.1985995106208396
 30
0.0
 40
0.0199916440637305
 50
89.9760469928759932
 51
180.0239530070938088
  0
ARC
  5
4463
  8
0
 10
57.5665556023110625
 20
12.1385911529375701
 30
0.0
 40
0.02
 50
180.0
 51
270.0
  0
ARC
  5
4464
  8
0
 10
57.8384843912395965
 20
6.1679787539239426
 30
0.0
 40
0.0679546153309206
 50
181.5796972538146008
 51
269.4032389945290902
  0
LINE
  5
4465
  8
0
 10
57.9105556023110566
 20
6.9585911529375677
 30
0.0
 11
57.9105556023110566
 21
6.9102397015375621
 31
0.0
  0
ARC
  5
4466
  8
0
 10
57.9305556023110526
 20
6.9102397015375621
 30
0.0
 40
0.0199999999999978
 50
180.0000000000021885
 51
269.9999487603068928
  0
ARC
  5
4467
  8
0
 10
57.9305556389703398
 20
6.9512317893041384
 30
0.0
 40
0.0609920877665923
 50
269.999948760306097
 51
284.9760848688632109
  0
ARC
  5
4468
  8
0
 10
58.0155556023110606
 20
5.238853245456272
 30
0.0
 40
0.8793332813958324
 50
78.3358393201025081
 51
101.6641606798974067
  0
ARC
  5
4469
  8
0
 10
58.0155556023110606
 20
6.7522397015375724
 30
0.0
 40
0.1562499999999934
 50
63.696413646199332
 51
116.3035863538006964
  0
LINE
  5
446A
  8
0
 10
57.3993191034110595
 20
8.0842019871375648
 30
0.0
 11
57.3955609338110619
 21
7.869201989037566
 31
0.0
  0
LINE
  5
446B
  8
0
 10
57.4667122618110611
 20
6.992980318737561
 30
0.0
 11
57.4511772540110073
 21
7.8842019889061836
 31
0.0
  0
LINE
  5
446C
  8
0
 10
57.4213124852110681
 20
6.3929803186375649
 30
0.0
 11
57.3955609338110619
 21
7.869201989037566
 31
0.0
  0
ARC
  5
446D
  8
0
 10
57.486171923311062
 20
7.8835911529375693
 30
0.0
 40
0.0349999999999982
 50
89.9999999999967457
 51
178.9999971457274057
  0
ENDSEC
  0
EOF
