  0
SECTION
  2
HEADER
  9
$ACADVER
  1
AC1009
  9
$INSBASE
 10
6.0444070425127832
 20
17.9640050221
 30
0.0
  9
$EXTMIN
 10
-10.458980092888719
 20
8.3232419418164696
 30
-0.0000000349181948
  9
$EXTMAX
 10
22.547794485285689
 20
17.974450648316111
 30
0.0000000814935746
  9
$LIMMIN
 10
0.0
 20
0.0
  9
$LIMMAX
 10
22.0
 20
17.0
  9
$ORTHOMODE
 70
     0
  9
$REGENMODE
 70
     1
  9
$FILLMODE
 70
     1
  9
$QTEXTMODE
 70
     0
  9
$MIRRTEXT
 70
     0
  9
$DRAGMODE
 70
     2
  9
$LTSCALE
 40
1.2099999999999991
  9
$OSMODE
 70
    39
  9
$ATTMODE
 70
     1
  9
$TEXTSIZE
 40
0.2
  9
$TRACEWID
 40
0.05
  9
$TEXTSTYLE
  7
STANDARD
  9
$CLAYER
  8
0
  9
$CELTYPE
  6
BYLAYER
  9
$CECOLOR
 62
   256
  9
$DIMSCALE
 40
1.0
  9
$DIMASZ
 40
0.1875
  9
$DIMEXO
 40
0.0625
  9
$DIMDLI
 40
0.8359999999999999
  9
$DIMRND
 40
0.0
  9
$DIMDLE
 40
0.0
  9
$DIMEXE
 40
0.125
  9
$DIMTP
 40
0.01
  9
$DIMTM
 40
0.01
  9
$DIMTXT
 40
0.15625
  9
$DIMCEN
 40
0.198
  9
$DIMTSZ
 40
0.0
  9
$DIMTOL
 70
     1
  9
$DIMLIM
 70
     0
  9
$DIMTIH
 70
     1
  9
$DIMTOH
 70
     1
  9
$DIMSE1
 70
     0
  9
$DIMSE2
 70
     0
  9
$DIMTAD
 70
     0
  9
$DIMZIN
 70
     0
  9
$DIMBLK
  1

  9
$DIMASO
 70
     1
  9
$DIMSHO
 70
     1
  9
$DIMPOST
  1

  9
$DIMAPOST
  1

  9
$DIMALT
 70
     0
  9
$DIMALTD
 70
     2
  9
$DIMALTF
 40
25.399999999999999
  9
$DIMLFAC
 40
1.0
  9
$DIMTOFL
 70
     0
  9
$DIMTVP
 40
0.0
  9
$DIMTIX
 70
     0
  9
$DIMSOXD
 70
     0
  9
$DIMSAH
 70
     0
  9
$DIMBLK1
  1

  9
$DIMBLK2
  1

  9
$DIMSTYLE
  2
STANDARD
  9
$DIMCLRD
 70
     0
  9
$DIMCLRE
 70
     0
  9
$DIMCLRT
 70
     0
  9
$DIMTFAC
 40
1.0
  9
$DIMGAP
 40
0.09
  9
$LUNITS
 70
     2
  9
$LUPREC
 70
     4
  9
$SKETCHINC
 40
0.1
  9
$FILLETRAD
 40
0.0
  9
$AUNITS
 70
     0
  9
$AUPREC
 70
     0
  9
$MENU
  1
.
  9
$ELEVATION
 40
0.0
  9
$PELEVATION
 40
0.0
  9
$THICKNESS
 40
0.0
  9
$LIMCHECK
 70
     0
  9
$BLIPMODE
 70
     0
  9
$CHAMFERA
 40
0.0
  9
$CHAMFERB
 40
0.0
  9
$SKPOLY
 70
     0
  9
$TDCREATE
 40
2457970.4831138081
  9
$TDUPDATE
 40
2457973.5295256949
  9
$TDINDWG
 40
0.0930378125
  9
$TDUSRTIMER
 40
0.0930378125
  9
$USRTIMER
 70
     1
  9
$ANGBASE
 50
0.0
  9
$ANGDIR
 70
     0
  9
$PDMODE
 70
     0
  9
$PDSIZE
 40
0.3125
  9
$PLINEWID
 40
0.0
  9
$COORDS
 70
     1
  9
$SPLFRAME
 70
     0
  9
$SPLINETYPE
 70
     6
  9
$SPLINESEGS
 70
     8
  9
$ATTDIA
 70
     1
  9
$ATTREQ
 70
     1
  9
$HANDLING
 70
     1
  9
$HANDSEED
  5
1077
  9
$SURFTAB1
 70
     6
  9
$SURFTAB2
 70
     6
  9
$SURFTYPE
 70
     6
  9
$SURFU
 70
     6
  9
$SURFV
 70
     6
  9
$UCSNAME
  2

  9
$UCSORG
 10
0.0
 20
0.0
 30
0.0
  9
$UCSXDIR
 10
1.0
 20
0.0
 30
0.0
  9
$UCSYDIR
 10
0.0
 20
1.0
 30
0.0
  9
$PUCSNAME
  2

  9
$PUCSORG
 10
0.0
 20
0.0
 30
0.0
  9
$PUCSXDIR
 10
1.0
 20
0.0
 30
0.0
  9
$PUCSYDIR
 10
0.0
 20
1.0
 30
0.0
  9
$USERI1
 70
     0
  9
$USERI2
 70
     0
  9
$USERI3
 70
     0
  9
$USERI4
 70
     0
  9
$USERI5
 70
     0
  9
$USERR1
 40
0.0
  9
$USERR2
 40
0.0
  9
$USERR3
 40
0.0
  9
$USERR4
 40
0.0
  9
$USERR5
 40
0.0
  9
$WORLDVIEW
 70
     1
  9
$SHADEDGE
 70
     3
  9
$SHADEDIF
 70
    70
  9
$TILEMODE
 70
     1
  9
$MAXACTVP
 70
    64
  9
$PLIMCHECK
 70
     0
  9
$PEXTMIN
 10
1.0000000000000000E+020
 20
1.0000000000000000E+020
 30
1.0000000000000000E+020
  9
$PEXTMAX
 10
-1.0000000000000000E+020
 20
-1.0000000000000000E+020
 30
-1.0000000000000000E+020
  9
$PLIMMIN
 10
0.0
 20
0.0
  9
$PLIMMAX
 10
12.0
 20
9.0
  9
$UNITMODE
 70
     0
  9
$VISRETAIN
 70
     1
  9
$PLINEGEN
 70
     0
  9
$PSLTSCALE
 70
     1
  0
ENDSEC
  0
SECTION
  2
TABLES
  0
TABLE
  2
VPORT
 70
     1
  0
VPORT
  2
*ACTIVE
 70
     0
 10
0.0
 20
0.0
 11
1.0
 21
1.0
 12
-0.0000001715078142
 22
0.1668440367655108
 13
0.0
 23
0.0
 14
1.0
 24
1.0
 15
0.0
 25
0.0
 16
-0.0000000000000187
 26
0.0
 36
83.112527360877209
 17
6.0444073677062979
 27
12.982002258300779
 37
0.0
 40
19.371855466696871
 41
1.7101910828025471
 42
50.0
 43
0.0
 44
0.0
 50
0.0
 51
0.0
 71
     0
 72
   100
 73
     1
 74
     1
 75
     0
 76
     0
 77
     0
 78
     0
  0
ENDTAB
  0
TABLE
  2
LTYPE
 70
     2
  0
LTYPE
  2
CONTINUOUS
 70
     0
  3
Solid line
 72
    65
 73
     0
 40
0.0
  0
LTYPE
  2
PHANTOM2
 70
     0
  3
___ _ _ ___ _ _ ___ _ _ ___ _ _
 72
    65
 73
     6
 40
1.25
 49
0.625
 49
-0.125
 49
0.125
 49
-0.125
 49
0.125
 49
-0.125
  0
ENDTAB
  0
TABLE
  2
LAYER
 70
     2
  0
LAYER
  2
0
 70
     0
 62
     7
  6
CONTINUOUS
  0
LAYER
  2
DEFPOINTS
 70
     0
 62
     7
  6
CONTINUOUS
  0
ENDTAB
  0
TABLE
  2
STYLE
 70
     1
  0
STYLE
  2
STANDARD
 70
     0
 40
0.0
 41
0.8
 50
0.0
 71
     0
 42
0.2
  3
txt
  4

  0
ENDTAB
  0
TABLE
  2
VIEW
 70
     1
  0
ENDTAB
  0
TABLE
  2
UCS
 70
     0
  0
ENDTAB
  0
TABLE
  2
APPID
 70
     5
  0
APPID
  2
ACAD
 70
     0
  0
APPID
  2
ACAD_EXEMPT_FROM_CAD_STANDARDS
 70
     0
  0
APPID
  2
ACAD_NAV_VCDISPLAY
 70
     0
  0
APPID
  2
ACAD_MLEADERVER
 70
     0
  0
APPID
  2
ACDBATTR
 70
     0
  0
ENDTAB
  0
TABLE
  2
DIMSTYLE
 70
     1
  0
DIMSTYLE
  2
STANDARD
 70
     0
  3

  4

  5

  6

  7

 40
1.0
 41
0.1875
 42
0.0625
 43
0.38
 44
0.125
 45
0.0
 46
0.0
 47
0.01
 48
0.01
140
0.15625
141
0.09
142
0.0
143
25.399999999999999
144
1.0
145
0.0
146
1.0
147
0.09
 71
     1
 72
     0
 73
     1
 74
     1
 75
     0
 76
     0
 77
     0
 78
     4
170
     0
171
     2
172
     0
173
     0
174
     0
175
     0
176
     0
177
     0
178
     0
  0
ENDTAB
  0
ENDSEC
  0
SECTION
  2
BLOCKS
  0
BLOCK
  8
0
  2
$MODEL_SPACE
 70
     0
 10
0.0
 20
0.0
 30
0.0
  3
$MODEL_SPACE
  1

  0
ENDBLK
  5
21
  8
0
  0
BLOCK
 67
     1
  8
0
  2
$PAPER_SPACE
 70
     0
 10
0.0
 20
0.0
 30
0.0
  3
$PAPER_SPACE
  1

  0
ENDBLK
  5
1D
 67
     1
  8
0
  0
ENDSEC
  0
SECTION
  2
ENTITIES
  0
LINE
  5
21C
  8
0
 10
-9.1765499713000001
 20
16.437344198400002
 30
0.0
 11
-8.8630373936000009
 21
10.455676393499999
 31
0.0
  0
LINE
  5
22D
  8
0
 10
-7.7661984014999987
 20
8.9380882826999972
 30
0.0
 11
-7.5035697442
 21
8.3592312372999995
 31
0.0
  0
LINE
  5
256
  8
0
 10
-7.4483222798000002
 20
8.3240050220999997
 30
0.0
 11
-6.5183406282999998
 21
8.3240050220999997
 31
0.0
  0
LINE
  5
258
  8
0
 10
-4.344733259399999
 20
8.3240050220999997
 30
0.0
 11
0.5475341644000001
 21
8.3240050220999997
 31
0.0
  0
LINE
  5
260
  8
0
 10
-4.8589927116
 20
8.4341845840000005
 30
0.0
 11
1.0617936164999999
 21
8.4341845840000005
 31
0.0
  0
LINE
  5
267
  8
0
 10
5.4034496634999991
 20
10.4983501947
 30
0.0
 11
5.5584711903999988
 21
13.4664459869
 31
0.0
  0
LINE
  5
29C
  8
0
 10
6.5110896277999988
 20
13.4740050221
 30
0.0
 11
5.5777112982999997
 21
13.4740050221
 31
0.0
  0
LINE
  5
2B2
  8
0
 10
22.0525291935
 20
17.9640050221
 30
0.0
 11
-9.9637282886000005
 21
17.9640050221
 31
0.0
  0
ARC
  5
3A7
  8
0
 10
-9.9637282885999952
 20
17.297361989099979
 30
0.0
 40
0.666643033000014
 50
90.000000000000298
 51
134.2146803405993
  0
ARC
  5
3B8
  8
0
 10
-6.7825743277708819
 20
10.85711662498294
 30
0.0
 40
2.1074105778220318
 50
188.23445883585549
 51
239.03582888836041
  0
ARC
  5
6FA
  8
0
 10
-10.384662718061691
 20
17.731142566538772
 30
0.0
 40
0.0622056598343444
 50
134.95081412312109
 51
174.24196362350341
  0
LINE
  5
6FB
  8
0
 10
-10.446554516500001
 20
17.737383512099999
 30
0.0
 11
-10.456965857353101
 21
17.634133675479731
 31
0.0
  0
LINE
  5
6FC
  8
0
 10
-10.456965857353101
 20
17.634133675479731
 30
0.0
 11
22.545779942378669
 21
17.634003177695259
 31
0.0
  0
ARC
  5
6FD
  8
0
 10
-11.230808752015729
 20
16.261923413308889
 30
0.0
 40
2.0617350920983202
 50
4.8808584634009922
 51
39.926846691364993
  0
ARC
  5
6FE
  8
0
 10
-9.755638970391816
 20
17.496531706699908
 30
0.0
 40
0.1380969965288243
 50
39.926846691365469
 51
85.133417200943484
  0
ARC
  5
6FF
  8
0
 10
-6.8028533106841751
 20
10.5669021660644
 30
0.0
 40
2.0631843417354321
 50
183.09029982353121
 51
245.6933644257856
  0
ARC
  5
700
  8
0
 10
-63.264162503838683
 20
-27.084941782415989
 30
0.0
 40
66.066879076334885
 50
32.437269216067563
 51
32.83078131220438
  0
ARC
  5
701
  8
0
 10
-7.4540988500624259
 20
8.3841460986041056
 30
0.0
 40
0.0604178603317724
 50
212.43726921606759
 51
275.48644781057072
  0
ARC
  5
702
  8
0
 10
-7.9883977640323147
 20
8.8395388464316191
 30
0.0
 40
0.2430731332306857
 50
23.918152248007019
 51
59.994557152256959
  0
ARC
  5
703
  8
0
 10
-7.4489021989658788
 20
8.3840326238305725
 30
0.0
 40
0.0600304029285451
 50
204.40268426003121
 51
270.55351015276972
  0
ARC
  5
704
  8
0
 10
-6.519650304676647
 20
8.3864053543783612
 30
0.0
 40
0.0624140747000344
 50
271.20236400441888
 51
323.20921546854822
  0
LINE
  5
705
  8
0
 10
-6.4696673843059456
 20
8.3490258895363176
 30
0.0
 11
-6.2519654351999989
 21
8.6501747316999982
 31
0.0
  0
ARC
  5
706
  8
0
 10
-6.0508299357440034
 20
8.5031743685480237
 30
0.0
 40
0.249127669896835
 50
89.260949862548586
 51
143.8387081921644
  0
ARC
  5
707
  8
0
 10
-1.8812832193660241
 20
343.15784360819453
 30
0.0
 40
334.4315153017123
 50
269.28619319396688
 51
270.76642371291371
  0
ARC
  5
708
  8
0
 10
-6.5092768046470404
 20
8.3916371221733677
 30
0.0
 40
0.0682367486003401
 50
262.36689597089872
 51
302.69325632149639
  0
LINE
  5
709
  8
0
 10
-6.4724193204999976
 20
8.3342108239999995
 30
0.0
 11
-6.241436780197545
 21
8.4824605882167816
 31
0.0
  0
ARC
  5
70A
  8
0
 10
-4.9115102029249682
 20
6.9338266819737431
 30
0.0
 40
1.5012767636474289
 50
67.819234158564143
 51
87.995276605486879
  0
ARC
  5
710
  8
0
 10
1011468.652762188
 20
28964841.22854333
 30
0.0
 40
28982488.117312182
 50
267.999998468456
 51
268.00000145732798
  0
LINE
  5
711
  8
0
 10
4.3112890099462087
 20
8.9380868864421021
 30
0.0
 11
4.048660352646209
 21
8.3592298410421026
 31
0.0
  0
LINE
  5
712
  8
0
 10
3.9934128882462101
 20
8.3240036258421028
 30
0.0
 11
3.0634312367462102
 21
8.3240036258421028
 31
0.0
  0
ARC
  5
713
  8
0
 10
59.809253112284892
 20
-27.084943178673889
 30
0.0
 40
66.066879076334885
 50
147.16921868779559
 51
147.56273078393241
  0
ARC
  5
714
  8
0
 10
3.9991894585086358
 20
8.3841447023462088
 30
0.0
 40
0.0604178603317724
 50
264.51355218942928
 51
327.56273078393252
  0
ARC
  5
715
  8
0
 10
4.5334883724785247
 20
8.8395374501737241
 30
0.0
 40
0.2430731332306857
 50
120.005442847743
 51
156.081847751993
  0
ARC
  5
716
  8
0
 10
3.9939928074120892
 20
8.3840312275726756
 30
0.0
 40
0.0600304029285451
 50
269.44648984723028
 51
335.59731573996879
  0
ARC
  5
717
  8
0
 10
3.0647409131228569
 20
8.3864039581204644
 30
0.0
 40
0.0624140747000344
 50
216.79078453145169
 51
268.797635995581
  0
LINE
  5
718
  8
0
 10
3.0147579927521559
 20
8.3490244932784208
 30
0.0
 11
2.7970560436462089
 21
8.6501733354421031
 31
0.0
  0
ARC
  5
719
  8
0
 10
2.583339958062425
 20
8.4882828379748521
 30
0.0
 40
0.2681102355514425
 50
37.144024621853212
 51
88.117843705404383
  0
ARC
  5
71A
  8
0
 10
3.0543674130932499
 20
8.3916357259154708
 30
0.0
 40
0.0682367486003401
 50
237.30674367850361
 51
277.63310402910128
  0
LINE
  5
71B
  8
0
 10
3.017509928946208
 20
8.3342094277421026
 30
0.0
 11
2.768982836173655
 21
8.4937196784163689
 31
0.0
  0
ARC
  5
71C
  8
0
 10
-33.122918606121999
 20
1013.199399120363
 30
0.0
 40
1005.34657252713
 50
271.94859903393001
 51
272.05380050462219
  0
ARC
  5
71D
  8
0
 10
1.135334919898666
 20
6.8656786385773714
 30
0.0
 40
1.5723312529626161
 50
93.997485282899504
 51
111.9526531721278
  0
ARC
  5
71E
  8
0
 10
3.2766292941673161
 20
10.60407530961953
 30
0.0
 40
2.1294465673815748
 50
298.56623523207452
 51
357.15414585648392
  0
ARC
  5
71F
  8
0
 10
3.3091607863949228
 20
10.848879620760901
 30
0.0
 40
2.1099648363992158
 50
301.51010985710963
 51
356.13946093116328
  0
ARC
  5
725
  8
0
 10
5.5759169633982051
 20
13.450306602828171
 30
0.0
 40
0.0237662515707225
 50
85.670089671845503
 51
137.227557112288
  0
LINE
  5
726
  8
0
 10
21.265350897400001
 20
16.437344198400002
 30
0.0
 11
20.951838319699998
 21
10.455676393499999
 31
0.0
  0
LINE
  5
727
  8
0
 10
19.854999327599991
 20
8.9380882826999972
 30
0.0
 11
19.592370670299999
 21
8.3592312372999995
 31
0.0
  0
LINE
  5
728
  8
0
 10
19.537123205899999
 20
8.3240050220999997
 30
0.0
 11
18.607141554399998
 21
8.3240050220999997
 31
0.0
  0
LINE
  5
729
  8
0
 10
16.433534185500001
 20
8.3240050220999997
 30
0.0
 11
11.541266761699999
 21
8.3240050220999997
 31
0.0
  0
LINE
  5
72A
  8
0
 10
16.947793637699998
 20
8.4341845840000005
 30
0.0
 11
11.0270073096
 21
8.4341845840000005
 31
0.0
  0
LINE
  5
72B
  8
0
 10
6.6853512625999993
 20
10.4983501947
 30
0.0
 11
6.5303297356999987
 21
13.4664459869
 31
0.0
  0
ARC
  5
72D
  8
0
 10
22.052529214700002
 20
17.297361989099979
 30
0.0
 40
0.666643033000014
 50
45.785319659400614
 51
89.999999999999687
  0
ARC
  5
72E
  8
0
 10
18.87137525387088
 20
10.85711662498294
 30
0.0
 40
2.1074105778220318
 50
300.96417111163959
 51
351.76554116414439
  0
ARC
  5
72F
  8
0
 10
22.47346364416169
 20
17.731142566538772
 30
0.0
 40
0.0622056598343444
 50
5.758036376496527
 51
45.049185876878859
  0
LINE
  5
730
  8
0
 10
22.5353554426
 20
17.737383512099999
 30
0.0
 11
22.545779942378669
 21
17.634003177695259
 31
0.0
  0
ARC
  5
731
  8
0
 10
23.319609678115729
 20
16.261923413308889
 30
0.0
 40
2.0617350920983202
 50
140.07315330863489
 51
175.11914153659899
  0
ARC
  5
732
  8
0
 10
21.844439896491821
 20
17.496531706699908
 30
0.0
 40
0.1380969965288243
 50
95.443126893833551
 51
140.07315330863449
  0
ARC
  5
733
  8
0
 10
18.89165423678417
 20
10.5669021660644
 30
0.0
 40
2.0631843417354321
 50
294.3066355742144
 51
356.90970017646879
  0
ARC
  5
734
  8
0
 10
75.352963429938683
 20
-27.084941782415989
 30
0.0
 40
66.066879076334885
 50
147.16921868779559
 51
147.56273078393241
  0
ARC
  5
735
  8
0
 10
19.542899776162422
 20
8.3841460986041056
 30
0.0
 40
0.0604178603317724
 50
264.51355218942928
 51
327.56273078393252
  0
ARC
  5
736
  8
0
 10
20.07719869013231
 20
8.8395388464316191
 30
0.0
 40
0.2430731332306857
 50
120.005442847743
 51
156.081847751993
  0
ARC
  5
737
  8
0
 10
19.537703125065882
 20
8.3840326238305725
 30
0.0
 40
0.0600304029285451
 50
269.44648984723028
 51
335.59731573996879
  0
ARC
  5
738
  8
0
 10
18.608451230776641
 20
8.3864053543783612
 30
0.0
 40
0.0624140747000344
 50
216.79078453145169
 51
268.79763599558112
  0
LINE
  5
739
  8
0
 10
18.558468310405939
 20
8.3490258895363176
 30
0.0
 11
18.340766361299998
 21
8.6501747316999982
 31
0.0
  0
ARC
  5
73A
  8
0
 10
18.139630861844001
 20
8.5031743685480237
 30
0.0
 40
0.249127669896835
 50
36.161291807835653
 51
90.739050137451457
  0
ARC
  5
73B
  8
0
 10
13.97008414546602
 20
343.15784360819453
 30
0.0
 40
334.4315153017123
 50
269.23357628708641
 51
270.71380680603312
  0
ARC
  5
73C
  8
0
 10
18.59807773074704
 20
8.3916371221733677
 30
0.0
 40
0.0682367486003401
 50
237.30674367850361
 51
277.63310402910128
  0
LINE
  5
73D
  8
0
 10
18.561220246600001
 20
8.3342108239999995
 30
0.0
 11
18.330237706297542
 21
8.4824605882167816
 31
0.0
  0
ARC
  5
73E
  8
0
 10
17.000311129024968
 20
6.9338266819737431
 30
0.0
 40
1.5012767636474289
 50
92.004723394513121
 51
112.1807658414359
  0
ARC
  5
73F
  8
0
 10
-1011456.563961262
 20
28964841.22854333
 30
0.0
 40
28982488.117312182
 50
271.99999854267202
 51
272.000001531544
  0
LINE
  5
740
  8
0
 10
7.7775119161537889
 20
8.9380868864421021
 30
0.0
 11
8.0401405734537903
 21
8.3592298410421026
 31
0.0
  0
LINE
  5
741
  8
0
 10
8.0953880378537892
 20
8.3240036258421028
 30
0.0
 11
9.0253696893537878
 21
8.3240036258421028
 31
0.0
  0
ARC
  5
742
  8
0
 10
-47.720452186184879
 20
-27.084943178673889
 30
0.0
 40
66.066879076334885
 50
32.43726921606757
 51
32.83078131220438
  0
ARC
  5
743
  8
0
 10
8.0896114675913626
 20
8.3841447023462088
 30
0.0
 40
0.0604178603317724
 50
212.43726921606759
 51
275.48644781057072
  0
ARC
  5
744
  8
0
 10
7.5553125536214729
 20
8.8395374501737241
 30
0.0
 40
0.2430731332306857
 50
23.918152248007029
 51
59.994557152257002
  0
ARC
  5
745
  8
0
 10
8.0948081186879097
 20
8.3840312275726756
 30
0.0
 40
0.0600304029285451
 50
204.40268426003121
 51
270.55351015276972
  0
ARC
  5
746
  8
0
 10
9.0240600129771416
 20
8.3864039581204644
 30
0.0
 40
0.0624140747000344
 50
271.202364004419
 51
323.20921546854822
  0
LINE
  5
747
  8
0
 10
9.0740429333478438
 20
8.3490244932784208
 30
0.0
 11
9.2917448824537896
 21
8.6501733354421031
 31
0.0
  0
ARC
  5
748
  8
0
 10
9.5054609680375748
 20
8.4882828379748521
 30
0.0
 40
0.2681102355514425
 50
91.882156294595575
 51
142.85597537814681
  0
ARC
  5
749
  8
0
 10
9.0344335130067481
 20
8.3916357259154708
 30
0.0
 40
0.0682367486003401
 50
262.36689597089872
 51
302.69325632149639
  0
LINE
  5
74A
  8
0
 10
9.0712909971537918
 20
8.3342094277421026
 30
0.0
 11
9.3198180899263434
 21
8.4937196784163689
 31
0.0
  0
ARC
  5
74B
  8
0
 10
45.211719532221991
 20
1013.199399120363
 30
0.0
 40
1005.34657252713
 50
267.94619949537793
 51
268.05140096606988
  0
ARC
  5
74C
  8
0
 10
10.95346600620133
 20
6.8656786385773714
 30
0.0
 40
1.5723312529626161
 50
68.047346827872261
 51
86.002514717100482
  0
ARC
  5
74D
  8
0
 10
8.8121716319326833
 20
10.60407530961953
 30
0.0
 40
2.1294465673815748
 50
182.84585414351611
 51
241.43376476792551
  0
ARC
  5
74E
  8
0
 10
8.7796401397050765
 20
10.848879620760901
 30
0.0
 40
2.1099648363992158
 50
183.86053906883669
 51
238.48989014289049
  0
ARC
  5
74F
  8
0
 10
6.5128839627017943
 20
13.450306602828171
 30
0.0
 40
0.0237662515707225
 50
42.77244288771201
 51
94.329910328154483
  0
ARC
  5
E40
  8
0
 10
-6.6267726617972809
 20
6.744132340983505
 30
0.0
 40
2.627084151108265
 50
103.9059978053388
 51
118.3851540715042
  0
ARC
  5
E41
  8
0
 10
-7.0510105838103518
 20
8.3951791429401581
 30
0.0
 40
0.9225924688778917
 50
50.742817810367377
 51
102.9738797484502
  0
ARC
  5
E42
  8
0
 10
-8.0522148278794088
 20
6.7104112790527664
 30
0.0
 40
2.8754455970340591
 50
45.236388691827479
 51
56.5487756376654
  0
ARC
  5
E43
  8
0
 10
4.1711432404017588
 20
7.2443684205950927
 30
0.0
 40
2.199950152718344
 50
119.0729815025508
 51
136.59773595739551
  0
ARC
  5
E44
  8
0
 10
3.6050655776740288
 20
8.4448926386811536
 30
0.0
 40
0.8800920144634769
 50
70.54002651568365
 51
124.851461689307
  0
ARC
  5
E45
  8
0
 10
2.92554697052068
 20
6.1266723314379998
 30
0.0
 40
3.2948927171527411
 50
62.886754950705317
 51
74.496839683411423
  0
ARC
  5
E46
  8
0
 10
8.831996474704022
 20
6.917884380599836
 30
0.0
 40
2.441054738292018
 50
104.9959996017208
 51
118.6635433742785
  0
ARC
  5
E47
  8
0
 10
8.4871423683991161
 20
8.4536013980286722
 30
0.0
 40
0.8707809697565228
 50
58.713520408873123
 51
109.22800448260701
  0
ARC
  5
E48
  8
0
 10
7.6294106922747806
 20
6.9004234486846601
 30
0.0
 40
2.6445571135135411
 50
44.560880395661812
 51
60.308113440785171
  0
ARC
  5
E49
  8
0
 10
19.709615107029659
 20
7.2520221179531159
 30
0.0
 40
2.1867944437083828
 50
121.2478804282008
 51
136.6895067207802
  0
ARC
  5
E4A
  8
0
 10
19.14955577380972
 20
8.3817556866380372
 30
0.0
 40
0.9365824379165436
 50
77.094646075344343
 51
127.8219912734519
  0
ARC
  5
E4B
  8
0
 10
18.317094605313152
 20
5.7598981757459189
 30
0.0
 40
3.6850639197607729
 50
63.432233698768741
 51
73.580674824309568
  0
ATTDEF
  5
F33
  8
DEFPOINTS
 10
6.0396964332624989
 20
17.972512927492449
 30
0.0
 40
0.001
  1
K-8185-1
  3

  2
MODELNUMBER
 70
     0
1001
ACDBATTR
1070
     0
1070
     1
  0
ATTDEF
  5
F34
  8
DEFPOINTS
 10
6.0396964332624989
 20
17.97084626082578
 30
0.0
 40
0.001
  1
KENNON
  3

  2
TRADENAME
 70
     0
1001
ACDBATTR
1070
     0
1070
     1
  0
ATTDEF
  5
F35
  8
DEFPOINTS
 10
6.0396964332624989
 20
17.969179594159119
 30
0.0
 40
0.001
  1
KITCHEN SINK
  3

  2
PRODUCT
 70
     0
1001
ACDBATTR
1070
     0
1070
     1
  0
ATTDEF
  5
F36
  8
DEFPOINTS
 10
6.0396964332624989
 20
17.96751292749245
 30
0.0
 40
0.001
  1
NEOROC
  3

  2
MATERIAL
 70
     0
1001
ACDBATTR
1070
     0
1070
     1
  0
ENDSEC
  0
EOF
