  0
SECTION
  2
HEADER
  9
$ACADVER
  1
AC1009
  9
$INSBASE
 10
3969.2614002461227756
 20
56.9217910096728872
 30
0.0
  9
$EXTMIN
 10
3965.4533007812729011
 20
55.7406886474228784
 30
0.0
  9
$EXTMAX
 10
3973.0694997109731048
 20
58.1028933719228888
 30
0.0
  9
$LIMMIN
 10
0.0
 20
0.0
  9
$LIMMAX
 10
11.6929133858000007
 20
8.2677165353999982
  9
$ORTHOMODE
 70
     0
  9
$REGENMODE
 70
     1
  9
$FILLMODE
 70
     1
  9
$QTEXTMODE
 70
     0
  9
$MIRRTEXT
 70
     0
  9
$DRAGMODE
 70
     2
  9
$LTSCALE
 40
0.6431102362
  9
$OSMODE
 70
     7
  9
$ATTMODE
 70
     1
  9
$TEXTSIZE
 40
0.2
  9
$TRACEWID
 40
0.05
  9
$TEXTSTYLE
  7
STANDARD
  9
$CLAYER
  8
0
  9
$CELTYPE
  6
BYLAYER
  9
$CECOLOR
 62
   256
  9
$DIMSCALE
 40
1.0
  9
$DIMASZ
 40
0.1875
  9
$DIMEXO
 40
0.0625
  9
$DIMDLI
 40
0.4443307087
  9
$DIMRND
 40
0.0
  9
$DIMDLE
 40
0.0
  9
$DIMEXE
 40
0.125
  9
$DIMTP
 40
0.01
  9
$DIMTM
 40
0.01
  9
$DIMTXT
 40
2.0
  9
$DIMCEN
 40
0.1052362205
  9
$DIMTSZ
 40
0.0
  9
$DIMTOL
 70
     1
  9
$DIMLIM
 70
     0
  9
$DIMTIH
 70
     1
  9
$DIMTOH
 70
     1
  9
$DIMSE1
 70
     0
  9
$DIMSE2
 70
     0
  9
$DIMTAD
 70
     0
  9
$DIMZIN
 70
     0
  9
$DIMBLK
  1

  9
$DIMASO
 70
     1
  9
$DIMSHO
 70
     1
  9
$DIMPOST
  1
\X
  9
$DIMAPOST
  1

  9
$DIMALT
 70
     1
  9
$DIMALTD
 70
     2
  9
$DIMALTF
 40
25.3999999999999986
  9
$DIMLFAC
 40
1.0
  9
$DIMTOFL
 70
     0
  9
$DIMTVP
 40
0.0
  9
$DIMTIX
 70
     0
  9
$DIMSOXD
 70
     0
  9
$DIMSAH
 70
     0
  9
$DIMBLK1
  1

  9
$DIMBLK2
  1

  9
$DIMSTYLE
  2
STANDARD
  9
$DIMCLRD
 70
     0
  9
$DIMCLRE
 70
     0
  9
$DIMCLRT
 70
     0
  9
$DIMTFAC
 40
1.0
  9
$DIMGAP
 40
0.09
  9
$LUNITS
 70
     2
  9
$LUPREC
 70
     4
  9
$SKETCHINC
 40
0.1
  9
$FILLETRAD
 40
0.0
  9
$AUNITS
 70
     0
  9
$AUPREC
 70
     0
  9
$MENU
  1
.
  9
$ELEVATION
 40
0.0
  9
$PELEVATION
 40
0.0
  9
$THICKNESS
 40
0.0
  9
$LIMCHECK
 70
     0
  9
$BLIPMODE
 70
     0
  9
$CHAMFERA
 40
0.0
  9
$CHAMFERB
 40
0.0
  9
$SKPOLY
 70
     0
  9
$TDCREATE
 40
2458060.468368056230247
  9
$TDUPDATE
 40
2459601.4496180550195277
  9
$TDINDWG
 40
1.1432940972000001
  9
$TDUSRTIMER
 40
1.1432940972000001
  9
$USRTIMER
 70
     1
  9
$ANGBASE
 50
0.0
  9
$ANGDIR
 70
     0
  9
$PDMODE
 70
     0
  9
$PDSIZE
 40
0.3125
  9
$PLINEWID
 40
0.0
  9
$COORDS
 70
     1
  9
$SPLFRAME
 70
     0
  9
$SPLINETYPE
 70
     6
  9
$SPLINESEGS
 70
     8
  9
$ATTDIA
 70
     1
  9
$ATTREQ
 70
     1
  9
$HANDLING
 70
     1
  9
$HANDSEED
  5
7FF6
  9
$SURFTAB1
 70
     6
  9
$SURFTAB2
 70
     6
  9
$SURFTYPE
 70
     6
  9
$SURFU
 70
     6
  9
$SURFV
 70
     6
  9
$UCSNAME
  2

  9
$UCSORG
 10
0.0
 20
0.0
 30
0.0
  9
$UCSXDIR
 10
1.0
 20
0.0
 30
0.0
  9
$UCSYDIR
 10
0.0
 20
1.0
 30
0.0
  9
$PUCSNAME
  2

  9
$PUCSORG
 10
0.0
 20
0.0
 30
0.0
  9
$PUCSXDIR
 10
1.0
 20
0.0
 30
0.0
  9
$PUCSYDIR
 10
0.0
 20
1.0
 30
0.0
  9
$USERI1
 70
     0
  9
$USERI2
 70
     0
  9
$USERI3
 70
     0
  9
$USERI4
 70
     0
  9
$USERI5
 70
     0
  9
$USERR1
 40
0.0
  9
$USERR2
 40
0.0
  9
$USERR3
 40
0.0
  9
$USERR4
 40
0.0
  9
$USERR5
 40
0.0
  9
$WORLDVIEW
 70
     1
  9
$SHADEDGE
 70
     3
  9
$SHADEDIF
 70
    70
  9
$TILEMODE
 70
     1
  9
$MAXACTVP
 70
    64
  9
$PLIMCHECK
 70
     0
  9
$PEXTMIN
 10
1.0000000000000000E+20
 20
1.0000000000000000E+20
 30
1.0000000000000000E+20
  9
$PEXTMAX
 10
-1.0000000000000000E+20
 20
-1.0000000000000000E+20
 30
-1.0000000000000000E+20
  9
$PLIMMIN
 10
0.0
 20
0.0
  9
$PLIMMAX
 10
12.0
 20
9.0
  9
$UNITMODE
 70
     0
  9
$VISRETAIN
 70
     1
  9
$PLINEGEN
 70
     0
  9
$PSLTSCALE
 70
     1
  0
ENDSEC
  0
SECTION
  2
TABLES
  0
TABLE
  2
VPORT
 70
     1
  0
VPORT
  2
*ACTIVE
 70
     0
 10
0.0
 20
0.0
 11
1.0
 21
1.0
 12
176.8796462180598041
 22
-63.2592152038532376
 13
0.0
 23
0.0
 14
1.0
 24
1.0
 15
0.0
 25
0.0
 16
0.0
 26
0.0
 36
5.1040778033513332
 17
3792.35791015625
 27
120.1806564331053977
 37
0.0
 40
3.461554317471029
 41
2.2831541218637992
 42
50.0
 43
0.0
 44
0.0
 50
0.0
 51
0.0
 71
     0
 72
   100
 73
     1
 74
     1
 75
     0
 76
     0
 77
     0
 78
     0
  0
ENDTAB
  0
TABLE
  2
LTYPE
 70
     2
  0
LTYPE
  2
CONTINUOUS
 70
     0
  3
Solid line
 72
    65
 73
     0
 40
0.0
  0
LTYPE
  2
PHANTOM2
 70
     0
  3
___ _ _ ___ _ _ ___ _ _ ___ _ _
 72
    65
 73
     6
 40
1.25
 49
0.625
 49
-0.125
 49
0.125
 49
-0.125
 49
0.125
 49
-0.125
  0
ENDTAB
  0
TABLE
  2
LAYER
 70
     2
  0
LAYER
  2
0
 70
     0
 62
   255
  6
CONTINUOUS
  0
LAYER
  2
DEFPOINTS
 70
     0
 62
     7
  6
CONTINUOUS
  0
ENDTAB
  0
TABLE
  2
STYLE
 70
     1
  0
STYLE
  2
STANDARD
 70
     0
 40
0.0
 41
0.8
 50
0.0
 71
     0
 42
0.2
  3
txt
  4

  0
ENDTAB
  0
TABLE
  2
VIEW
 70
     0
  0
ENDTAB
  0
TABLE
  2
UCS
 70
     0
  0
ENDTAB
  0
TABLE
  2
APPID
 70
     9
  0
APPID
  2
ACAD
 70
     0
  0
APPID
  2
ACAD_MLEADERVER
 70
     0
  0
APPID
  2
ACAD_EXEMPT_FROM_CAD_STANDARDS
 70
     0
  0
APPID
  2
ACAD_NAV_VCDISPLAY
 70
     0
  0
APPID
  2
ACAECLAYERSTANDARD
 70
     0
  0
APPID
  2
ACCMTRANSPARENCY
 70
     0
  0
APPID
  2
ACAD_DSTYLE_DIMJAG
 70
     0
  0
APPID
  2
ACAD_DSTYLE_DIMTALN
 70
     0
  0
APPID
  2
ACDBATTR
 70
     0
  0
ENDTAB
  0
TABLE
  2
DIMSTYLE
 70
     1
  0
DIMSTYLE
  2
STANDARD
 70
     0
  3

  4

  5

  6

  7

 40
1.0
 41
0.1875
 42
0.0625
 43
0.38
 44
0.125
 45
0.0
 46
0.0
 47
0.01
 48
0.01
140
0.15625
141
0.09
142
0.0
143
25.3999999999999986
144
1.0
145
0.0
146
1.0
147
0.09
 71
     1
 72
     0
 73
     1
 74
     1
 75
     0
 76
     0
 77
     0
 78
     4
170
     0
171
     2
172
     0
173
     0
174
     0
175
     0
176
     0
177
     0
178
     0
  0
ENDTAB
  0
ENDSEC
  0
SECTION
  2
BLOCKS
  0
BLOCK
  8
0
  2
$MODEL_SPACE
 70
     0
 10
0.0
 20
0.0
 30
0.0
  3
$MODEL_SPACE
  1

  0
ENDBLK
  5
21
  8
0
  0
BLOCK
 67
     1
  8
0
  2
$PAPER_SPACE
 70
     0
 10
0.0
 20
0.0
 30
0.0
  3
$PAPER_SPACE
  1

  0
ENDBLK
  5
1D
 67
     1
  8
0
  0
ENDSEC
  0
SECTION
  2
ENTITIES
  0
ATTDEF
  5
3930
  8
DEFPOINTS
 10
3969.2614139956740473
 20
56.9251379060879188
 30
0.0
 40
0.001
  1
K-78382BR
  3

  2
MODELNUMBER
 70
     0
1001
ACDBATTR
1070
     0
1070
     1
  0
ATTDEF
  5
3931
  8
DEFPOINTS
 10
3969.2614139956740473
 20
56.9234712394212607
 30
0.0
 40
0.001
  1
COMPONENTS
  3

  2
TRADENAME
 70
     0
1001
ACDBATTR
1070
     0
1070
     1
  0
ATTDEF
  5
3932
  8
DEFPOINTS
 10
3969.2614139956740473
 20
56.9218045727545885
 30
0.0
 40
0.001
  1
TOILET TISSUE HOLDER
  3

  2
PRODUCT
 70
     0
1001
ACDBATTR
1070
     0
1070
     1
  0
ARC
  5
7F00
  8
0
 10
3966.6344317421730921
 20
56.5355937795838912
 30
0.0
 40
0.9235676167889952
 50
73.5808190120615535
 51
106.4191809879384039
  0
ARC
  5
7F01
  8
0
 10
3969.4320882444758354
 20
56.9210953083618705
 30
0.0
 40
3.103682143230345
 50
171.094206467470201
 51
188.9105644125573065
  0
ARC
  5
7F02
  8
0
 10
3969.4167273081520761
 20
56.9217910097228881
 30
0.0
 40
3.0952875432787419
 50
171.0057421624576079
 51
188.9942578375419089
  0
ARC
  5
7F03
  8
0
 10
3966.8899211147731876
 20
57.4026167869228772
 30
0.0
 40
0.0196850394
 50
29.2274269718797797
 51
73.5674083274082449
  0
ARC
  5
7F04
  8
0
 10
3966.3789423694729521
 20
57.4026167869228772
 30
0.0
 40
0.0196850394
 50
106.4325916725087069
 51
171.0057071422002082
  0
ARC
  5
7F05
  8
0
 10
3966.6344031435228317
 20
56.9217910096728872
 30
0.0
 40
1.1811023622499981
 50
24.5342496795606984
 51
335.2855480340608096
  0
LINE
  5
7F06
  8
0
 10
3967.1875813485230537
 20
56.4279765795228769
 30
0.0
 11
3967.1875813485230537
 21
57.4122285480228811
 31
0.0
  0
ARC
  5
7F07
  8
0
 10
3966.6344317422231143
 20
56.5305833115987824
 30
0.0
 40
0.9226832626240932
 50
73.9827611533724649
 51
106.0172388466275066
  0
ARC
  5
7F08
  8
0
 10
3966.3852705458639321
 20
57.3985259886411114
 30
0.0
 40
0.0196850387042506
 50
106.017237629691806
 51
171.0830458004959098
  0
ARC
  5
7F09
  8
0
 10
3966.3853235036240221
 20
57.3968719293228702
 30
0.0
 40
0.0196857802000008
 50
106.0137606968923052
 51
171.3054848243037895
  0
ARC
  5
7F0A
  8
0
 10
3966.8835929393221704
 20
57.3985259898629323
 30
0.0
 40
0.0196850373257575
 50
44.114142022752219
 51
73.9827634584553238
  0
ARC
  5
7F0B
  8
0
 10
3966.6344331574778153
 20
56.5289079902926517
 30
0.0
 40
0.9226902204440776
 50
73.9862759930230567
 51
106.0137240069769007
  0
ARC
  5
7F0C
  8
0
 10
3966.8834667069459101
 20
57.39673219585098
 30
0.0
 40
0.0198411163356515
 50
51.3542618452836166
 51
73.8863146554330115
  0
ARC
  5
7F0D
  8
0
 10
3969.5031640810079807
 20
56.9201025637321791
 30
0.0
 40
3.1737690674937982
 50
171.3058748089640062
 51
188.6941116109368863
  0
LINE
  5
7F0E
  8
0
 10
3966.895857549000084
 20
57.4122285480228811
 30
0.0
 11
3971.6269429432468314
 21
57.4122285480228811
 31
0.0
  0
ARC
  5
7F0F
  8
0
 10
3966.6344317421730921
 20
57.307988239761869
 30
0.0
 40
0.9235676167889952
 50
253.5808190120615109
 51
286.4191809879383754
  0
ARC
  5
7F10
  8
0
 10
3966.8899211147731876
 20
56.4409652324228901
 30
0.0
 40
0.0196850394
 50
286.4325916725916841
 51
318.7135816548395155
  0
ARC
  5
7F11
  8
0
 10
3966.3789423694729521
 20
56.4409652324228901
 30
0.0
 40
0.0196850394
 50
188.9942928577993939
 51
253.5674083274913073
  0
LINE
  5
7F12
  8
0
 10
3966.8958571967068565
 20
56.4279765795228769
 30
0.0
 11
3971.6269432955400589
 21
56.4279765795228769
 31
0.0
  0
ARC
  5
7F13
  8
0
 10
3966.3853269508608719
 20
56.4433357491909788
 30
0.0
 40
0.0196899680938085
 50
188.6980975398770113
 51
253.9777903561544861
  0
ARC
  5
7F14
  8
0
 10
3966.6344151467228585
 20
57.3112974956228669
 30
0.0
 40
0.922686381200001
 50
253.9873388983916982
 51
286.0146298434930259
  0
ARC
  5
7F15
  8
0
 10
3966.8836014376361163
 20
56.4432618515702984
 30
0.0
 40
0.0195919159845666
 50
285.8988453002023107
 51
308.7227024261924839
  0
ARC
  5
7F16
  8
0
 10
3971.8883687500729138
 20
56.5355937795838912
 30
0.0
 40
0.9235676167889952
 50
73.5808190120615535
 51
106.4191809879384039
  0
ARC
  5
7F17
  8
0
 10
3969.09071224777108
 20
56.9210953083618705
 30
0.0
 40
3.103682143230345
 50
351.089435587442722
 51
8.9057935325293602
  0
ARC
  5
7F18
  8
0
 10
3969.1060731840939297
 20
56.9217910097228881
 30
0.0
 40
3.0952875432787419
 50
351.0057421624579774
 51
8.9942578375423619
  0
ARC
  5
7F19
  8
0
 10
3971.6328793774728183
 20
57.4026167869228772
 30
0.0
 40
0.0196850394
 50
106.4325916725916983
 51
150.7725730281202061
  0
ARC
  5
7F1A
  8
0
 10
3972.1438581227730538
 20
57.4026167869228772
 30
0.0
 40
0.0196850394
 50
8.9942928577998114
 51
73.5674083274912789
  0
ARC
  5
7F1B
  8
0
 10
3971.8883973487231742
 20
56.9217910096728872
 30
0.0
 40
1.1811023622499981
 50
204.7144519659391904
 51
155.4657503204392981
  0
LINE
  5
7F1C
  8
0
 10
3971.3352191437229521
 20
56.4279765795228769
 30
0.0
 11
3971.3352191437229521
 21
57.4122285480228811
 31
0.0
  0
ARC
  5
7F1D
  8
0
 10
3971.8883687500228916
 20
56.5305833115987824
 30
0.0
 40
0.9226832626240932
 50
73.9827611533724649
 51
106.0172388466275066
  0
ARC
  5
7F1E
  8
0
 10
3972.1375299463820738
 20
57.3985259886411114
 30
0.0
 40
0.0196850387042506
 50
8.9169541995040937
 51
73.9827623703081514
  0
ARC
  5
7F1F
  8
0
 10
3972.1374769886228933
 20
57.3968719293228702
 30
0.0
 40
0.0196857802000008
 50
8.6945151756961607
 51
73.986239303107709
  0
ARC
  5
7F20
  8
0
 10
3971.6392075529238355
 20
57.3985259898629323
 30
0.0
 40
0.0196850373257575
 50
106.0172365415446052
 51
135.8858579772478095
  0
ARC
  5
7F21
  8
0
 10
3971.8883673347691001
 20
56.5289079902926517
 30
0.0
 40
0.9226902204440776
 50
73.9862759930230567
 51
106.0137240069769007
  0
ARC
  5
7F22
  8
0
 10
3971.6393337853010053
 20
57.39673219585098
 30
0.0
 40
0.0198411163356515
 50
106.1136853445670027
 51
128.6457381547164118
  0
ARC
  5
7F23
  8
0
 10
3969.0196364112380252
 20
56.9201025637321791
 30
0.0
 40
3.1737690674937982
 50
351.3058883890631137
 51
8.6941251910360293
  0
ARC
  5
7F24
  8
0
 10
3971.8883687500729138
 20
57.307988239761869
 30
0.0
 40
0.9235676167889952
 50
253.5808190120615109
 51
286.4191809879383754
  0
ARC
  5
7F25
  8
0
 10
3971.6328793774728183
 20
56.4409652324228901
 30
0.0
 40
0.0196850394
 50
221.2864183451605129
 51
253.5674083274082022
  0
ARC
  5
7F26
  8
0
 10
3972.1438581227730538
 20
56.4409652324228901
 30
0.0
 40
0.0196850394
 50
286.4325916725086927
 51
351.0057071422002082
  0
ARC
  5
7F27
  8
0
 10
3972.1374735413860435
 20
56.4433357491909788
 30
0.0
 40
0.0196899680938085
 50
286.0222096438454855
 51
351.3019024601229034
  0
ARC
  5
7F28
  8
0
 10
3971.8883853455231474
 20
57.3112974956228669
 30
0.0
 40
0.922686381200001
 50
253.9853701565070878
 51
286.0126611016082165
  0
ARC
  5
7F29
  8
0
 10
3971.6391990546089801
 20
56.4432618515702984
 30
0.0
 40
0.0195919159845666
 50
231.2772975738074877
 51
254.101154699797803
  0
ARC
  5
7F2B
  8
0
 10
3971.88764366792293
 20
60.3777374009341798
 30
0.0
 40
3.9566041179719731
 50
266.9595246517712894
 51
273.040475348254688
  0
ARC
  5
7F2C
  8
0
 10
3971.6533015988729858
 20
56.4737581657039414
 30
0.0
 40
0.0530412889801675
 50
260.177519150803505
 51
297.4835529450053855
  0
ARC
  5
7F2D
  8
0
 10
3972.1226108842411122
 20
56.4731509871470578
 30
0.0
 40
0.0527977363743844
 50
241.6104846029732016
 51
278.618085320924024
  0
ARC
  5
7F2E
  8
0
 10
3966.6351568243230759
 20
60.3777374009341798
 30
0.0
 40
3.9566041179719731
 50
266.959524651745312
 51
273.0404753482287106
  0
ARC
  5
7F2F
  8
0
 10
3966.8694988933730201
 20
56.4737581657039414
 30
0.0
 40
0.0530412889801675
 50
242.5164470549945861
 51
279.822480849196495
  0
ARC
  5
7F30
  8
0
 10
3966.4001896080048937
 20
56.4731509871470578
 30
0.0
 40
0.0527977363743844
 50
261.381914679075976
 51
298.3895153970267984
  0
ENDSEC
  0
EOF
