  0
SECTION
  2
HEADER
  9
$ACADVER
  1
AC1009
  9
$INSBASE
 10
62.1362432719327629
 20
-5.2481779533431201
 30
0.0
  9
$EXTMIN
 10
51.9551158705326799
 20
-8.2165271180447181
 30
0.0
  9
$EXTMAX
 10
72.3173706733328459
 20
-5.2416904032107938
 30
0.0
  9
$LIMMIN
 10
0.0
 20
0.0
  9
$LIMMAX
 10
11.6929133858000007
 20
8.2677165353999982
  9
$ORTHOMODE
 70
     0
  9
$REGENMODE
 70
     1
  9
$FILLMODE
 70
     1
  9
$QTEXTMODE
 70
     0
  9
$MIRRTEXT
 70
     0
  9
$DRAGMODE
 70
     2
  9
$LTSCALE
 40
0.6431102362
  9
$OSMODE
 70
     7
  9
$ATTMODE
 70
     1
  9
$TEXTSIZE
 40
0.2
  9
$TRACEWID
 40
0.05
  9
$TEXTSTYLE
  7
STANDARD
  9
$CLAYER
  8
0
  9
$CELTYPE
  6
BYLAYER
  9
$CECOLOR
 62
   256
  9
$DIMSCALE
 40
1.0
  9
$DIMASZ
 40
0.1875
  9
$DIMEXO
 40
0.0625
  9
$DIMDLI
 40
0.4443307087
  9
$DIMRND
 40
0.0
  9
$DIMDLE
 40
0.0
  9
$DIMEXE
 40
0.125
  9
$DIMTP
 40
0.01
  9
$DIMTM
 40
0.01
  9
$DIMTXT
 40
1.0
  9
$DIMCEN
 40
0.1052362205
  9
$DIMTSZ
 40
0.0
  9
$DIMTOL
 70
     1
  9
$DIMLIM
 70
     0
  9
$DIMTIH
 70
     1
  9
$DIMTOH
 70
     1
  9
$DIMSE1
 70
     0
  9
$DIMSE2
 70
     0
  9
$DIMTAD
 70
     0
  9
$DIMZIN
 70
     0
  9
$DIMBLK
  1

  9
$DIMASO
 70
     1
  9
$DIMSHO
 70
     1
  9
$DIMPOST
  1
\X
  9
$DIMAPOST
  1

  9
$DIMALT
 70
     1
  9
$DIMALTD
 70
     2
  9
$DIMALTF
 40
25.3999999999999986
  9
$DIMLFAC
 40
1.0
  9
$DIMTOFL
 70
     0
  9
$DIMTVP
 40
0.0
  9
$DIMTIX
 70
     0
  9
$DIMSOXD
 70
     0
  9
$DIMSAH
 70
     0
  9
$DIMBLK1
  1

  9
$DIMBLK2
  1

  9
$DIMSTYLE
  2
STANDARD
  9
$DIMCLRD
 70
     0
  9
$DIMCLRE
 70
     0
  9
$DIMCLRT
 70
     0
  9
$DIMTFAC
 40
1.0
  9
$DIMGAP
 40
0.09
  9
$LUNITS
 70
     2
  9
$LUPREC
 70
     4
  9
$SKETCHINC
 40
0.1
  9
$FILLETRAD
 40
0.0
  9
$AUNITS
 70
     0
  9
$AUPREC
 70
     0
  9
$MENU
  1
.
  9
$ELEVATION
 40
0.0
  9
$PELEVATION
 40
0.0
  9
$THICKNESS
 40
0.0
  9
$LIMCHECK
 70
     0
  9
$BLIPMODE
 70
     0
  9
$CHAMFERA
 40
0.0
  9
$CHAMFERB
 40
0.0
  9
$SKPOLY
 70
     0
  9
$TDCREATE
 40
2458171.3976967590861022
  9
$TDUPDATE
 40
2459590.6418055561371148
  9
$TDINDWG
 40
0.0861800694
  9
$TDUSRTIMER
 40
0.0861800694
  9
$USRTIMER
 70
     1
  9
$ANGBASE
 50
0.0
  9
$ANGDIR
 70
     0
  9
$PDMODE
 70
     0
  9
$PDSIZE
 40
0.3125
  9
$PLINEWID
 40
0.0
  9
$COORDS
 70
     1
  9
$SPLFRAME
 70
     0
  9
$SPLINETYPE
 70
     6
  9
$SPLINESEGS
 70
     8
  9
$ATTDIA
 70
     1
  9
$ATTREQ
 70
     1
  9
$HANDLING
 70
     1
  9
$HANDSEED
  5
AE4
  9
$SURFTAB1
 70
     6
  9
$SURFTAB2
 70
     6
  9
$SURFTYPE
 70
     6
  9
$SURFU
 70
     6
  9
$SURFV
 70
     6
  9
$UCSNAME
  2

  9
$UCSORG
 10
0.0
 20
0.0
 30
0.0
  9
$UCSXDIR
 10
1.0
 20
0.0
 30
0.0
  9
$UCSYDIR
 10
0.0
 20
1.0
 30
0.0
  9
$PUCSNAME
  2

  9
$PUCSORG
 10
0.0
 20
0.0
 30
0.0
  9
$PUCSXDIR
 10
1.0
 20
0.0
 30
0.0
  9
$PUCSYDIR
 10
0.0
 20
1.0
 30
0.0
  9
$USERI1
 70
     0
  9
$USERI2
 70
     0
  9
$USERI3
 70
     0
  9
$USERI4
 70
     0
  9
$USERI5
 70
     0
  9
$USERR1
 40
0.0
  9
$USERR2
 40
0.0
  9
$USERR3
 40
0.0
  9
$USERR4
 40
0.0
  9
$USERR5
 40
0.0
  9
$WORLDVIEW
 70
     1
  9
$SHADEDGE
 70
     3
  9
$SHADEDIF
 70
    70
  9
$TILEMODE
 70
     1
  9
$MAXACTVP
 70
    64
  9
$PLIMCHECK
 70
     0
  9
$PEXTMIN
 10
1.0000000000000000E+20
 20
1.0000000000000000E+20
 30
1.0000000000000000E+20
  9
$PEXTMAX
 10
-1.0000000000000000E+20
 20
-1.0000000000000000E+20
 30
-1.0000000000000000E+20
  9
$PLIMMIN
 10
0.0
 20
0.0
  9
$PLIMMAX
 10
12.0
 20
9.0
  9
$UNITMODE
 70
     0
  9
$VISRETAIN
 70
     1
  9
$PLINEGEN
 70
     0
  9
$PSLTSCALE
 70
     1
  0
ENDSEC
  0
SECTION
  2
TABLES
  0
TABLE
  2
VPORT
 70
     1
  0
VPORT
  2
*ACTIVE
 70
     0
 10
0.0
 20
0.0
 11
1.0
 21
1.0
 12
0.0010143317884257
 22
-0.0001238212413526
 13
0.0
 23
0.0
 14
1.0
 24
1.0
 15
0.0
 25
0.0
 16
-0.0000000000000142
 26
0.0
 36
57.9172805739987027
 17
62.13624327193277
 27
-6.7291087606269597
 37
0.0
 40
8.9474920237979667
 41
2.2831541218637992
 42
50.0
 43
0.0
 44
0.0
 50
0.0
 51
0.0
 71
     0
 72
   100
 73
     1
 74
     1
 75
     0
 76
     0
 77
     0
 78
     0
  0
ENDTAB
  0
TABLE
  2
LTYPE
 70
     2
  0
LTYPE
  2
CONTINUOUS
 70
     0
  3
Solid line
 72
    65
 73
     0
 40
0.0
  0
LTYPE
  2
PHANTOM2
 70
     0
  3
___ _ _ ___ _ _ ___ _ _ ___ _ _
 72
    65
 73
     6
 40
1.25
 49
0.625
 49
-0.125
 49
0.125
 49
-0.125
 49
0.125
 49
-0.125
  0
ENDTAB
  0
TABLE
  2
LAYER
 70
     2
  0
LAYER
  2
0
 70
     0
 62
   255
  6
CONTINUOUS
  0
LAYER
  2
DEFPOINTS
 70
     0
 62
     7
  6
CONTINUOUS
  0
ENDTAB
  0
TABLE
  2
STYLE
 70
     1
  0
STYLE
  2
STANDARD
 70
     0
 40
0.0
 41
0.8
 50
0.0
 71
     0
 42
0.2
  3
txt
  4

  0
ENDTAB
  0
TABLE
  2
VIEW
 70
     0
  0
ENDTAB
  0
TABLE
  2
UCS
 70
     0
  0
ENDTAB
  0
TABLE
  2
APPID
 70
    10
  0
APPID
  2
ACAD
 70
     0
  0
APPID
  2
ACAD_MLEADERVER
 70
     0
  0
APPID
  2
ACAD_EXEMPT_FROM_CAD_STANDARDS
 70
     0
  0
APPID
  2
ACAD_DSTYLE_DIMJAG
 70
     0
  0
APPID
  2
ACAD_DSTYLE_DIMTALN
 70
     0
  0
APPID
  2
ACAD_NAV_VCDISPLAY
 70
     0
  0
APPID
  2
ACAECLAYERSTANDARD
 70
     0
  0
APPID
  2
ACCMTRANSPARENCY
 70
     0
  0
APPID
  2
DCO15
 70
     0
  0
APPID
  2
ACDBATTR
 70
     0
  0
ENDTAB
  0
TABLE
  2
DIMSTYLE
 70
     1
  0
DIMSTYLE
  2
STANDARD
 70
     0
  3

  4

  5

  6

  7

 40
1.0
 41
0.1875
 42
0.0625
 43
0.38
 44
0.125
 45
0.0
 46
0.0
 47
0.01
 48
0.01
140
0.15625
141
0.09
142
0.0
143
25.3999999999999986
144
1.0
145
0.0
146
1.0
147
0.09
 71
     1
 72
     0
 73
     1
 74
     1
 75
     0
 76
     0
 77
     0
 78
     4
170
     0
171
     2
172
     0
173
     0
174
     0
175
     0
176
     0
177
     0
178
     0
  0
ENDTAB
  0
ENDSEC
  0
SECTION
  2
BLOCKS
  0
BLOCK
  8
0
  2
$MODEL_SPACE
 70
     0
 10
0.0
 20
0.0
 30
0.0
  3
$MODEL_SPACE
  1

  0
ENDBLK
  5
21
  8
0
  0
BLOCK
 67
     1
  8
0
  2
$PAPER_SPACE
 70
     0
 10
0.0
 20
0.0
 30
0.0
  3
$PAPER_SPACE
  1

  0
ENDBLK
  5
1D
 67
     1
  8
0
  0
ENDSEC
  0
SECTION
  2
ENTITIES
  0
ATTDEF
  5
710
  8
DEFPOINTS
 10
62.1333758699392433
 20
-5.2426904032107968
 30
0.0
 40
0.001
  1
K-78372BR
  3

  2
MODELNUMBER
 70
     0
1001
ACDBATTR
1070
     0
1070
     1
  0
ATTDEF
  5
711
  8
DEFPOINTS
 10
62.1333758699392433
 20
-5.244357069877462
 30
0.0
 40
0.001
  1
COMPONENTS
  3

  2
TRADENAME
 70
     0
1001
ACDBATTR
1070
     0
1070
     1
  0
ATTDEF
  5
712
  8
DEFPOINTS
 10
62.1333758699392433
 20
-5.246023736544128
 30
0.0
 40
0.001
  1
TOWEL BAR
  3

  2
PRODUCT
 70
     0
1001
ACDBATTR
1070
     0
1070
     1
  0
LINE
  5
8DA
  8
0
 10
51.9551158705326799
 20
-5.2481779533431201
 30
0.0
 11
51.9551158705326799
 21
-5.4730938150431223
 31
0.0
  0
LINE
  5
8DB
  8
0
 10
52.8302267600326871
 20
-8.1771570191431238
 30
0.0
 11
52.8302267526334219
 21
-5.6999579258868707
 31
0.0
  0
LINE
  5
8DC
  8
0
 10
53.4422669101326804
 20
-7.09054286624312
 30
0.0
 11
53.4422669101326804
 21
-5.6999472274344472
 31
0.0
  0
LINE
  5
8DD
  8
0
 10
54.3173205949326885
 20
-5.4730926049431208
 30
0.0
 11
54.3173205949326885
 21
-5.2481779533431201
 31
0.0
  0
LINE
  5
8DE
  8
0
 10
52.8695972189124674
 20
-8.2165271180431212
 30
0.0
 11
71.4028968024920232
 21
-8.2165271180431212
 31
0.0
  0
LINE
  5
8DF
  8
0
 10
52.8233329140326902
 20
-5.7133194856431206
 30
0.0
 11
51.9852724310326906
 21
-5.5113589537431178
 31
0.0
  0
LINE
  5
8E0
  8
0
 10
53.5839992911018967
 20
-7.232275149543085
 30
0.0
 11
70.6884943753637742
 21
-7.2322751495431232
 31
0.0
  0
LINE
  5
8E1
  8
0
 10
54.3173205949326885
 20
-5.4730926049431208
 30
0.0
 11
51.9551158705326799
 21
-5.4730938150431223
 31
0.0
  0
LINE
  5
8E2
  8
0
 10
54.3173205949326885
 20
-5.2481779533431219
 30
0.0
 11
51.9551158705326799
 21
-5.2481779533431201
 31
0.0
  0
LINE
  5
8E3
  8
0
 10
53.4492389573326889
 20
-5.7134748228431196
 30
0.0
 11
54.2871635268326926
 21
-5.5113579481431199
 31
0.0
  0
ARC
  5
8E4
  8
0
 10
53.5839991935326907
 20
-7.09054286604312
 30
0.0
 40
0.1417322835
 50
179.9999999956999091
 51
270.0000394426999719
  0
ARC
  5
8E5
  8
0
 10
54.2777162799915871
 20
-5.4728964117614103
 30
0.0
 40
0.0396048008922944
 50
283.8002632989681047
 51
359.7161685703713943
  0
ARC
  5
8E6
  8
0
 10
51.9947279039463623
 20
-5.4728914587478004
 30
0.0
 40
0.0396125502743264
 50
180.2926903727812089
 51
256.1902377898560985
  0
ARC
  5
8E7
  8
0
 10
53.07598203928017
 20
-5.8352134992836211
 30
0.0
 40
0.2805168997577657
 50
139.9298771221990023
 51
154.244381222165714
  0
ARC
  5
8E8
  8
0
 10
52.8716742623476108
 20
-5.6806812619107623
 30
0.0
 40
0.0280282825050881
 50
82.7965485844486722
 51
111.6921403507013935
  0
ARC
  5
8E9
  8
0
 10
53.1362049595093993
 20
-0.4177625226161981
 30
0.0
 40
5.241614610899032
 50
267.1456674334029913
 51
272.8552487136461195
  0
ARC
  5
8EA
  8
0
 10
53.4008069069877109
 20
-5.6808232764903437
 30
0.0
 40
0.0281717720767725
 50
68.3965732726189088
 51
97.1410326762861445
  0
ARC
  5
8EB
  8
0
 10
53.1967889692559268
 20
-5.8350256634017139
 30
0.0
 40
0.2801885138981578
 50
25.7101097080323591
 51
40.0783961655460885
  0
ARC
  5
8EC
  8
0
 10
52.8695968639737472
 20
-8.1771570141036527
 30
0.0
 40
0.0393701039410676
 50
180.000007333999406
 51
270.0005165465265122
  0
LINE
  5
8ED
  8
0
 10
72.3173706733328316
 20
-5.2481779533431201
 30
0.0
 11
72.3173706733328459
 21
-5.4729752526712456
 31
0.0
  0
LINE
  5
8EE
  8
0
 10
71.4422669064330336
 20
-8.1770384567712462
 30
0.0
 11
71.4422669138323272
 21
-5.6998393635149949
 31
0.0
  0
LINE
  5
8EF
  8
0
 10
70.8302267563330474
 20
-7.0904243038712442
 30
0.0
 11
70.8302267563330474
 21
-5.6998286650625714
 31
0.0
  0
LINE
  5
8F0
  8
0
 10
69.9551730715330535
 20
-5.472974042571245
 30
0.0
 11
69.9551730715330535
 21
-5.2481779533431192
 31
0.0
  0
LINE
  5
8F1
  8
0
 10
71.4491607524330448
 20
-5.7132009232712448
 30
0.0
 11
72.2872212354330657
 21
-5.511240391371242
 31
0.0
  0
LINE
  5
8F2
  8
0
 10
69.9551730715330535
 20
-5.472974042571245
 30
0.0
 11
72.3173706733328459
 21
-5.4729752526712456
 31
0.0
  0
LINE
  5
8F3
  8
0
 10
69.9551730715330535
 20
-5.2481779533431201
 30
0.0
 11
72.3173706733328316
 21
-5.2481779533431201
 31
0.0
  0
LINE
  5
8F4
  8
0
 10
70.8232547091330673
 20
-5.7133562604712438
 30
0.0
 11
69.9853301396330494
 21
-5.5112393857712441
 31
0.0
  0
ARC
  5
8F5
  8
0
 10
70.6882918699747336
 20
-7.0903403827372964
 30
0.0
 40
0.1419349112680071
 50
270.0817466820345771
 51
359.9661230985685165
  0
ARC
  5
8F6
  8
0
 10
69.9947773864741691
 20
-5.4727778493895336
 30
0.0
 40
0.0396048008922944
 50
180.2838314296286057
 51
256.199736701032009
  0
ARC
  5
8F7
  8
0
 10
72.277775403359044
 20
-5.4727878651236939
 30
0.0
 40
0.0395957133840124
 50
283.8013852188253168
 51
359.7288455045252249
  0
ARC
  5
8F8
  8
0
 10
71.196511627185572
 20
-5.8350949369117453
 30
0.0
 40
0.2805168997577657
 50
25.7556187778342398
 51
40.0701228778008485
  0
ARC
  5
8F9
  8
0
 10
71.4008194041181241
 20
-5.6805626995388856
 30
0.0
 40
0.0280282825050881
 50
68.3078596492985639
 51
97.2034514155513278
  0
ARC
  5
8FA
  8
0
 10
71.1362887069563357
 20
-0.4176439602443205
 30
0.0
 40
5.241614610899032
 50
267.1447512863530847
 51
272.8543325665970087
  0
ARC
  5
8FB
  8
0
 10
70.871686759478024
 20
-5.6807047141184679
 30
0.0
 40
0.0281717720767725
 50
82.8589673237138697
 51
111.6034267273811054
  0
ARC
  5
8FC
  8
0
 10
71.0757046972098152
 20
-5.834907101029839
 30
0.0
 40
0.2801885138981578
 50
139.9216038344538902
 51
154.2898902919673105
  0
ARC
  5
8FD
  8
0
 10
71.4026936665192693
 20
-8.1769543100340112
 30
0.0
 40
0.0395733293766054
 50
270.2941093206301844
 51
359.8781690443431103
  0
ENDSEC
  0
EOF
