  0
SECTION
  2
HEADER
  9
$ACADVER
  1
AC1009
  9
$INSBASE
 10
3724.0932690832451044
 20
99.8539014436232861
 30
0.0
  9
$EXTMIN
 10
3714.5584737635717829
 20
98.349494092857725
 30
-0.0015258207003583
  9
$EXTMAX
 10
3724.2187762918338194
 20
101.3575257637671996
 30
0.0000000349246037
  9
$LIMMIN
 10
0.0
 20
0.0
  9
$LIMMAX
 10
11.6929133858000007
 20
8.2677165353999982
  9
$ORTHOMODE
 70
     0
  9
$REGENMODE
 70
     1
  9
$FILLMODE
 70
     1
  9
$QTEXTMODE
 70
     0
  9
$MIRRTEXT
 70
     0
  9
$DRAGMODE
 70
     2
  9
$LTSCALE
 40
0.6431102362
  9
$OSMODE
 70
  4095
  9
$ATTMODE
 70
     1
  9
$TEXTSIZE
 40
0.2
  9
$TRACEWID
 40
0.05
  9
$TEXTSTYLE
  7
STANDARD
  9
$CLAYER
  8
0
  9
$CELTYPE
  6
BYLAYER
  9
$CECOLOR
 62
   256
  9
$DIMSCALE
 40
1.0
  9
$DIMASZ
 40
0.1875
  9
$DIMEXO
 40
0.0625
  9
$DIMDLI
 40
0.4443307087
  9
$DIMRND
 40
0.0
  9
$DIMDLE
 40
0.0
  9
$DIMEXE
 40
0.125
  9
$DIMTP
 40
0.01
  9
$DIMTM
 40
0.01
  9
$DIMTXT
 40
2.0
  9
$DIMCEN
 40
0.1052362205
  9
$DIMTSZ
 40
0.0
  9
$DIMTOL
 70
     1
  9
$DIMLIM
 70
     0
  9
$DIMTIH
 70
     1
  9
$DIMTOH
 70
     1
  9
$DIMSE1
 70
     0
  9
$DIMSE2
 70
     0
  9
$DIMTAD
 70
     0
  9
$DIMZIN
 70
     0
  9
$DIMBLK
  1

  9
$DIMASO
 70
     1
  9
$DIMSHO
 70
     1
  9
$DIMPOST
  1
\X
  9
$DIMAPOST
  1

  9
$DIMALT
 70
     1
  9
$DIMALTD
 70
     2
  9
$DIMALTF
 40
25.3999999999999986
  9
$DIMLFAC
 40
1.0
  9
$DIMTOFL
 70
     0
  9
$DIMTVP
 40
0.0
  9
$DIMTIX
 70
     0
  9
$DIMSOXD
 70
     0
  9
$DIMSAH
 70
     0
  9
$DIMBLK1
  1

  9
$DIMBLK2
  1

  9
$DIMSTYLE
  2
STANDARD
  9
$DIMCLRD
 70
     0
  9
$DIMCLRE
 70
     0
  9
$DIMCLRT
 70
     0
  9
$DIMTFAC
 40
1.0
  9
$DIMGAP
 40
0.09
  9
$LUNITS
 70
     2
  9
$LUPREC
 70
     4
  9
$SKETCHINC
 40
0.1
  9
$FILLETRAD
 40
0.0
  9
$AUNITS
 70
     0
  9
$AUPREC
 70
     0
  9
$MENU
  1
.
  9
$ELEVATION
 40
0.0
  9
$PELEVATION
 40
0.0
  9
$THICKNESS
 40
0.0
  9
$LIMCHECK
 70
     0
  9
$BLIPMODE
 70
     0
  9
$CHAMFERA
 40
0.0
  9
$CHAMFERB
 40
0.0
  9
$SKPOLY
 70
     0
  9
$TDCREATE
 40
2458060.468368056230247
  9
$TDUPDATE
 40
2459434.5098263891413808
  9
$TDINDWG
 40
0.3996251157
  9
$TDUSRTIMER
 40
0.3996251157
  9
$USRTIMER
 70
     1
  9
$ANGBASE
 50
0.0
  9
$ANGDIR
 70
     0
  9
$PDMODE
 70
     0
  9
$PDSIZE
 40
0.3125
  9
$PLINEWID
 40
0.0
  9
$COORDS
 70
     1
  9
$SPLFRAME
 70
     0
  9
$SPLINETYPE
 70
     6
  9
$SPLINESEGS
 70
     8
  9
$ATTDIA
 70
     1
  9
$ATTREQ
 70
     1
  9
$HANDLING
 70
     1
  9
$HANDSEED
  5
1689D
  9
$SURFTAB1
 70
     6
  9
$SURFTAB2
 70
     6
  9
$SURFTYPE
 70
     6
  9
$SURFU
 70
     6
  9
$SURFV
 70
     6
  9
$UCSNAME
  2

  9
$UCSORG
 10
0.0
 20
0.0
 30
0.0
  9
$UCSXDIR
 10
1.0
 20
0.0
 30
0.0
  9
$UCSYDIR
 10
0.0
 20
1.0
 30
0.0
  9
$PUCSNAME
  2

  9
$PUCSORG
 10
0.0
 20
0.0
 30
0.0
  9
$PUCSXDIR
 10
1.0
 20
0.0
 30
0.0
  9
$PUCSYDIR
 10
0.0
 20
1.0
 30
0.0
  9
$USERI1
 70
     0
  9
$USERI2
 70
     0
  9
$USERI3
 70
     0
  9
$USERI4
 70
     0
  9
$USERI5
 70
     0
  9
$USERR1
 40
0.0
  9
$USERR2
 40
0.0
  9
$USERR3
 40
0.0
  9
$USERR4
 40
0.0
  9
$USERR5
 40
0.0
  9
$WORLDVIEW
 70
     1
  9
$SHADEDGE
 70
     3
  9
$SHADEDIF
 70
    70
  9
$TILEMODE
 70
     1
  9
$MAXACTVP
 70
    64
  9
$PLIMCHECK
 70
     0
  9
$PEXTMIN
 10
1.0000000000000000E+20
 20
1.0000000000000000E+20
 30
1.0000000000000000E+20
  9
$PEXTMAX
 10
-1.0000000000000000E+20
 20
-1.0000000000000000E+20
 30
-1.0000000000000000E+20
  9
$PLIMMIN
 10
0.0
 20
0.0
  9
$PLIMMAX
 10
12.0
 20
9.0
  9
$UNITMODE
 70
     0
  9
$VISRETAIN
 70
     1
  9
$PLINEGEN
 70
     0
  9
$PSLTSCALE
 70
     1
  0
ENDSEC
  0
SECTION
  2
TABLES
  0
TABLE
  2
VPORT
 70
     1
  0
VPORT
  2
*ACTIVE
 70
     0
 10
0.0
 20
0.0
 11
1.0
 21
1.0
 12
-545.6177226285471988
 22
-4.4505023702714928
 13
0.0
 23
0.0
 14
1.0
 24
1.0
 15
0.0
 25
0.0
 16
0.0
 26
0.0
 36
122.0237731519760018
 17
4265.00634765625
 27
104.3040122985839986
 37
0.0
 40
3.862034184255799
 41
2.5092105263157891
 42
50.0
 43
0.0
 44
0.0
 50
0.0
 51
0.0
 71
     0
 72
   100
 73
     1
 74
     1
 75
     0
 76
     0
 77
     0
 78
     0
  0
ENDTAB
  0
TABLE
  2
LTYPE
 70
     2
  0
LTYPE
  2
CONTINUOUS
 70
     0
  3
Solid line
 72
    65
 73
     0
 40
0.0
  0
LTYPE
  2
PHANTOM2
 70
     0
  3
___ _ _ ___ _ _ ___ _ _ ___ _ _
 72
    65
 73
     6
 40
1.25
 49
0.625
 49
-0.125
 49
0.125
 49
-0.125
 49
0.125
 49
-0.125
  0
ENDTAB
  0
TABLE
  2
LAYER
 70
     2
  0
LAYER
  2
0
 70
     0
 62
   255
  6
CONTINUOUS
  0
LAYER
  2
DEFPOINTS
 70
     0
 62
     7
  6
CONTINUOUS
  0
ENDTAB
  0
TABLE
  2
STYLE
 70
     1
  0
STYLE
  2
STANDARD
 70
     0
 40
0.0
 41
0.8
 50
0.0
 71
     0
 42
0.2
  3
txt
  4

  0
ENDTAB
  0
TABLE
  2
VIEW
 70
     0
  0
ENDTAB
  0
TABLE
  2
UCS
 70
     0
  0
ENDTAB
  0
TABLE
  2
APPID
 70
     9
  0
APPID
  2
ACAD
 70
     0
  0
APPID
  2
ACAD_MLEADERVER
 70
     0
  0
APPID
  2
ACAD_EXEMPT_FROM_CAD_STANDARDS
 70
     0
  0
APPID
  2
ACAD_NAV_VCDISPLAY
 70
     0
  0
APPID
  2
ACAECLAYERSTANDARD
 70
     0
  0
APPID
  2
ACCMTRANSPARENCY
 70
     0
  0
APPID
  2
ACAD_DSTYLE_DIMJAG
 70
     0
  0
APPID
  2
ACAD_DSTYLE_DIMTALN
 70
     0
  0
APPID
  2
ACDBATTR
 70
     0
  0
ENDTAB
  0
TABLE
  2
DIMSTYLE
 70
     1
  0
DIMSTYLE
  2
STANDARD
 70
     0
  3

  4

  5

  6

  7

 40
1.0
 41
0.1875
 42
0.0625
 43
0.38
 44
0.125
 45
0.0
 46
0.0
 47
0.01
 48
0.01
140
0.15625
141
0.09
142
0.0
143
25.3999999999999986
144
1.0
145
0.0
146
1.0
147
0.09
 71
     1
 72
     0
 73
     1
 74
     1
 75
     0
 76
     0
 77
     0
 78
     4
170
     0
171
     2
172
     0
173
     0
174
     0
175
     0
176
     0
177
     0
178
     0
  0
ENDTAB
  0
ENDSEC
  0
SECTION
  2
BLOCKS
  0
BLOCK
  8
0
  2
$MODEL_SPACE
 70
     0
 10
0.0
 20
0.0
 30
0.0
  3
$MODEL_SPACE
  1

  0
ENDBLK
  5
21
  8
0
  0
BLOCK
 67
     1
  8
0
  2
$PAPER_SPACE
 70
     0
 10
0.0
 20
0.0
 30
0.0
  3
$PAPER_SPACE
  1

  0
ENDBLK
  5
1D
 67
     1
  8
0
  0
ENDSEC
  0
SECTION
  2
ENTITIES
  0
ATTDEF
  5
14470
  8
DEFPOINTS
 10
3724.0944502853230915
 20
99.8583815248730673
 30
0.0
 40
0.001
  1
K-78364BR-3ND
  3

  2
MODELNUMBER
 70
     0
1001
ACDBATTR
1070
     0
1070
     1
  0
ATTDEF
  5
14471
  8
DEFPOINTS
 10
3724.0944502853230915
 20
99.8567148582064021
 30
0.0
 40
0.001
  1
PURIST
  3

  2
TRADENAME
 70
     0
1001
ACDBATTR
1070
     0
1070
     1
  0
ATTDEF
  5
14472
  8
DEFPOINTS
 10
3724.0944502853230915
 20
99.855048191539737
 30
0.0
 40
0.001
  1
BATHROOM SINK FAUCET 
  3

  2
PRODUCT
 70
     0
1001
ACDBATTR
1070
     0
1070
     1
  0
LINE
  5
16756
  8
0
 10
3723.9132690832461776
 20
100.8439014436231957
 30
0.0
 11
3724.0932690832451044
 21
100.8439014436231957
 31
0.0
  0
LINE
  5
16757
  8
0
 10
3716.3032690832428671
 20
99.4789014436232861
 30
0.0
 11
3720.6632690832461776
 21
99.4789014436232861
 31
0.0
  0
LINE
  5
16758
  8
0
 10
3721.1032690832457774
 20
99.4789014436232861
 30
0.0
 11
3721.9770995750150178
 21
99.4789014436232861
 31
0.0
  0
LINE
  5
16759
  8
0
 10
3724.0932690832451044
 20
100.8439014436231957
 30
0.0
 11
3724.0932690832451044
 21
98.8639014436233055
 31
0.0
  0
LINE
  5
1675A
  8
0
 10
3723.9132690832461776
 20
100.8439014436231957
 30
0.0
 11
3723.9132690832461776
 21
98.8639014436233055
 31
0.0
  0
LINE
  5
1675B
  8
0
 10
3721.9932690832451954
 20
100.3882889931232967
 30
0.0
 11
3721.9932690832451954
 21
99.3195138942233058
 31
0.0
  0
LINE
  5
1675C
  8
0
 10
3722.0832690832448861
 20
100.398901443623302
 30
0.0
 11
3722.0832690832448861
 21
99.3089014436232844
 31
0.0
  0
LINE
  5
1675D
  8
0
 10
3722.1032690832448679
 20
100.398901443623302
 30
0.0
 11
3722.1032690832448679
 21
99.3089014436232844
 31
0.0
  0
LINE
  5
1675E
  8
0
 10
3722.1112690832451335
 20
100.398901443623302
 30
0.0
 11
3722.1112690832451335
 21
99.3089014436232844
 31
0.0
  0
LINE
  5
1675F
  8
0
 10
3715.3971885273690532
 20
98.7052970607972924
 30
0.0
 11
3715.7298626522701852
 21
99.180404949106503
 31
0.0
  0
ARC
  5
16760
  8
0
 10
3716.3032690832428671
 20
98.7789014436287403
 30
0.0
 40
0.6999999999945477
 50
89.9999999997655067
 51
144.9999999964846893
  0
LINE
  5
16761
  8
0
 10
3715.3971885273690532
 20
98.7052970607972924
 30
0.0
 11
3714.7828242859459351
 21
99.1354790907232939
 31
0.0
  0
LINE
  5
16762
  8
0
 10
3714.7828242859459351
 20
99.1354790907232939
 30
0.0
 11
3715.1154986190881573
 21
99.6105872764201905
 31
0.0
  0
ARC
  5
16763
  8
0
 10
3716.3032690832451408
 20
98.7789014436232833
 30
0.0
 40
1.4499999999999991
 50
90.0
 51
144.9999999957585999
  0
ARC
  5
16764
  8
0
 10
3721.7432690832451954
 20
100.3173508706233008
 30
0.0
 40
0.2499999999999893
 50
270.2499999999915872
 51
0.0000000000024427
  0
LINE
  5
16765
  8
0
 10
3721.7443599105658905
 20
100.0673532504431051
 30
0.0
 11
3721.073169664121906
 21
100.0644246119304057
 31
0.0
  0
ARC
  5
16766
  8
0
 10
3721.7432690832451954
 20
99.3904520167232732
 30
0.0
 40
0.25
 50
0.0000000000008142
 51
89.7500000000084555
  0
LINE
  5
16767
  8
0
 10
3721.7443599105658905
 20
99.6404496369034831
 30
0.0
 11
3721.0732273867670301
 21
99.643378023551989
 31
0.0
  0
LINE
  5
16768
  8
0
 10
3722.0832690832448861
 20
99.3089014436232844
 30
0.0
 11
3722.1032690832448679
 21
99.3089014436232844
 31
0.0
  0
LINE
  5
16769
  8
0
 10
3722.1112690832451335
 20
99.3089014436232844
 30
0.0
 11
3723.633269083245068
 21
99.3089014436232844
 31
0.0
  0
ARC
  5
1676A
  8
0
 10
3722.0032690832449589
 20
99.3195138942233058
 30
0.0
 40
0.0100000000000089
 50
180.0000000000505054
 51
268.9999988059714724
  0
LINE
  5
1676B
  8
0
 10
3721.9932690832451954
 20
99.3195138942233058
 30
0.0
 11
3721.9932690832451954
 21
99.4003094626075949
 31
0.0
  0
ARC
  5
1676C
  8
0
 10
3722.073269083176001
 20
99.3195138942408278
 30
0.0
 40
0.0100000000695459
 50
271.0000011687512256
 51
359.9999998995119768
  0
LINE
  5
1676D
  8
0
 10
3722.0382690832448134
 20
99.3089014436232844
 30
0.0
 11
3722.0030945589728617
 21
99.3095154172753638
 31
0.0
  0
LINE
  5
1676E
  8
0
 10
3722.0382690832448134
 20
99.3089014436232844
 30
0.0
 11
3722.0734436072411881
 21
99.3095154172196999
 31
0.0
  0
LINE
  5
1676F
  8
0
 10
3722.1032690832448679
 20
99.3739014436232821
 30
0.0
 11
3722.1112690832451335
 21
99.3739014436232821
 31
0.0
  0
LINE
  5
16770
  8
0
 10
3722.1032690832448679
 20
100.398901443623302
 30
0.0
 11
3722.0832690832448861
 21
100.398901443623302
 31
0.0
  0
ARC
  5
16771
  8
0
 10
3722.0732690832451226
 20
100.3882889931232967
 30
0.0
 40
0.0100000000000051
 50
0.0000000000203555
 51
88.9999992227863572
  0
LINE
  5
16772
  8
0
 10
3722.0832690832448861
 20
100.398901443623302
 30
0.0
 11
3722.1032690832448679
 21
100.398901443623302
 31
0.0
  0
LINE
  5
16773
  8
0
 10
3722.1112690832451335
 20
100.398901443623302
 30
0.0
 11
3723.633269083245068
 21
100.398901443623302
 31
0.0
  0
ARC
  5
16774
  8
0
 10
3722.0032690832449589
 20
100.3882889931231972
 30
0.0
 40
0.0100000000000153
 50
91.000001194028485
 51
180.0000658900627002
  0
LINE
  5
16775
  8
0
 10
3722.0030945589728617
 20
100.398287470071196
 30
0.0
 11
3722.038269083231171
 21
100.3989014444092049
 31
0.0
  0
LINE
  5
16776
  8
0
 10
3722.038269083231171
 20
100.3989014444092049
 30
0.0
 11
3722.0734436075181293
 21
100.398287470071196
 31
0.0
  0
LINE
  5
16777
  8
0
 10
3722.1032690832448679
 20
100.3339014436233043
 30
0.0
 11
3722.1112690832451335
 21
100.3339014436233043
 31
0.0
  0
ARC
  5
16778
  8
0
 10
3723.633269083245068
 20
100.6789014436233032
 30
0.0
 40
0.2799999999999994
 50
270.0
 51
0.0
  0
ARC
  5
16779
  8
0
 10
3723.633269083245068
 20
99.0289014436232833
 30
0.0
 40
0.2799999999999971
 50
359.9999999999992042
 51
90.0
  0
LINE
  5
1677A
  8
0
 10
3716.3032690832451408
 20
100.2289014436233003
 30
0.0
 11
3720.6632690832461776
 21
100.2289014436233003
 31
0.0
  0
LINE
  5
1677B
  8
0
 10
3721.1032690832457774
 20
100.2289014436233003
 30
0.0
 11
3721.977099574976819
 21
100.2289014436233003
 31
0.0
  0
LINE
  5
1677C
  8
0
 10
3715.0122548605231714
 20
99.4631399084394303
 30
0.0
 11
3715.6266188937061088
 21
99.0329575810670804
 31
0.0
  0
LINE
  5
1677D
  8
0
 10
3724.0932690832451044
 20
98.8639014436264034
 30
0.0
 11
3723.9132690832461776
 21
98.8639014436264034
 31
0.0
  0
LINE
  5
1677F
  8
0
 10
3720.6632690832461776
 20
101.3439014436232952
 30
0.0
 11
3720.6632690832461776
 21
98.3639014436232912
 31
0.0
  0
LINE
  5
16780
  8
0
 10
3721.1032690832457774
 20
101.3439014436232952
 30
0.0
 11
3721.1032690832457774
 21
100.0960930450010977
 31
0.0
  0
LINE
  5
16781
  8
0
 10
3721.1032690832457774
 20
99.6114604144474924
 30
0.0
 11
3721.1032690832457774
 21
98.3639014431818737
 31
0.0
  0
ARC
  5
16782
  8
0
 10
3720.6732690832459411
 20
101.3439014436232952
 30
0.0
 40
0.009999999999998
 50
89.9999999999739515
 51
180.0000000000048885
  0
LINE
  5
16783
  8
0
 10
3720.6732690832459411
 20
101.3539014436233003
 30
0.0
 11
3721.0932690071449542
 21
101.3539014436231014
 31
0.0
  0
ARC
  5
16784
  8
0
 10
3721.0932690071449542
 20
101.343901367522804
 30
0.0
 40
0.0100000761002921
 50
0.0004360200937756
 51
89.9999999999739515
  0
ARC
  5
16785
  8
0
 10
3720.6732652786367908
 20
98.3638998677242427
 30
0.0
 40
0.0099961955161052
 50
179.9909673271077111
 51
270.0218070957795931
  0
LINE
  5
16786
  8
0
 10
3720.6732690832459411
 20
98.3539036729321765
 30
0.0
 11
3721.093269006546052
 21
98.3539036729321765
 31
0.0
  0
ARC
  5
16787
  8
0
 10
3721.0932728111761207
 20
98.3638999443893169
 30
0.0
 40
0.0099962721811653
 50
269.9781929388215076
 51
0.008593181357783
  0
CIRCLE
  5
16788
  8
0
 10
3720.883269083245068
 20
99.8539014436232861
 30
0.0
 40
0.19
  0
CIRCLE
  5
16789
  8
0
 10
3720.883269083245068
 20
99.8539014436232861
 30
0.0
 40
0.2200000000000005
  0
ARC
  5
1678A
  8
0
 10
3721.0882164399640715
 20
100.0964305901658946
 30
0.0
 40
0.0150564274148598
 50
310.2794710178584978
 51
358.7153968729925282
  0
ARC
  5
1678B
  8
0
 10
3720.1863166626499151
 20
101.1606870917895975
 30
0.0
 40
1.410070803529486
 50
307.2584894033067258
 51
310.2794710178584978
  0
ARC
  5
1678C
  8
0
 10
3721.0585295118521572
 20
100.0140216306682959
 30
0.0
 40
0.0306224094902864
 50
127.2584894033066973
 51
142.6972791110815137
  0
ARC
  5
1678D
  8
0
 10
3721.0436811839058464
 20
100.0253341397195044
 30
0.0
 40
0.0119557090896381
 50
142.6972791110808885
 51
183.8280060097721957
  0
ARC
  5
1678E
  8
0
 10
3721.0491142707810468
 20
100.0256976724312068
 30
0.0
 40
0.017400944532572
 50
183.8280060097713999
 51
205.184501214956299
  0
ARC
  5
1678F
  8
0
 10
3721.0746898067509392
 20
100.0377241569754005
 30
0.0
 40
0.0456630104631666
 50
205.1845012149555885
 51
218.1513873045234959
  0
ARC
  5
16790
  8
0
 10
3721.0869957971190161
 20
99.6110138121839555
 30
0.0
 40
0.0162794132251903
 50
1.5720244454090591
 51
57.9171548902551194
  0
ARC
  5
16791
  8
0
 10
3720.2533016985780705
 20
98.6309159336651504
 30
0.0
 40
1.3028267795877551
 50
49.718116526791249
 51
52.8556174141023405
  0
ARC
  5
16792
  8
0
 10
3721.084481629738093
 20
99.662348208899445
 30
0.0
 40
0.057989082841909
 50
140.4010571888491938
 51
149.0776606683664909
  0
ARC
  5
16793
  8
0
 10
3721.0543924141697971
 20
99.680372170398087
 30
0.0
 40
0.0229145325007484
 50
149.0776606683672014
 51
170.1097291394200965
  0
ARC
  5
16794
  8
0
 10
3721.0426698297128496
 20
99.6824160377706221
 30
0.0
 40
0.0110151047759321
 50
170.1097291394152933
 51
210.1482505943203023
  0
ARC
  5
16795
  8
0
 10
3721.0580641649321478
 20
99.6928492967032156
 30
0.0
 40
0.0295951612434728
 50
212.6470469765027929
 51
232.3390895522921937
  0
ENDSEC
  0
EOF
