  0
SECTION
  2
HEADER
  9
$ACADVER
  1
AC1009
  9
$INSBASE
 10
120.4781603722725976
 20
9.0786138795822353
 30
0.0
  9
$EXTMIN
 10
119.1080819629514025
 20
9.0786138795822353
 30
0.0
  9
$EXTMAX
 10
121.8482387816936949
 20
10.8108752851163405
 30
0.0
  9
$LIMMIN
 10
0.0
 20
0.0
  9
$LIMMAX
 10
11.6929133858000007
 20
8.2677165353999982
  9
$ORTHOMODE
 70
     1
  9
$REGENMODE
 70
     1
  9
$FILLMODE
 70
     1
  9
$QTEXTMODE
 70
     0
  9
$MIRRTEXT
 70
     0
  9
$DRAGMODE
 70
     2
  9
$LTSCALE
 40
0.6431102362
  9
$OSMODE
 70
     7
  9
$ATTMODE
 70
     1
  9
$TEXTSIZE
 40
0.2
  9
$TRACEWID
 40
0.05
  9
$TEXTSTYLE
  7
STANDARD
  9
$CLAYER
  8
0
  9
$CELTYPE
  6
BYLAYER
  9
$CECOLOR
 62
   256
  9
$DIMSCALE
 40
1.0
  9
$DIMASZ
 40
0.1875
  9
$DIMEXO
 40
0.0625
  9
$DIMDLI
 40
0.4443307087
  9
$DIMRND
 40
0.0
  9
$DIMDLE
 40
0.0
  9
$DIMEXE
 40
0.125
  9
$DIMTP
 40
0.01
  9
$DIMTM
 40
0.01
  9
$DIMTXT
 40
1.0
  9
$DIMCEN
 40
0.1052362205
  9
$DIMTSZ
 40
0.0
  9
$DIMTOL
 70
     1
  9
$DIMLIM
 70
     0
  9
$DIMTIH
 70
     1
  9
$DIMTOH
 70
     1
  9
$DIMSE1
 70
     0
  9
$DIMSE2
 70
     0
  9
$DIMTAD
 70
     0
  9
$DIMZIN
 70
     0
  9
$DIMBLK
  1

  9
$DIMASO
 70
     1
  9
$DIMSHO
 70
     1
  9
$DIMPOST
  1
\X
  9
$DIMAPOST
  1

  9
$DIMALT
 70
     1
  9
$DIMALTD
 70
     2
  9
$DIMALTF
 40
25.3999999999999986
  9
$DIMLFAC
 40
1.0
  9
$DIMTOFL
 70
     0
  9
$DIMTVP
 40
0.0
  9
$DIMTIX
 70
     0
  9
$DIMSOXD
 70
     0
  9
$DIMSAH
 70
     0
  9
$DIMBLK1
  1

  9
$DIMBLK2
  1

  9
$DIMSTYLE
  2
STANDARD
  9
$DIMCLRD
 70
     0
  9
$DIMCLRE
 70
     0
  9
$DIMCLRT
 70
     0
  9
$DIMTFAC
 40
1.0
  9
$DIMGAP
 40
0.09
  9
$LUNITS
 70
     2
  9
$LUPREC
 70
     4
  9
$SKETCHINC
 40
0.1
  9
$FILLETRAD
 40
0.0
  9
$AUNITS
 70
     0
  9
$AUPREC
 70
     0
  9
$MENU
  1
.
  9
$ELEVATION
 40
0.0
  9
$PELEVATION
 40
0.0
  9
$THICKNESS
 40
0.0
  9
$LIMCHECK
 70
     0
  9
$BLIPMODE
 70
     0
  9
$CHAMFERA
 40
0.0
  9
$CHAMFERB
 40
0.0
  9
$SKPOLY
 70
     0
  9
$TDCREATE
 40
2458172.4620254631154239
  9
$TDUPDATE
 40
2459590.6412731488235295
  9
$TDINDWG
 40
0.0623655208
  9
$TDUSRTIMER
 40
0.0623655208
  9
$USRTIMER
 70
     1
  9
$ANGBASE
 50
0.0
  9
$ANGDIR
 70
     0
  9
$PDMODE
 70
     0
  9
$PDSIZE
 40
0.3125
  9
$PLINEWID
 40
0.0
  9
$COORDS
 70
     1
  9
$SPLFRAME
 70
     0
  9
$SPLINETYPE
 70
     6
  9
$SPLINESEGS
 70
     8
  9
$ATTDIA
 70
     1
  9
$ATTREQ
 70
     1
  9
$HANDLING
 70
     1
  9
$HANDSEED
  5
1A82
  9
$SURFTAB1
 70
     6
  9
$SURFTAB2
 70
     6
  9
$SURFTYPE
 70
     6
  9
$SURFU
 70
     6
  9
$SURFV
 70
     6
  9
$UCSNAME
  2

  9
$UCSORG
 10
0.0
 20
0.0
 30
0.0
  9
$UCSXDIR
 10
1.0
 20
0.0
 30
0.0
  9
$UCSYDIR
 10
0.0
 20
1.0
 30
0.0
  9
$PUCSNAME
  2

  9
$PUCSORG
 10
0.0
 20
0.0
 30
0.0
  9
$PUCSXDIR
 10
1.0
 20
0.0
 30
0.0
  9
$PUCSYDIR
 10
0.0
 20
1.0
 30
0.0
  9
$USERI1
 70
     0
  9
$USERI2
 70
     0
  9
$USERI3
 70
     0
  9
$USERI4
 70
     0
  9
$USERI5
 70
     0
  9
$USERR1
 40
0.0
  9
$USERR2
 40
0.0
  9
$USERR3
 40
0.0
  9
$USERR4
 40
0.0
  9
$USERR5
 40
0.0
  9
$WORLDVIEW
 70
     1
  9
$SHADEDGE
 70
     3
  9
$SHADEDIF
 70
    70
  9
$TILEMODE
 70
     1
  9
$MAXACTVP
 70
    64
  9
$PLIMCHECK
 70
     0
  9
$PEXTMIN
 10
1.0000000000000000E+20
 20
1.0000000000000000E+20
 30
1.0000000000000000E+20
  9
$PEXTMAX
 10
-1.0000000000000000E+20
 20
-1.0000000000000000E+20
 30
-1.0000000000000000E+20
  9
$PLIMMIN
 10
0.0
 20
0.0
  9
$PLIMMAX
 10
12.0
 20
9.0
  9
$UNITMODE
 70
     0
  9
$VISRETAIN
 70
     1
  9
$PLINEGEN
 70
     0
  9
$PSLTSCALE
 70
     1
  0
ENDSEC
  0
SECTION
  2
TABLES
  0
TABLE
  2
VPORT
 70
     1
  0
VPORT
  2
*ACTIVE
 70
     0
 10
0.0
 20
0.0
 11
1.0
 21
1.0
 12
-0.002052588627933
 22
0.0000037086176903
 13
0.0
 23
0.0
 14
1.0
 24
1.0
 15
0.0
 25
0.0
 16
0.0
 26
0.0
 36
9.1239077875810537
 17
120.4781603723226056
 27
9.944744582349287
 37
0.0
 40
1.7458756044101711
 41
2.2831541218637992
 42
50.0
 43
0.0
 44
0.0
 50
0.0
 51
0.0
 71
     0
 72
   100
 73
     1
 74
     1
 75
     0
 76
     0
 77
     0
 78
     0
  0
ENDTAB
  0
TABLE
  2
LTYPE
 70
     2
  0
LTYPE
  2
CONTINUOUS
 70
     0
  3
Solid line
 72
    65
 73
     0
 40
0.0
  0
LTYPE
  2
PHANTOM2
 70
     0
  3
___ _ _ ___ _ _ ___ _ _ ___ _ _
 72
    65
 73
     6
 40
1.25
 49
0.625
 49
-0.125
 49
0.125
 49
-0.125
 49
0.125
 49
-0.125
  0
ENDTAB
  0
TABLE
  2
LAYER
 70
     2
  0
LAYER
  2
0
 70
     0
 62
   255
  6
CONTINUOUS
  0
LAYER
  2
DEFPOINTS
 70
     0
 62
     7
  6
CONTINUOUS
  0
ENDTAB
  0
TABLE
  2
STYLE
 70
     1
  0
STYLE
  2
STANDARD
 70
     0
 40
0.0
 41
0.8
 50
0.0
 71
     0
 42
0.2
  3
txt
  4

  0
ENDTAB
  0
TABLE
  2
VIEW
 70
     0
  0
ENDTAB
  0
TABLE
  2
UCS
 70
     0
  0
ENDTAB
  0
TABLE
  2
APPID
 70
     9
  0
APPID
  2
ACAD
 70
     0
  0
APPID
  2
ACAD_MLEADERVER
 70
     0
  0
APPID
  2
ACAD_EXEMPT_FROM_CAD_STANDARDS
 70
     0
  0
APPID
  2
ACAD_DSTYLE_DIMJAG
 70
     0
  0
APPID
  2
ACAD_DSTYLE_DIMTALN
 70
     0
  0
APPID
  2
ACAD_NAV_VCDISPLAY
 70
     0
  0
APPID
  2
ACAECLAYERSTANDARD
 70
     0
  0
APPID
  2
ACCMTRANSPARENCY
 70
     0
  0
APPID
  2
ACDBATTR
 70
     0
  0
ENDTAB
  0
TABLE
  2
DIMSTYLE
 70
     1
  0
DIMSTYLE
  2
STANDARD
 70
     0
  3

  4

  5

  6

  7

 40
1.0
 41
0.1875
 42
0.0625
 43
0.38
 44
0.125
 45
0.0
 46
0.0
 47
0.01
 48
0.01
140
0.15625
141
0.09
142
0.0
143
25.3999999999999986
144
1.0
145
0.0
146
1.0
147
0.09
 71
     1
 72
     0
 73
     1
 74
     1
 75
     0
 76
     0
 77
     0
 78
     4
170
     0
171
     2
172
     0
173
     0
174
     0
175
     0
176
     0
177
     0
178
     0
  0
ENDTAB
  0
ENDSEC
  0
SECTION
  2
BLOCKS
  0
BLOCK
  8
0
  2
$MODEL_SPACE
 70
     0
 10
0.0
 20
0.0
 30
0.0
  3
$MODEL_SPACE
  1

  0
ENDBLK
  5
21
  8
0
  0
BLOCK
 67
     1
  8
0
  2
$PAPER_SPACE
 70
     0
 10
0.0
 20
0.0
 30
0.0
  3
$PAPER_SPACE
  1

  0
ENDBLK
  5
1D
 67
     1
  8
0
  0
ENDSEC
  0
SECTION
  2
ENTITIES
  0
ATTDEF
  5
157D
  8
DEFPOINTS
 10
120.4743040335352049
 20
9.0842681096980371
 30
0.0
 40
0.001
  1
K-77990BR-9
  3

  2
MODELNUMBER
 70
     0
1001
ACDBATTR
1070
     0
1070
     1
  0
ATTDEF
  5
157E
  8
DEFPOINTS
 10
120.4743040335352049
 20
9.0826014430313702
 30
0.0
 40
0.001
  1
COMPONENTS
  3

  2
TRADENAME
 70
     0
1001
ACDBATTR
1070
     0
1070
     1
  0
ATTDEF
  5
157F
  8
DEFPOINTS
 10
120.4743040335352049
 20
9.0809347763647068
 30
0.0
 40
0.001
  1
BATH FAUCET HANDLES
  3

  2
PRODUCT
 70
     0
1001
ACDBATTR
1070
     0
1070
     1
  0
LINE
  5
16F0
  8
0
 10
119.2085259517226064
 20
10.3032279270822293
 30
0.0
 11
119.2161673605226042
 21
10.7756125655822306
 31
0.0
  0
LINE
  5
16F1
  8
0
 10
119.1418884050225984
 20
10.3032279270822293
 30
0.0
 11
119.1499308778225981
 21
10.7756125655822306
 31
0.0
  0
LINE
  5
16F2
  8
0
 10
119.1080819629514025
 20
10.2990641006822301
 30
0.0
 11
119.1164746230225973
 21
10.77989840248223
 31
0.0
  0
LINE
  5
16F3
  8
0
 10
119.2970580100225959
 20
9.2204009177822357
 30
0.0
 11
119.2970580100225959
 21
9.0884563992822365
 31
0.0
  0
LINE
  5
16F4
  8
0
 10
119.4331783186224953
 20
10.3032284833280396
 30
0.0
 11
119.4394675764226008
 21
10.7756125655822306
 31
0.0
  0
LINE
  5
16F5
  8
0
 10
119.3064261116225993
 20
10.3032279270822293
 30
0.0
 11
119.3134782995226004
 21
10.7756125655822306
 31
0.0
  0
LINE
  5
16F6
  8
0
 10
119.5856613315226014
 20
10.3032279270822293
 30
0.0
 11
119.5910329172226056
 21
10.7756125655822306
 31
0.0
  0
LINE
  5
16F7
  8
0
 10
119.1164746230225973
 20
10.77989840248223
 30
0.0
 11
119.1416860963226014
 21
10.8051096823822306
 31
0.0
  0
LINE
  5
16F8
  8
0
 10
119.7601206938225999
 20
10.3032279270822293
 30
0.0
 11
119.7644423375674023
 21
10.7756119267778008
 31
0.0
  0
LINE
  5
16F9
  8
0
 10
119.9742647317225988
 20
9.4522640290822366
 30
0.0
 11
119.9716158523225999
 21
9.6040182289822358
 31
0.0
  0
LINE
  5
16FA
  8
0
 10
120.1573498565226004
 20
10.3032279270822293
 30
0.0
 11
120.1592806835225957
 21
10.7756125655822306
 31
0.0
  0
LINE
  5
16FB
  8
0
 10
119.9522605760225957
 20
10.3032279270822293
 30
0.0
 11
119.9554257512226059
 21
10.7756125655822306
 31
0.0
  0
LINE
  5
16FC
  8
0
 10
120.3703385567226007
 20
10.3032279392822304
 30
0.0
 11
120.3709874920226071
 21
10.7756126143822293
 31
0.0
  0
LINE
  5
16FD
  8
0
 10
119.1420192168226038
 20
10.2651266885822299
 30
0.0
 11
119.1080819629514025
 21
10.2990641006822301
 31
0.0
  0
LINE
  5
16FE
  8
0
 10
120.5859821878225944
 20
10.3032279270822293
 30
0.0
 11
120.5853332525226023
 21
10.7756125655822306
 31
0.0
  0
LINE
  5
16FF
  8
0
 10
120.798970887922593
 20
10.3032279270822293
 30
0.0
 11
120.7970400610225994
 21
10.7756125655822306
 31
0.0
  0
LINE
  5
1700
  8
0
 10
119.2426944228225949
 20
10.2257966703822305
 30
0.0
 11
119.9342119880618043
 21
9.6795304748882884
 31
0.0
  0
LINE
  5
1701
  8
0
 10
120.9919398998225972
 20
10.0185115397822297
 30
0.0
 11
120.9877300382285057
 21
10.2596943472822293
 31
0.0
  0
LINE
  5
1702
  8
0
 10
121.0040601685225994
 20
10.3032279270822293
 30
0.0
 11
121.0008949933226035
 21
10.7756125655822306
 31
0.0
  0
LINE
  5
1703
  8
0
 10
120.9820560127225946
 20
9.4522640290822366
 30
0.0
 11
120.9919398998225972
 21
10.0185115397822297
 31
0.0
  0
LINE
  5
1704
  8
0
 10
121.1962000507225952
 20
10.3032279270822293
 30
0.0
 11
121.1918784644226008
 21
10.7756125655822306
 31
0.0
  0
LINE
  5
1705
  8
0
 10
121.5231424868225929
 20
10.3032279270822293
 30
0.0
 11
121.5168532725904953
 21
10.7756118012752893
 31
0.0
  0
LINE
  5
1706
  8
0
 10
121.3706594129226062
 20
10.3032279270822293
 30
0.0
 11
121.3652878273226037
 21
10.7756125655822306
 31
0.0
  0
LINE
  5
1707
  8
0
 10
121.7477947927226012
 20
10.3032279270822293
 30
0.0
 11
121.7401533840226051
 21
10.7756125655822306
 31
0.0
  0
LINE
  5
1708
  8
0
 10
121.6498946329225959
 20
10.3032279270822293
 30
0.0
 11
121.6428424450225947
 21
10.7756125655822306
 31
0.0
  0
LINE
  5
1709
  8
0
 10
121.6592627344225974
 20
9.2204009177822357
 30
0.0
 11
121.6592627344225974
 21
9.0884563992822365
 31
0.0
  0
LINE
  5
170A
  8
0
 10
121.8146348010226063
 20
10.2654599618822306
 30
0.0
 11
121.8482387816936949
 21
10.2990641006822301
 31
0.0
  0
LINE
  5
170B
  8
0
 10
119.3069005297225971
 20
9.0786138795822353
 30
0.0
 11
121.649420214822598
 21
9.0786138795822353
 31
0.0
  0
LINE
  5
170C
  8
0
 10
120.961401175122603
 20
9.3935745094822352
 30
0.0
 11
120.9789473040225971
 21
9.3915948643822347
 31
0.0
  0
LINE
  5
170D
  8
0
 10
120.9789473040225971
 20
9.3915948643822347
 30
0.0
 11
121.6439640101226018
 21
9.2395910457822357
 31
0.0
  0
LINE
  5
170E
  8
0
 10
121.8482387816936949
 20
10.2990641006822301
 30
0.0
 11
121.8398461214225961
 21
10.77989840248223
 31
0.0
  0
LINE
  5
170F
  8
0
 10
121.8144323395225967
 20
10.3032279270822293
 30
0.0
 11
121.8063898666225953
 21
10.7756125655822306
 31
0.0
  0
LINE
  5
1710
  8
0
 10
119.9949195693226045
 20
9.3935745094822352
 30
0.0
 11
120.961401175122603
 21
9.3935745094822352
 31
0.0
  0
LINE
  5
1711
  8
0
 10
119.9939467730225999
 20
9.4329225409822364
 30
0.0
 11
120.9623739715225952
 21
9.4329225409822364
 31
0.0
  0
LINE
  5
1712
  8
0
 10
119.9949195693226045
 20
9.3935745094822352
 30
0.0
 11
119.9773734404225962
 21
9.3915948643822347
 31
0.0
  0
LINE
  5
1713
  8
0
 10
119.9773734404225962
 20
9.3915948643822347
 30
0.0
 11
119.3123567344225933
 21
9.2395910457822357
 31
0.0
  0
LINE
  5
1714
  8
0
 10
121.8398461214225961
 20
10.77989840248223
 30
0.0
 11
121.8146346482225937
 21
10.8051096823822306
 31
0.0
  0
LINE
  5
1715
  8
0
 10
119.1522451946260048
 20
10.2596943472822293
 30
0.0
 11
121.8006938653195022
 21
10.2596943472822293
 31
0.0
  0
LINE
  5
1716
  8
0
 10
119.1556270437658043
 20
10.8108752851163405
 30
0.0
 11
121.8006937007793056
 21
10.8108752851163405
 31
0.0
  0
ARC
  5
1717
  8
0
 10
120.2651343887028048
 20
9.4701009598651495
 30
0.0
 40
1.3097959992160519
 50
85.3645013867868983
 51
94.6355250274225739
  0
ARC
  5
1718
  8
0
 10
120.0573532173725937
 20
9.5652950315263325
 30
0.0
 40
1.214601886051113
 50
85.1861675586443852
 51
94.8138324413548048
  0
ARC
  5
1719
  8
0
 10
119.8599375965253984
 20
9.7136315311200097
 30
0.0
 40
1.0662653071562109
 50
84.8620595322413607
 51
95.1383237554712338
  0
ARC
  5
171A
  8
0
 10
119.6777344034072001
 20
9.9004306875575967
 30
0.0
 40
0.8794660126061477
 50
84.3419274646351909
 51
95.6576504037657287
  0
ARC
  5
171B
  8
0
 10
119.5152502468226032
 20
10.1074510885666395
 30
0.0
 40
0.6724453676698288
 50
83.5291825848278364
 51
96.4708174151713536
  0
ARC
  5
171C
  8
0
 10
119.3764729379725935
 20
10.3145361765828305
 30
0.0
 40
0.4653598188135488
 50
82.2201234718434222
 51
97.7798765281573736
  0
ARC
  5
171D
  8
0
 10
119.1442109053817973
 20
10.1006346876059805
 30
0.0
 40
0.1592624410838377
 50
51.8026153915349923
 51
87.1083807702605242
  0
ARC
  5
171E
  8
0
 10
119.873047478050097
 20
9.6022137015397533
 30
0.0
 40
0.0985848909620666
 50
1.048817723055627
 51
51.6528386638705825
  0
ARC
  5
171F
  8
0
 10
120.0549320258225947
 20
9.4329445881822274
 30
0.0
 40
0.0393700786999922
 50
270.0
 51
359.9679144259457075
  0
ARC
  5
1720
  8
0
 10
119.3167430494225982
 20
9.2204009177822357
 30
0.0
 40
0.0196850394
 50
102.875001559599994
 51
180.0
  0
ARC
  5
1721
  8
0
 10
119.9939467730225999
 20
9.4526075803822351
 30
0.0
 40
0.0196850394
 50
181.0
 51
270.0
  0
ARC
  5
1722
  8
0
 10
119.3069005297225971
 20
9.0884563992822365
 30
0.0
 40
0.0098425197
 50
180.0
 51
270.0
  0
ARC
  5
1723
  8
0
 10
120.263844128568806
 20
11.6634244647095109
 30
0.0
 40
1.3643590623262909
 50
265.5232568306046801
 51
274.4767497459342849
  0
ARC
  5
1724
  8
0
 10
120.054805216272598
 20
11.5642620697613197
 30
0.0
 40
1.2651966298747299
 50
265.3510570898915262
 51
274.6489429101084738
  0
ARC
  5
1725
  8
0
 10
119.8561906349225978
 20
11.4098098990373202
 30
0.0
 40
1.1107443874442759
 50
265.0382029380614881
 51
274.9617970619377161
  0
ARC
  5
1726
  8
0
 10
119.6728910126725935
 20
11.2151888816165801
 30
0.0
 40
0.916123244912341
 50
264.5362422724031148
 51
275.4637577275968283
  0
ARC
  5
1727
  8
0
 10
119.5094223646607929
 20
10.9994025700028892
 30
0.0
 40
0.7003367143837719
 50
263.7499525453451952
 51
276.2496294338340022
  0
ARC
  5
1728
  8
0
 10
119.3698001066863981
 20
10.7836793438886094
 30
0.0
 40
0.4846130695323946
 50
262.4857736536870902
 51
277.5147292257140066
  0
ARC
  5
1729
  8
0
 10
119.1557812011889013
 20
10.7907654716148507
 30
0.0
 40
0.0201104043613181
 50
90.4392082859540238
 51
134.4981473452367027
  0
ARC
  5
172A
  8
0
 10
120.4781600675791964
 20
9.4372985511863057
 30
0.0
 40
1.342598410806243
 50
85.4214817730402842
 51
94.5784921379530061
  0
ARC
  5
172B
  8
0
 10
120.6911866567726008
 20
9.4701083337249337
 30
0.0
 40
1.3097886251562261
 50
85.3644620248361861
 51
94.6355379751638139
  0
ARC
  5
172C
  8
0
 10
120.8989675271726014
 20
9.5652950031771677
 30
0.0
 40
1.2146019143002791
 50
85.1861676708695654
 51
94.8138323291304346
  0
ARC
  5
172D
  8
0
 10
121.0963867288726021
 20
9.7135517178725301
 30
0.0
 40
1.0663451203978029
 50
84.8622519492611787
 51
95.1377480507396172
  0
ARC
  5
172E
  8
0
 10
121.2785831458726022
 20
9.9003660200258263
 30
0.0
 40
0.8795306801321792
 50
84.3425577624865355
 51
95.6574422375134787
  0
ARC
  5
172F
  8
0
 10
121.4410671808817028
 20
10.1075097482338805
 30
0.0
 40
0.672386707910441
 50
83.5283222428052028
 51
96.4710999003858376
  0
ARC
  5
1730
  8
0
 10
121.5798506556465952
 20
10.3145780767268107
 30
0.0
 40
0.4653179186781519
 50
82.2197726583556232
 51
97.7809225055434581
  0
ARC
  5
1731
  8
0
 10
120.9013887230918982
 20
9.4329445987306517
 30
0.0
 40
0.0393700892483975
 50
180.0321009167132047
 51
269.999993641326796
  0
ARC
  5
1732
  8
0
 10
121.6395776951225969
 20
9.2204009177822357
 30
0.0
 40
0.0196850394
 50
0.0
 51
77.1249984403999918
  0
ARC
  5
1733
  8
0
 10
120.9623739715225952
 20
9.4526075803822351
 30
0.0
 40
0.0196850394
 50
270.0
 51
359.0
  0
ARC
  5
1734
  8
0
 10
121.8007153326272061
 20
10.2793794519658892
 30
0.0
 40
0.0196851163890818
 50
269.9375169367751255
 51
314.9999553629904199
  0
ARC
  5
1735
  8
0
 10
121.649420214822598
 20
9.0884563992822365
 30
0.0
 40
0.0098425197
 50
270.0
 51
0.0
  0
ARC
  5
1736
  8
0
 10
120.4781604513194964
 20
11.6975674090043107
 30
0.0
 40
1.3985020978565801
 50
265.5782146180901009
 51
274.4217788863380179
  0
ARC
  5
1737
  8
0
 10
120.6924765378725937
 20
11.6634263948113599
 30
0.0
 40
1.364360992628135
 50
265.5232598914737991
 51
274.4767401085263145
  0
ARC
  5
1738
  8
0
 10
120.9015155282226033
 20
11.5642620405987504
 30
0.0
 40
1.2651966008121609
 50
265.3510569805948194
 51
274.6489430194051806
  0
ARC
  5
1739
  8
0
 10
121.1001301096225973
 20
11.4098098990386099
 30
0.0
 40
1.1107443874455629
 50
265.0382029380671725
 51
274.9617970619328275
  0
ARC
  5
173A
  8
0
 10
121.2834297318225936
 20
11.2151888805702793
 30
0.0
 40
0.9161232438660393
 50
264.5362422692850828
 51
275.4637577307148035
  0
ARC
  5
173B
  8
0
 10
121.4469009498725995
 20
10.9994496493113498
 30
0.0
 40
0.7003837936875545
 50
263.7505808295409224
 51
276.2494191704590776
  0
ARC
  5
173C
  8
0
 10
121.5865185598726015
 20
10.7837109886259093
 30
0.0
 40
0.484644714265636
 50
262.4860193331666096
 51
277.5139806668333904
  0
ARC
  5
173D
  8
0
 10
121.7998443932680033
 20
10.7890846324663396
 30
0.0
 40
0.021807197576988
 50
47.2946618429516334
 51
87.7679825258722275
  0
ARC
  5
173E
  8
0
 10
119.155699388441306
 20
10.2785376011665193
 30
0.0
 40
0.0191572354963156
 50
224.4305544145476858
 51
259.6123269308142767
  0
ARC
  5
173F
  8
0
 10
119.1331655551215931
 20
10.7449610140077798
 30
0.0
 40
0.0349369955661277
 50
61.3228888101303227
 51
118.6778962700766016
  0
ARC
  5
1740
  8
0
 10
119.183049119172594
 20
10.6497847764907103
 30
0.0
 40
0.1301132215333154
 50
75.2540245819056537
 51
104.7459754180943037
  0
ARC
  5
1741
  8
0
 10
119.2648228300225952
 20
10.5015460521216504
 30
0.0
 40
0.2783519507973759
 50
79.9330748319356559
 51
100.0669251680643015
  0
ARC
  5
1742
  8
0
 10
119.1250213052948936
 20
10.3353123885951703
 30
0.0
 40
0.0362479202685998
 50
242.2694463900490121
 51
297.7313222135629758
  0
ARC
  5
1743
  8
0
 10
119.1752071783726024
 20
10.4344657461491597
 30
0.0
 40
0.1354012769917341
 50
255.7546700820238925
 51
284.2453299179726969
  0
ARC
  5
1744
  8
0
 10
119.2574760316725957
 20
10.5889003245561408
 30
0.0
 40
0.2898358656301896
 50
260.2767724584311964
 51
279.7232275415680078
  0
ARC
  5
1745
  8
0
 10
121.6988447128226056
 20
10.58890016037134
 30
0.0
 40
0.2898357037954453
 50
260.2767669866038887
 51
279.7232330133970208
  0
ARC
  5
1746
  8
0
 10
121.781113566122599
 20
10.4344657465514707
 30
0.0
 40
0.1354012773939779
 50
255.7546701034090972
 51
284.2453298965883732
  0
ARC
  5
1747
  8
0
 10
121.8312991780412062
 20
10.3353117153614207
 30
0.0
 40
0.0362472028156105
 50
242.2685480639833031
 51
297.731607948260887
  0
ARC
  5
1748
  8
0
 10
121.6914979145225999
 20
10.5015458504972496
 30
0.0
 40
0.2783521493176211
 50
79.9330820864535809
 51
100.0669179135472007
  0
ARC
  5
1749
  8
0
 10
121.7732716253225931
 20
10.6497849397535695
 30
0.0
 40
0.1301130636349865
 50
75.2540063038770342
 51
104.7459936961238043
  0
ARC
  5
174A
  8
0
 10
121.8231554732215045
 20
10.7449599572706092
 30
0.0
 40
0.034938058917675
 50
61.3235984509129466
 51
118.6766880479731014
  0
ARC
  5
174B
  8
0
 10
118.9406736289471951
 20
10.0381588193183902
 30
0.0
 40
1.118624119226687
 50
337.163529784439902
 51
11.42253451954514
  0
LINE
  5
174C
  8
0
 10
119.2970580100225959
 20
9.2204009177822357
 30
0.0
 11
121.6592627344225974
 21
9.2204009177822357
 31
0.0
  0
ENDSEC
  0
EOF
