  0
SECTION
  2
HEADER
  9
$ACADVER
  1
AC1009
  9
$INSBASE
 10
104.6186051566210011
 20
8.8877207438565122
 30
0.0
  9
$EXTMIN
 10
99.2485264134460721
 20
7.517642000706509
 30
0.0
  9
$EXTMAX
 10
109.9886838997961007
 20
10.2577994870065101
 30
0.0
  9
$LIMMIN
 10
0.0
 20
0.0
  9
$LIMMAX
 10
11.6929133858000007
 20
8.2677165353999982
  9
$ORTHOMODE
 70
     1
  9
$REGENMODE
 70
     1
  9
$FILLMODE
 70
     1
  9
$QTEXTMODE
 70
     0
  9
$MIRRTEXT
 70
     0
  9
$DRAGMODE
 70
     2
  9
$LTSCALE
 40
0.6431102362
  9
$OSMODE
 70
     7
  9
$ATTMODE
 70
     1
  9
$TEXTSIZE
 40
0.2
  9
$TRACEWID
 40
0.05
  9
$TEXTSTYLE
  7
STANDARD
  9
$CLAYER
  8
0
  9
$CELTYPE
  6
BYLAYER
  9
$CECOLOR
 62
   256
  9
$DIMSCALE
 40
1.0
  9
$DIMASZ
 40
0.1875
  9
$DIMEXO
 40
0.0625
  9
$DIMDLI
 40
0.4443307087
  9
$DIMRND
 40
0.0
  9
$DIMDLE
 40
0.0
  9
$DIMEXE
 40
0.125
  9
$DIMTP
 40
0.01
  9
$DIMTM
 40
0.01
  9
$DIMTXT
 40
1.0
  9
$DIMCEN
 40
0.1052362205
  9
$DIMTSZ
 40
0.0
  9
$DIMTOL
 70
     1
  9
$DIMLIM
 70
     0
  9
$DIMTIH
 70
     1
  9
$DIMTOH
 70
     1
  9
$DIMSE1
 70
     0
  9
$DIMSE2
 70
     0
  9
$DIMTAD
 70
     0
  9
$DIMZIN
 70
     0
  9
$DIMBLK
  1

  9
$DIMASO
 70
     1
  9
$DIMSHO
 70
     1
  9
$DIMPOST
  1
\X
  9
$DIMAPOST
  1

  9
$DIMALT
 70
     1
  9
$DIMALTD
 70
     2
  9
$DIMALTF
 40
25.3999999999999986
  9
$DIMLFAC
 40
1.0
  9
$DIMTOFL
 70
     0
  9
$DIMTVP
 40
0.0
  9
$DIMTIX
 70
     0
  9
$DIMSOXD
 70
     0
  9
$DIMSAH
 70
     0
  9
$DIMBLK1
  1

  9
$DIMBLK2
  1

  9
$DIMSTYLE
  2
STANDARD
  9
$DIMCLRD
 70
     0
  9
$DIMCLRE
 70
     0
  9
$DIMCLRT
 70
     0
  9
$DIMTFAC
 40
1.0
  9
$DIMGAP
 40
0.09
  9
$LUNITS
 70
     2
  9
$LUPREC
 70
     4
  9
$SKETCHINC
 40
0.1
  9
$FILLETRAD
 40
0.0
  9
$AUNITS
 70
     0
  9
$AUPREC
 70
     0
  9
$MENU
  1
.
  9
$ELEVATION
 40
0.0
  9
$PELEVATION
 40
0.0
  9
$THICKNESS
 40
0.0
  9
$LIMCHECK
 70
     0
  9
$BLIPMODE
 70
     0
  9
$CHAMFERA
 40
0.0
  9
$CHAMFERB
 40
0.0
  9
$SKPOLY
 70
     0
  9
$TDCREATE
 40
2458172.4620254631154239
  9
$TDUPDATE
 40
2459590.641006943769753
  9
$TDINDWG
 40
0.0595756597
  9
$TDUSRTIMER
 40
0.0595756597
  9
$USRTIMER
 70
     1
  9
$ANGBASE
 50
0.0
  9
$ANGDIR
 70
     0
  9
$PDMODE
 70
     0
  9
$PDSIZE
 40
0.3125
  9
$PLINEWID
 40
0.0
  9
$COORDS
 70
     1
  9
$SPLFRAME
 70
     0
  9
$SPLINETYPE
 70
     6
  9
$SPLINESEGS
 70
     8
  9
$ATTDIA
 70
     1
  9
$ATTREQ
 70
     1
  9
$HANDLING
 70
     1
  9
$HANDSEED
  5
19BB
  9
$SURFTAB1
 70
     6
  9
$SURFTAB2
 70
     6
  9
$SURFTYPE
 70
     6
  9
$SURFU
 70
     6
  9
$SURFV
 70
     6
  9
$UCSNAME
  2

  9
$UCSORG
 10
0.0
 20
0.0
 30
0.0
  9
$UCSXDIR
 10
1.0
 20
0.0
 30
0.0
  9
$UCSYDIR
 10
0.0
 20
1.0
 30
0.0
  9
$PUCSNAME
  2

  9
$PUCSORG
 10
0.0
 20
0.0
 30
0.0
  9
$PUCSXDIR
 10
1.0
 20
0.0
 30
0.0
  9
$PUCSYDIR
 10
0.0
 20
1.0
 30
0.0
  9
$USERI1
 70
     0
  9
$USERI2
 70
     0
  9
$USERI3
 70
     0
  9
$USERI4
 70
     0
  9
$USERI5
 70
     0
  9
$USERR1
 40
0.0
  9
$USERR2
 40
0.0
  9
$USERR3
 40
0.0
  9
$USERR4
 40
0.0
  9
$USERR5
 40
0.0
  9
$WORLDVIEW
 70
     1
  9
$SHADEDGE
 70
     3
  9
$SHADEDIF
 70
    70
  9
$TILEMODE
 70
     1
  9
$MAXACTVP
 70
    64
  9
$PLIMCHECK
 70
     0
  9
$PEXTMIN
 10
1.0000000000000000E+20
 20
1.0000000000000000E+20
 30
1.0000000000000000E+20
  9
$PEXTMAX
 10
-1.0000000000000000E+20
 20
-1.0000000000000000E+20
 30
-1.0000000000000000E+20
  9
$PLIMMIN
 10
0.0
 20
0.0
  9
$PLIMMAX
 10
12.0
 20
9.0
  9
$UNITMODE
 70
     0
  9
$VISRETAIN
 70
     1
  9
$PLINEGEN
 70
     0
  9
$PSLTSCALE
 70
     1
  0
ENDSEC
  0
SECTION
  2
TABLES
  0
TABLE
  2
VPORT
 70
     1
  0
VPORT
  2
*ACTIVE
 70
     0
 10
0.0
 20
0.0
 11
1.0
 21
1.0
 12
-0.0044032073920448
 22
0.0000452187088804
 13
0.0
 23
0.0
 14
1.0
 24
1.0
 15
0.0
 25
0.0
 16
0.0
 26
0.0
 36
31.1770409261071499
 17
104.6217070679360006
 27
8.8877207438565122
 37
0.0
 40
4.7229329370282276
 41
2.2831541218637992
 42
50.0
 43
0.0
 44
0.0
 50
0.0
 51
0.0
 71
     0
 72
   100
 73
     1
 74
     1
 75
     0
 76
     0
 77
     0
 78
     0
  0
ENDTAB
  0
TABLE
  2
LTYPE
 70
     2
  0
LTYPE
  2
CONTINUOUS
 70
     0
  3
Solid line
 72
    65
 73
     0
 40
0.0
  0
LTYPE
  2
PHANTOM2
 70
     0
  3
___ _ _ ___ _ _ ___ _ _ ___ _ _
 72
    65
 73
     6
 40
1.25
 49
0.625
 49
-0.125
 49
0.125
 49
-0.125
 49
0.125
 49
-0.125
  0
ENDTAB
  0
TABLE
  2
LAYER
 70
     2
  0
LAYER
  2
0
 70
     0
 62
   255
  6
CONTINUOUS
  0
LAYER
  2
DEFPOINTS
 70
     0
 62
     7
  6
CONTINUOUS
  0
ENDTAB
  0
TABLE
  2
STYLE
 70
     1
  0
STYLE
  2
STANDARD
 70
     0
 40
0.0
 41
0.8
 50
0.0
 71
     0
 42
0.2
  3
txt
  4

  0
ENDTAB
  0
TABLE
  2
VIEW
 70
     0
  0
ENDTAB
  0
TABLE
  2
UCS
 70
     0
  0
ENDTAB
  0
TABLE
  2
APPID
 70
     9
  0
APPID
  2
ACAD
 70
     0
  0
APPID
  2
ACAD_MLEADERVER
 70
     0
  0
APPID
  2
ACAD_EXEMPT_FROM_CAD_STANDARDS
 70
     0
  0
APPID
  2
ACAD_DSTYLE_DIMJAG
 70
     0
  0
APPID
  2
ACAD_DSTYLE_DIMTALN
 70
     0
  0
APPID
  2
ACAD_NAV_VCDISPLAY
 70
     0
  0
APPID
  2
ACAECLAYERSTANDARD
 70
     0
  0
APPID
  2
ACCMTRANSPARENCY
 70
     0
  0
APPID
  2
ACDBATTR
 70
     0
  0
ENDTAB
  0
TABLE
  2
DIMSTYLE
 70
     1
  0
DIMSTYLE
  2
STANDARD
 70
     0
  3

  4

  5

  6

  7

 40
1.0
 41
0.1875
 42
0.0625
 43
0.38
 44
0.125
 45
0.0
 46
0.0
 47
0.01
 48
0.01
140
0.15625
141
0.09
142
0.0
143
25.3999999999999986
144
1.0
145
0.0
146
1.0
147
0.09
 71
     1
 72
     0
 73
     1
 74
     1
 75
     0
 76
     0
 77
     0
 78
     4
170
     0
171
     2
172
     0
173
     0
174
     0
175
     0
176
     0
177
     0
178
     0
  0
ENDTAB
  0
ENDSEC
  0
SECTION
  2
BLOCKS
  0
BLOCK
  8
0
  2
$MODEL_SPACE
 70
     0
 10
0.0
 20
0.0
 30
0.0
  3
$MODEL_SPACE
  1

  0
ENDBLK
  5
21
  8
0
  0
BLOCK
 67
     1
  8
0
  2
$PAPER_SPACE
 70
     0
 10
0.0
 20
0.0
 30
0.0
  3
$PAPER_SPACE
  1

  0
ENDBLK
  5
1D
 67
     1
  8
0
  0
ENDSEC
  0
SECTION
  2
ENTITIES
  0
LINE
  5
11E2
  8
0
 10
100.8281096516960957
 20
7.9959166577565126
 30
0.0
 11
100.8681060459960008
 21
8.3935278717565112
 31
0.0
  0
LINE
  5
11E3
  8
0
 10
100.3691055383959991
 20
8.3935152348565119
 30
0.0
 11
100.4089769790959963
 21
7.9971462064565131
 31
0.0
  0
ARC
  5
11E4
  8
0
 10
100.9661793631249935
 20
8.3835639230212493
 30
0.0
 40
0.0985781710475383
 50
124.6147558334542964
 51
174.198829361820998
  0
ARC
  5
11E5
  8
0
 10
100.6186051565343007
 20
8.8877207438671562
 30
0.0
 40
1.047244094489356
 50
289.5640483180865203
 51
250.4360969825777943
  0
ARC
  5
11E6
  8
0
 10
100.6186051565961037
 20
8.8877207438565122
 30
0.0
 40
0.5137795276000001
 50
304.5769475444998875
 51
235.4230814564998013
  0
CIRCLE
  5
11E7
  8
0
 10
100.6186051565961037
 20
8.8877207438565122
 30
0.0
 40
0.5040719058000001
  0
CIRCLE
  5
11E8
  8
0
 10
100.6186051565961037
 20
8.8877207438565122
 30
0.0
 40
0.4640147244
  0
ARC
  5
11E9
  8
0
 10
100.2710250532962988
 20
8.3835604537116204
 30
0.0
 40
0.0985843761711217
 50
5.795448780362884
 51
55.3834179205649377
  0
CIRCLE
  5
11EA
  8
0
 10
100.6186051565961037
 20
8.8877207438565122
 30
0.0
 40
1.370078743150003
  0
CIRCLE
  5
11EB
  8
0
 10
100.6186051565961037
 20
8.8877207438565122
 30
0.0
 40
1.3364742759999999
  0
ARC
  5
11EC
  8
0
 10
100.6186058468718016
 20
8.3432851861253496
 30
0.0
 40
0.5644898749320822
 50
231.593897403043087
 51
308.4062478976206876
  0
ARC
  5
11ED
  8
0
 10
100.2922400000898051
 20
8.0167901114870652
 30
0.0
 40
0.1183782297230026
 50
258.1480662786128732
 51
350.4480459173577742
  0
ARC
  5
11EE
  8
0
 10
100.9453365595567931
 20
8.0177492836124564
 30
0.0
 40
0.1192426579641654
 50
190.5500338874394117
 51
281.5863114877096223
  0
LINE
  5
12AC
  8
0
 10
108.8281096517460043
 20
7.9959166577565126
 30
0.0
 11
108.8681060460460941
 21
8.3935278717565112
 31
0.0
  0
LINE
  5
12AD
  8
0
 10
108.3691055384459929
 20
8.3935152348565119
 30
0.0
 11
108.4089769791461038
 21
7.9971462064565131
 31
0.0
  0
ARC
  5
12AE
  8
0
 10
108.9661793631750015
 20
8.3835639230212493
 30
0.0
 40
0.0985781710475383
 50
124.6147558334542964
 51
174.198829361820998
  0
ARC
  5
12AF
  8
0
 10
108.6186051565842945
 20
8.8877207438671562
 30
0.0
 40
1.047244094489356
 50
289.5640483180865203
 51
250.4360969825777943
  0
ARC
  5
12B0
  8
0
 10
108.618605156645998
 20
8.8877207438565122
 30
0.0
 40
0.5137795276000001
 50
304.5769475444998875
 51
235.4230814564998013
  0
CIRCLE
  5
12B1
  8
0
 10
108.618605156645998
 20
8.8877207438565122
 30
0.0
 40
0.5040719058000001
  0
CIRCLE
  5
12B2
  8
0
 10
108.618605156645998
 20
8.8877207438565122
 30
0.0
 40
0.4640147244
  0
ARC
  5
12B3
  8
0
 10
108.2710250533463068
 20
8.3835604537116204
 30
0.0
 40
0.0985843761711217
 50
5.7954487803628858
 51
55.3834179205649519
  0
CIRCLE
  5
12B4
  8
0
 10
108.618605156645998
 20
8.8877207438565122
 30
0.0
 40
1.3700787431499959
  0
CIRCLE
  5
12B5
  8
0
 10
108.618605156645998
 20
8.8877207438565122
 30
0.0
 40
1.3364742759999999
  0
ARC
  5
12B6
  8
0
 10
108.6186058469217954
 20
8.3432851861253496
 30
0.0
 40
0.5644898749320822
 50
231.593897403043087
 51
308.4062478976206876
  0
ARC
  5
12B7
  8
0
 10
108.2922400001397989
 20
8.0167901114870652
 30
0.0
 40
0.1183782297230026
 50
258.1480662786128732
 51
350.4480459173577742
  0
ARC
  5
12B8
  8
0
 10
108.9453365596068011
 20
8.0177492836124564
 30
0.0
 40
0.1192426579641654
 50
190.5500338874394117
 51
281.5863114877096223
  0
ATTDEF
  5
1640
  8
DEFPOINTS
 10
104.6154663886358946
 20
8.8915796620174952
 30
0.0
 40
0.001
  1
K-77990BR-9
  3

  2
MODELNUMBER
 70
     0
1001
ACDBATTR
1070
     0
1070
     1
  0
ATTDEF
  5
1641
  8
DEFPOINTS
 10
104.6154663886358946
 20
8.88991299535083
 30
0.0
 40
0.001
  1
COMPONENTS
  3

  2
TRADENAME
 70
     0
1001
ACDBATTR
1070
     0
1070
     1
  0
ATTDEF
  5
1642
  8
DEFPOINTS
 10
104.6154663886358946
 20
8.8882463286841649
 30
0.0
 40
0.001
  1
BATH FAUCET HANDLES
  3

  2
PRODUCT
 70
     0
1001
ACDBATTR
1070
     0
1070
     1
  0
ENDSEC
  0
EOF
