  0
SECTION
  2
HEADER
  9
$ACADVER
  1
AC1009
  9
$INSBASE
 10
124.6111586000725993
 20
4.4494292405117584
 30
0.0
  9
$EXTMIN
 10
119.2410798568975991
 20
4.4445243613764518
 30
0.0
  9
$EXTMAX
 10
129.9812373432476136
 20
6.18169064604586
 30
0.0
  9
$LIMMIN
 10
0.0
 20
0.0
  9
$LIMMAX
 10
11.6929133858000007
 20
8.2677165353999982
  9
$ORTHOMODE
 70
     1
  9
$REGENMODE
 70
     1
  9
$FILLMODE
 70
     1
  9
$QTEXTMODE
 70
     0
  9
$MIRRTEXT
 70
     0
  9
$DRAGMODE
 70
     2
  9
$LTSCALE
 40
0.6431102362
  9
$OSMODE
 70
     7
  9
$ATTMODE
 70
     1
  9
$TEXTSIZE
 40
0.2
  9
$TRACEWID
 40
0.05
  9
$TEXTSTYLE
  7
STANDARD
  9
$CLAYER
  8
0
  9
$CELTYPE
  6
BYLAYER
  9
$CECOLOR
 62
   256
  9
$DIMSCALE
 40
1.0
  9
$DIMASZ
 40
0.1875
  9
$DIMEXO
 40
0.0625
  9
$DIMDLI
 40
0.4443307087
  9
$DIMRND
 40
0.0
  9
$DIMDLE
 40
0.0
  9
$DIMEXE
 40
0.125
  9
$DIMTP
 40
0.01
  9
$DIMTM
 40
0.01
  9
$DIMTXT
 40
1.0
  9
$DIMCEN
 40
0.1052362205
  9
$DIMTSZ
 40
0.0
  9
$DIMTOL
 70
     1
  9
$DIMLIM
 70
     0
  9
$DIMTIH
 70
     1
  9
$DIMTOH
 70
     1
  9
$DIMSE1
 70
     0
  9
$DIMSE2
 70
     0
  9
$DIMTAD
 70
     0
  9
$DIMZIN
 70
     0
  9
$DIMBLK
  1

  9
$DIMASO
 70
     1
  9
$DIMSHO
 70
     1
  9
$DIMPOST
  1
\X
  9
$DIMAPOST
  1

  9
$DIMALT
 70
     1
  9
$DIMALTD
 70
     2
  9
$DIMALTF
 40
25.3999999999999986
  9
$DIMLFAC
 40
1.0
  9
$DIMTOFL
 70
     0
  9
$DIMTVP
 40
0.0
  9
$DIMTIX
 70
     0
  9
$DIMSOXD
 70
     0
  9
$DIMSAH
 70
     0
  9
$DIMBLK1
  1

  9
$DIMBLK2
  1

  9
$DIMSTYLE
  2
STANDARD
  9
$DIMCLRD
 70
     0
  9
$DIMCLRE
 70
     0
  9
$DIMCLRT
 70
     0
  9
$DIMTFAC
 40
1.0
  9
$DIMGAP
 40
0.09
  9
$LUNITS
 70
     2
  9
$LUPREC
 70
     4
  9
$SKETCHINC
 40
0.1
  9
$FILLETRAD
 40
0.0
  9
$AUNITS
 70
     0
  9
$AUPREC
 70
     0
  9
$MENU
  1
.
  9
$ELEVATION
 40
0.0
  9
$PELEVATION
 40
0.0
  9
$THICKNESS
 40
0.0
  9
$LIMCHECK
 70
     0
  9
$BLIPMODE
 70
     0
  9
$CHAMFERA
 40
0.0
  9
$CHAMFERB
 40
0.0
  9
$SKPOLY
 70
     0
  9
$TDCREATE
 40
2458172.4620254631154239
  9
$TDUPDATE
 40
2459590.641157406847924
  9
$TDINDWG
 40
0.0659434375
  9
$TDUSRTIMER
 40
0.0659434375
  9
$USRTIMER
 70
     1
  9
$ANGBASE
 50
0.0
  9
$ANGDIR
 70
     0
  9
$PDMODE
 70
     0
  9
$PDSIZE
 40
0.3125
  9
$PLINEWID
 40
0.0
  9
$COORDS
 70
     1
  9
$SPLFRAME
 70
     0
  9
$SPLINETYPE
 70
     6
  9
$SPLINESEGS
 70
     8
  9
$ATTDIA
 70
     1
  9
$ATTREQ
 70
     1
  9
$HANDLING
 70
     1
  9
$HANDSEED
  5
1C0D
  9
$SURFTAB1
 70
     6
  9
$SURFTAB2
 70
     6
  9
$SURFTYPE
 70
     6
  9
$SURFU
 70
     6
  9
$SURFV
 70
     6
  9
$UCSNAME
  2

  9
$UCSORG
 10
0.0
 20
0.0
 30
0.0
  9
$UCSXDIR
 10
1.0
 20
0.0
 30
0.0
  9
$UCSYDIR
 10
0.0
 20
1.0
 30
0.0
  9
$PUCSNAME
  2

  9
$PUCSORG
 10
0.0
 20
0.0
 30
0.0
  9
$PUCSXDIR
 10
1.0
 20
0.0
 30
0.0
  9
$PUCSYDIR
 10
0.0
 20
1.0
 30
0.0
  9
$USERI1
 70
     0
  9
$USERI2
 70
     0
  9
$USERI3
 70
     0
  9
$USERI4
 70
     0
  9
$USERI5
 70
     0
  9
$USERR1
 40
0.0
  9
$USERR2
 40
0.0
  9
$USERR3
 40
0.0
  9
$USERR4
 40
0.0
  9
$USERR5
 40
0.0
  9
$WORLDVIEW
 70
     1
  9
$SHADEDGE
 70
     3
  9
$SHADEDIF
 70
    70
  9
$TILEMODE
 70
     1
  9
$MAXACTVP
 70
    64
  9
$PLIMCHECK
 70
     0
  9
$PEXTMIN
 10
1.0000000000000000E+20
 20
1.0000000000000000E+20
 30
1.0000000000000000E+20
  9
$PEXTMAX
 10
-1.0000000000000000E+20
 20
-1.0000000000000000E+20
 30
-1.0000000000000000E+20
  9
$PLIMMIN
 10
0.0
 20
0.0
  9
$PLIMMAX
 10
12.0
 20
9.0
  9
$UNITMODE
 70
     0
  9
$VISRETAIN
 70
     1
  9
$PLINEGEN
 70
     0
  9
$PSLTSCALE
 70
     1
  0
ENDSEC
  0
SECTION
  2
TABLES
  0
TABLE
  2
VPORT
 70
     1
  0
VPORT
  2
*ACTIVE
 70
     0
 10
0.0
 20
0.0
 11
1.0
 21
1.0
 12
-0.0008496983431172
 22
0.0008211832928406
 13
0.0
 23
0.0
 14
1.0
 24
1.0
 15
0.0
 25
0.0
 16
0.0
 26
0.0
 36
30.6214257250603907
 17
124.6111586000725993
 27
5.3122741703778242
 37
0.0
 40
4.7248432660101276
 41
2.2831541218637992
 42
50.0
 43
0.0
 44
0.0
 50
0.0
 51
0.0
 71
     0
 72
   100
 73
     1
 74
     1
 75
     0
 76
     0
 77
     0
 78
     0
  0
ENDTAB
  0
TABLE
  2
LTYPE
 70
     2
  0
LTYPE
  2
CONTINUOUS
 70
     0
  3
Solid line
 72
    65
 73
     0
 40
0.0
  0
LTYPE
  2
PHANTOM2
 70
     0
  3
___ _ _ ___ _ _ ___ _ _ ___ _ _
 72
    65
 73
     6
 40
1.25
 49
0.625
 49
-0.125
 49
0.125
 49
-0.125
 49
0.125
 49
-0.125
  0
ENDTAB
  0
TABLE
  2
LAYER
 70
     2
  0
LAYER
  2
0
 70
     0
 62
   255
  6
CONTINUOUS
  0
LAYER
  2
DEFPOINTS
 70
     0
 62
     7
  6
CONTINUOUS
  0
ENDTAB
  0
TABLE
  2
STYLE
 70
     1
  0
STYLE
  2
STANDARD
 70
     0
 40
0.0
 41
0.8
 50
0.0
 71
     0
 42
0.2
  3
txt
  4

  0
ENDTAB
  0
TABLE
  2
VIEW
 70
     0
  0
ENDTAB
  0
TABLE
  2
UCS
 70
     0
  0
ENDTAB
  0
TABLE
  2
APPID
 70
     9
  0
APPID
  2
ACAD
 70
     0
  0
APPID
  2
ACAD_MLEADERVER
 70
     0
  0
APPID
  2
ACAD_EXEMPT_FROM_CAD_STANDARDS
 70
     0
  0
APPID
  2
ACAD_DSTYLE_DIMJAG
 70
     0
  0
APPID
  2
ACAD_DSTYLE_DIMTALN
 70
     0
  0
APPID
  2
ACAD_NAV_VCDISPLAY
 70
     0
  0
APPID
  2
ACAECLAYERSTANDARD
 70
     0
  0
APPID
  2
ACCMTRANSPARENCY
 70
     0
  0
APPID
  2
ACDBATTR
 70
     0
  0
ENDTAB
  0
TABLE
  2
DIMSTYLE
 70
     1
  0
DIMSTYLE
  2
STANDARD
 70
     0
  3

  4

  5

  6

  7

 40
1.0
 41
0.1875
 42
0.0625
 43
0.38
 44
0.125
 45
0.0
 46
0.0
 47
0.01
 48
0.01
140
0.15625
141
0.09
142
0.0
143
25.3999999999999986
144
1.0
145
0.0
146
1.0
147
0.09
 71
     1
 72
     0
 73
     1
 74
     1
 75
     0
 76
     0
 77
     0
 78
     4
170
     0
171
     2
172
     0
173
     0
174
     0
175
     0
176
     0
177
     0
178
     0
  0
ENDTAB
  0
ENDSEC
  0
SECTION
  2
BLOCKS
  0
BLOCK
  8
0
  2
$MODEL_SPACE
 70
     0
 10
0.0
 20
0.0
 30
0.0
  3
$MODEL_SPACE
  1

  0
ENDBLK
  5
21
  8
0
  0
BLOCK
 67
     1
  8
0
  2
$PAPER_SPACE
 70
     0
 10
0.0
 20
0.0
 30
0.0
  3
$PAPER_SPACE
  1

  0
ENDBLK
  5
1D
 67
     1
  8
0
  0
ENDSEC
  0
SECTION
  2
ENTITIES
  0
ATTDEF
  5
157D
  8
DEFPOINTS
 10
124.6056633686508945
 20
4.4478576947097821
 30
0.0
 40
0.001
  1
K-77990BR-9
  3

  2
MODELNUMBER
 70
     0
1001
ACDBATTR
1070
     0
1070
     1
  0
ATTDEF
  5
157E
  8
DEFPOINTS
 10
124.6056633686508945
 20
4.4461910280431169
 30
0.0
 40
0.001
  1
COMPONENTS
  3

  2
TRADENAME
 70
     0
1001
ACDBATTR
1070
     0
1070
     1
  0
ATTDEF
  5
157F
  8
DEFPOINTS
 10
124.6056633686508945
 20
4.4445243613764518
 30
0.0
 40
0.001
  1
BATH FAUCET HANDLES
  3

  2
PRODUCT
 70
     0
1001
ACDBATTR
1070
     0
1070
     1
  0
LINE
  5
17D7
  8
0
 10
120.1015903670147935
 20
5.6305097082117577
 30
0.0
 11
120.0973805054476031
 21
5.3893269007117581
 31
0.0
  0
LINE
  5
17D8
  8
0
 10
119.3415241794975969
 20
5.6740432880117577
 30
0.0
 11
119.3491655882975948
 21
6.1464279265117581
 31
0.0
  0
LINE
  5
17D9
  8
0
 10
119.2748866327976032
 20
5.6740432880117577
 30
0.0
 11
119.2829291055976029
 21
6.1464279265117581
 31
0.0
  0
LINE
  5
17DA
  8
0
 10
119.2410798568975991
 20
5.6698794616117567
 30
0.0
 11
119.2494728507976021
 21
6.1507137634117584
 31
0.0
  0
LINE
  5
17DB
  8
0
 10
119.4300562377976007
 20
4.591216278711757
 30
0.0
 11
119.4300562377976007
 21
4.4592717602117578
 31
0.0
  0
LINE
  5
17DC
  8
0
 10
119.5661765463975996
 20
5.6740438442575627
 30
0.0
 11
119.5724658041976056
 21
6.1464279265117581
 31
0.0
  0
LINE
  5
17DD
  8
0
 10
119.4394243393976041
 20
5.6740432880117577
 30
0.0
 11
119.4464765272976052
 21
6.1464279265117581
 31
0.0
  0
LINE
  5
17DE
  8
0
 10
119.7186595592976062
 20
5.6740432880117577
 30
0.0
 11
119.7240311449975962
 21
6.1464279265117581
 31
0.0
  0
LINE
  5
17DF
  8
0
 10
119.2494728507976021
 20
6.1507137634117584
 30
0.0
 11
119.2746843240976062
 21
6.1759250433117581
 31
0.0
  0
LINE
  5
17E0
  8
0
 10
119.8931189215976048
 20
5.6740432880117577
 30
0.0
 11
119.8974405653425066
 21
6.1464272877073247
 31
0.0
  0
LINE
  5
17E1
  8
0
 10
120.1072629594976036
 20
4.8230793900117579
 30
0.0
 11
120.0973805054476031
 21
5.3893269007117581
 31
0.0
  0
LINE
  5
17E2
  8
0
 10
120.2903480842976052
 20
5.6740432880117577
 30
0.0
 11
120.2922789112976005
 21
6.1464279265117581
 31
0.0
  0
LINE
  5
17E3
  8
0
 10
120.0852588037976005
 20
5.6740432880117577
 30
0.0
 11
120.0884239789975965
 21
6.1464279265117581
 31
0.0
  0
LINE
  5
17E4
  8
0
 10
120.5033367844976055
 20
5.674043300211757
 30
0.0
 11
120.5039857197975977
 21
6.1464279753117568
 31
0.0
  0
LINE
  5
17E5
  8
0
 10
119.2750174445975944
 20
5.6359420495117583
 30
0.0
 11
119.2410798568975991
 21
5.6698794616117567
 31
0.0
  0
LINE
  5
17E6
  8
0
 10
120.7189804155975992
 20
5.6740432880117577
 30
0.0
 11
120.7183314802976071
 21
6.1464279265117581
 31
0.0
  0
LINE
  5
17E7
  8
0
 10
120.9319691156975978
 20
5.6740432880117577
 30
0.0
 11
120.9300382887976042
 21
6.1464279265117581
 31
0.0
  0
LINE
  5
17E8
  8
0
 10
121.124938127597602
 20
5.3893269007117581
 30
0.0
 11
121.1207282660035958
 21
5.6305097082117568
 31
0.0
  0
LINE
  5
17E9
  8
0
 10
121.1370583962976042
 20
5.6740432880117577
 30
0.0
 11
121.1338932210975941
 21
6.1464279265117581
 31
0.0
  0
LINE
  5
17EA
  8
0
 10
121.1150542404975994
 20
4.8230793900117579
 30
0.0
 11
121.124938127597602
 21
5.3893269007117581
 31
0.0
  0
LINE
  5
17EB
  8
0
 10
121.3291982784976
 20
5.6740432880117577
 30
0.0
 11
121.3248766921976056
 21
6.1464279265117581
 31
0.0
  0
LINE
  5
17EC
  8
0
 10
121.6561407145975977
 20
5.6740432880117577
 30
0.0
 11
121.6498515003655996
 21
6.1464271622048132
 31
0.0
  0
LINE
  5
17ED
  8
0
 10
121.5036576406975968
 20
5.6740432880117577
 30
0.0
 11
121.4982860550975943
 21
6.1464279265117581
 31
0.0
  0
LINE
  5
17EE
  8
0
 10
121.880793020497606
 20
5.6740432880117577
 30
0.0
 11
121.8731516117975957
 21
6.1464279265117581
 31
0.0
  0
LINE
  5
17EF
  8
0
 10
121.7828928606976007
 20
5.6740432880117577
 30
0.0
 11
121.7758406727975995
 21
6.1464279265117581
 31
0.0
  0
LINE
  5
17F0
  8
0
 10
121.7922609621976022
 20
4.591216278711757
 30
0.0
 11
121.7922609621976022
 21
4.4592717602117578
 31
0.0
  0
LINE
  5
17F1
  8
0
 10
121.9476330287975969
 20
5.6362753228117581
 30
0.0
 11
121.9812373431976056
 21
5.6698794616117567
 31
0.0
  0
LINE
  5
17F2
  8
0
 10
119.4398987574976019
 20
4.4494292405117584
 30
0.0
 11
121.7824184425976028
 21
4.4494292405117584
 31
0.0
  0
LINE
  5
17F3
  8
0
 10
121.0943994028975936
 20
4.7643898704117591
 30
0.0
 11
121.1119455317976019
 21
4.7624102253117568
 31
0.0
  0
LINE
  5
17F4
  8
0
 10
121.1119455317976019
 20
4.7624102253117568
 30
0.0
 11
121.7769622378976067
 21
4.6104064067117569
 31
0.0
  0
LINE
  5
17F5
  8
0
 10
121.9812373431976056
 20
5.6698794616117567
 30
0.0
 11
121.9728443491976009
 21
6.1507137634117584
 31
0.0
  0
LINE
  5
17F6
  8
0
 10
121.9474305672976016
 20
5.6740432880117577
 30
0.0
 11
121.9393880943976001
 21
6.1464279265117581
 31
0.0
  0
LINE
  5
17F7
  8
0
 10
120.1279177970975951
 20
4.7643898704117591
 30
0.0
 11
121.0943994028975936
 21
4.7643898704117591
 31
0.0
  0
LINE
  5
17F8
  8
0
 10
120.1269450007976047
 20
4.8037379019117576
 30
0.0
 11
121.0953721992976
 21
4.8037379019117576
 31
0.0
  0
LINE
  5
17F9
  8
0
 10
120.1279177970975951
 20
4.7643898704117591
 30
0.0
 11
120.110371668197601
 21
4.7624102253117568
 31
0.0
  0
LINE
  5
17FA
  8
0
 10
120.110371668197601
 20
4.7624102253117568
 30
0.0
 11
119.4453549621975981
 21
4.6104064067117569
 31
0.0
  0
LINE
  5
17FB
  8
0
 10
121.9728443491976009
 20
6.1507137634117584
 30
0.0
 11
121.9476328759975985
 21
6.1759250433117581
 31
0.0
  0
LINE
  5
17FC
  8
0
 10
119.2852434224009954
 20
5.6305097082117577
 30
0.0
 11
121.9336920930946064
 21
5.6305097082117568
 31
0.0
  0
LINE
  5
17FD
  8
0
 10
119.2886252714975939
 20
6.1816906460117584
 30
0.0
 11
121.9336919285543956
 21
6.1816906460458592
 31
0.0
  0
ARC
  5
17FE
  8
0
 10
120.3981326164777954
 20
4.8409163207946708
 30
0.0
 40
1.3097959992160519
 50
85.3645013867868983
 51
94.6355250274225739
  0
ARC
  5
17FF
  8
0
 10
120.1903514451475985
 20
4.9361103924558538
 30
0.0
 40
1.214601886051113
 50
85.1861675586443852
 51
94.8138324413548048
  0
ARC
  5
1800
  8
0
 10
119.9929358243005026
 20
5.0844468920495309
 30
0.0
 40
1.0662653071562109
 50
84.8620595322413607
 51
95.1383237554712338
  0
ARC
  5
1801
  8
0
 10
119.810732631182205
 20
5.271246048487118
 30
0.0
 40
0.8794660126061477
 50
84.3419274646351909
 51
95.6576504037657287
  0
ARC
  5
1802
  8
0
 10
119.6482484745975938
 20
5.478266449496167
 30
0.0
 40
0.6724453676698288
 50
83.5291825848278364
 51
96.4708174151713536
  0
ARC
  5
1803
  8
0
 10
119.5094711657475983
 20
5.68535153751235
 30
0.0
 40
0.4653598188135488
 50
82.2201234718434222
 51
97.7798765281573736
  0
ARC
  5
1804
  8
0
 10
120.1879302535975995
 20
4.8037599491117611
 30
0.0
 40
0.0393700787000031
 50
270.0
 51
359.9679144259297914
  0
ARC
  5
1805
  8
0
 10
119.449741277197603
 20
4.591216278711757
 30
0.0
 40
0.0196850394
 50
102.875001559599994
 51
180.0
  0
ARC
  5
1806
  8
0
 10
120.1269450007976047
 20
4.8234229413117582
 30
0.0
 40
0.0196850394
 50
181.0
 51
270.0
  0
ARC
  5
1807
  8
0
 10
119.4398987574976019
 20
4.4592717602117578
 30
0.0
 40
0.0098425197
 50
180.0
 51
270.0
  0
ARC
  5
1808
  8
0
 10
120.3968423563437966
 20
7.0342398256390331
 30
0.0
 40
1.3643590623262909
 50
265.5232568306046801
 51
274.4767497459342849
  0
ARC
  5
1809
  8
0
 10
120.1878034440476029
 20
6.9350774306908427
 30
0.0
 40
1.2651966298747299
 50
265.3510570898915262
 51
274.6489429101084738
  0
ARC
  5
180A
  8
0
 10
119.9891888626976026
 20
6.7806252599668424
 30
0.0
 40
1.1107443874442759
 50
265.0382029380614881
 51
274.9617970619377161
  0
ARC
  5
180B
  8
0
 10
119.8058892404475984
 20
6.5860042425460978
 30
0.0
 40
0.916123244912341
 50
264.5362422724031148
 51
275.4637577275968283
  0
ARC
  5
180C
  8
0
 10
119.6424205924358972
 20
6.3702179309324194
 30
0.0
 40
0.7003367143837719
 50
263.7499525453451952
 51
276.2496294338349117
  0
ARC
  5
180D
  8
0
 10
119.5027983344615023
 20
6.1544947048181342
 30
0.0
 40
0.4846130695323946
 50
262.4857736536870902
 51
277.5147292257140066
  0
ARC
  5
180E
  8
0
 10
119.2892548573370988
 20
6.1604312698306893
 30
0.0
 40
0.0212686966063514
 50
91.6962900837927464
 51
133.2410655473927079
  0
ARC
  5
180F
  8
0
 10
120.6111582953543007
 20
4.8081139121158269
 30
0.0
 40
1.342598410806243
 50
85.4214817730402842
 51
94.5784921379530061
  0
ARC
  5
1810
  8
0
 10
120.8241848845476056
 20
4.8409236946544549
 30
0.0
 40
1.3097886251562261
 50
85.3644620248361861
 51
94.6355379751638139
  0
ARC
  5
1811
  8
0
 10
121.0319657549476062
 20
4.936110364106689
 30
0.0
 40
1.2146019143002791
 50
85.1861676708695654
 51
94.8138323291304346
  0
ARC
  5
1812
  8
0
 10
121.2293849566476069
 20
5.0843670788020541
 30
0.0
 40
1.0663451203978029
 50
84.8622519492611787
 51
95.1377480507396172
  0
ARC
  5
1813
  8
0
 10
121.4115813736476071
 20
5.2711813809553476
 30
0.0
 40
0.8795306801321792
 50
84.3425577624865355
 51
95.6574422375134787
  0
ARC
  5
1814
  8
0
 10
121.5740654086566934
 20
5.4783251091634071
 30
0.0
 40
0.672386707910441
 50
83.5283222428052028
 51
96.4710999003858376
  0
ARC
  5
1815
  8
0
 10
121.7128488834216995
 20
5.6853934376563293
 30
0.0
 40
0.4653179186781519
 50
82.2197726583556232
 51
97.7809225055434581
  0
ARC
  5
1816
  8
0
 10
121.034386950866903
 20
4.8037599596601739
 30
0.0
 40
0.0393700892484188
 50
180.0321009167132047
 51
269.9999936412958732
  0
ARC
  5
1817
  8
0
 10
121.7725759228976017
 20
4.591216278711757
 30
0.0
 40
0.0196850394
 50
0.0
 51
77.1249984403999918
  0
ARC
  5
1818
  8
0
 10
121.0953721992976
 20
4.8234229413117582
 30
0.0
 40
0.0196850394
 50
270.0
 51
359.0
  0
ARC
  5
1819
  8
0
 10
121.9337135604022961
 20
5.6501948128953909
 30
0.0
 40
0.0196851163890627
 50
269.9375169367547187
 51
314.9999553629858724
  0
ARC
  5
181A
  8
0
 10
121.7824184425976028
 20
4.4592717602117578
 30
0.0
 40
0.0098425197
 50
270.0
 51
0.0
  0
ARC
  5
181B
  8
0
 10
120.6111586790946006
 20
7.0683827699338364
 30
0.0
 40
1.3985020978565801
 50
265.5782146180901009
 51
274.4217788863380179
  0
ARC
  5
181C
  8
0
 10
120.8254747656475985
 20
7.0342417557408821
 30
0.0
 40
1.364360992628135
 50
265.5232598914737991
 51
274.4767401085263145
  0
ARC
  5
181D
  8
0
 10
121.0345137559975939
 20
6.935077401528277
 30
0.0
 40
1.2651966008121609
 50
265.3510569805948194
 51
274.6489430194051806
  0
ARC
  5
181E
  8
0
 10
121.2331283373976021
 20
6.7806252599681347
 30
0.0
 40
1.1107443874455629
 50
265.0382029380671725
 51
274.9617970619328275
  0
ARC
  5
181F
  8
0
 10
121.4164279595975984
 20
6.586004241499805
 30
0.0
 40
0.9161232438660393
 50
264.5362422692850828
 51
275.4637577307148035
  0
ARC
  5
1820
  8
0
 10
121.5798991776476043
 20
6.3702650102408711
 30
0.0
 40
0.7003837936875545
 50
263.7505808295409224
 51
276.2494191704590776
  0
ARC
  5
1821
  8
0
 10
121.7195167876476063
 20
6.1545263495554314
 30
0.0
 40
0.484644714265636
 50
262.4860193331666096
 51
277.5139806668333904
  0
ARC
  5
1822
  8
0
 10
121.9336177055099029
 20
6.161774109989504
 30
0.0
 40
0.0199166743595522
 50
45.2761678193104231
 51
89.7864765494638561
  0
ARC
  5
1823
  8
0
 10
119.2886976162162966
 20
5.649352962096005
 30
0.0
 40
0.0191572354962738
 50
224.4305544145045985
 51
259.6123269308665158
  0
ARC
  5
1824
  8
0
 10
119.2661637828966974
 20
6.115776374937294
 30
0.0
 40
0.034936995566149
 50
61.3228888100829721
 51
118.6779018860347037
  0
ARC
  5
1825
  8
0
 10
119.3160473469475988
 20
6.0206001374202351
 30
0.0
 40
0.1301132215333154
 50
75.2540245819056537
 51
104.7459754180943037
  0
ARC
  5
1826
  8
0
 10
119.3978210577976
 20
5.8723614130511761
 30
0.0
 40
0.2783519507973759
 50
79.9330748319356559
 51
100.0669251680643015
  0
ARC
  5
1827
  8
0
 10
119.2580195133767944
 20
5.7061278293057187
 30
0.0
 40
0.0362480000496766
 50
242.2689616064774043
 51
297.7312910856446138
  0
ARC
  5
1828
  8
0
 10
119.308205406147593
 20
5.8052811070786863
 30
0.0
 40
0.1354012769917341
 50
255.7546700820238925
 51
284.2453299179726969
  0
ARC
  5
1829
  8
0
 10
119.3904742594476005
 20
5.9597156854856648
 30
0.0
 40
0.2898358656301896
 50
260.2767724584311964
 51
279.7232275415680078
  0
ARC
  5
182A
  8
0
 10
121.8318429405975962
 20
5.959715521300863
 30
0.0
 40
0.2898357037954453
 50
260.2767669866038887
 51
279.7232330133970208
  0
ARC
  5
182B
  8
0
 10
121.9141117938976038
 20
5.8052811074809973
 30
0.0
 40
0.1354012773939779
 50
255.7546701034090972
 51
284.2453298965883732
  0
ARC
  5
182C
  8
0
 10
121.9642974058161968
 20
5.7061270762909402
 30
0.0
 40
0.0362472028156074
 50
242.2685480639777893
 51
297.7321933960237743
  0
ARC
  5
182D
  8
0
 10
121.8244961422976047
 20
5.8723612114267736
 30
0.0
 40
0.2783521493176211
 50
79.9330820864535809
 51
100.0669179135472007
  0
ARC
  5
182E
  8
0
 10
121.9062698530975979
 20
6.0206003006830979
 30
0.0
 40
0.1301130636349865
 50
75.2540063038770342
 51
104.7459936961238043
  0
ARC
  5
182F
  8
0
 10
121.9561537025308979
 20
6.1157753121975897
 30
0.0
 40
0.0349380649202163
 50
61.3236011445183919
 51
118.6766855318500973
  0
ARC
  5
1830
  8
0
 10
122.3910747459970025
 20
5.2425488022197246
 30
0.0
 40
2.0346723241670008
 50
169.0078278287610942
 51
175.8711469656606141
  0
ARC
  5
1831
  8
0
 10
120.6909466398177955
 20
5.3514660120312918
 30
0.0
 40
0.331401010296118
 50
173.4890404149406891
 51
235.6660328434574012
  0
ARC
  5
1832
  8
0
 10
120.6106593615294997
 20
5.2711194924998503
 30
0.0
 40
0.2207697516646112
 50
241.1195752693726888
 51
270.1294396436666148
  0
ARC
  5
1833
  8
0
 10
118.8312418587772044
 20
5.2425487917670504
 30
0.0
 40
2.0346724267683078
 50
4.1288531208850037
 51
10.9921719098859008
  0
ARC
  5
1834
  8
0
 10
120.5313700670700996
 20
5.35146601203129
 30
0.0
 40
0.3314010102961063
 50
304.3339671565416893
 51
6.510959585059882
  0
ARC
  5
1835
  8
0
 10
120.6116573390140019
 20
5.2711195085013571
 30
0.0
 40
0.2207697687402808
 50
269.8704370223762794
 51
298.8804241666628059
  0
LINE
  5
1836
  8
0
 10
119.4300562377976007
 20
4.591216278711757
 30
0.0
 11
121.7922609621976022
 21
4.591216278711757
 31
0.0
  0
LINE
  5
1837
  8
0
 10
128.1015903670646878
 20
5.6305097082117577
 30
0.0
 11
128.0973805054975969
 21
5.3893269007117581
 31
0.0
  0
LINE
  5
1838
  8
0
 10
127.3415241795476049
 20
5.6740432880117577
 30
0.0
 11
127.3491655883476028
 21
6.1464279265117581
 31
0.0
  0
LINE
  5
1839
  8
0
 10
127.274886632847597
 20
5.6740432880117577
 30
0.0
 11
127.2829291056475967
 21
6.1464279265117581
 31
0.0
  0
LINE
  5
183A
  8
0
 10
127.2410798569475929
 20
5.6698794616117567
 30
0.0
 11
127.2494728508475959
 21
6.1507137634117584
 31
0.0
  0
LINE
  5
183B
  8
0
 10
127.4300562378475945
 20
4.591216278711757
 30
0.0
 11
127.4300562378475945
 21
4.4592717602117578
 31
0.0
  0
LINE
  5
183C
  8
0
 10
127.5661765464475934
 20
5.6740438442575627
 30
0.0
 11
127.5724658042475994
 21
6.1464279265117581
 31
0.0
  0
LINE
  5
183D
  8
0
 10
127.4394243394475978
 20
5.6740432880117577
 30
0.0
 11
127.446476527347599
 21
6.1464279265117581
 31
0.0
  0
LINE
  5
183E
  8
0
 10
127.7186595593476
 20
5.6740432880117577
 30
0.0
 11
127.7240311450476042
 21
6.1464279265117581
 31
0.0
  0
LINE
  5
183F
  8
0
 10
127.2494728508475959
 20
6.1507137634117584
 30
0.0
 11
127.2746843241476
 21
6.1759250433117581
 31
0.0
  0
LINE
  5
1840
  8
0
 10
127.8931189216475985
 20
5.6740432880117577
 30
0.0
 11
127.8974405653925004
 21
6.1464272877073247
 31
0.0
  0
LINE
  5
1841
  8
0
 10
128.1072629595475973
 20
4.8230793900117579
 30
0.0
 11
128.0973805054975969
 21
5.3893269007117581
 31
0.0
  0
LINE
  5
1842
  8
0
 10
128.2903480843476132
 20
5.6740432880117577
 30
0.0
 11
128.2922789113476085
 21
6.1464279265117581
 31
0.0
  0
LINE
  5
1843
  8
0
 10
128.0852588038476085
 20
5.6740432880117577
 30
0.0
 11
128.0884239790476045
 21
6.1464279265117581
 31
0.0
  0
LINE
  5
1844
  8
0
 10
128.5033367845475993
 20
5.674043300211757
 30
0.0
 11
128.5039857198476057
 21
6.1464279753117568
 31
0.0
  0
LINE
  5
1845
  8
0
 10
127.2750174446476024
 20
5.6359420495117583
 30
0.0
 11
127.2410798569475929
 21
5.6698794616117567
 31
0.0
  0
LINE
  5
1846
  8
0
 10
128.718980415647593
 20
5.6740432880117577
 30
0.0
 11
128.7183314803477003
 21
6.1464279265117581
 31
0.0
  0
LINE
  5
1847
  8
0
 10
128.9319691157475916
 20
5.6740432880117577
 30
0.0
 11
128.9300382888476122
 21
6.1464279265117581
 31
0.0
  0
LINE
  5
1848
  8
0
 10
129.1249381276475958
 20
5.3893269007117581
 30
0.0
 11
129.1207282660535896
 21
5.6305097082117568
 31
0.0
  0
LINE
  5
1849
  8
0
 10
129.1370583963476122
 20
5.6740432880117577
 30
0.0
 11
129.1338932211475878
 21
6.1464279265117581
 31
0.0
  0
LINE
  5
184A
  8
0
 10
129.1150542405476074
 20
4.8230793900117579
 30
0.0
 11
129.1249381276475958
 21
5.3893269007117581
 31
0.0
  0
LINE
  5
184B
  8
0
 10
129.329198278547608
 20
5.6740432880117577
 30
0.0
 11
129.3248766922476136
 21
6.1464279265117581
 31
0.0
  0
LINE
  5
184C
  8
0
 10
129.6561407146475915
 20
5.6740432880117577
 30
0.0
 11
129.6498515004155934
 21
6.1464271622048132
 31
0.0
  0
LINE
  5
184D
  8
0
 10
129.5036576407476048
 20
5.6740432880117577
 30
0.0
 11
129.4982860551475881
 21
6.1464279265117581
 31
0.0
  0
LINE
  5
184E
  8
0
 10
129.8807930205475998
 20
5.6740432880117577
 30
0.0
 11
129.8731516118475895
 21
6.1464279265117581
 31
0.0
  0
LINE
  5
184F
  8
0
 10
129.7828928607476087
 20
5.6740432880117577
 30
0.0
 11
129.7758406728476075
 21
6.1464279265117581
 31
0.0
  0
LINE
  5
1850
  8
0
 10
129.7922609622476102
 20
4.591216278711757
 30
0.0
 11
129.7922609622476102
 21
4.4592717602117578
 31
0.0
  0
LINE
  5
1851
  8
0
 10
129.9476330288476049
 20
5.6362753228117581
 30
0.0
 11
129.9812373432476136
 21
5.6698794616117567
 31
0.0
  0
LINE
  5
1852
  8
0
 10
127.4398987575475957
 20
4.4494292405117584
 30
0.0
 11
129.7824184426476108
 21
4.4494292405117584
 31
0.0
  0
LINE
  5
1853
  8
0
 10
129.0943994029476016
 20
4.7643898704117591
 30
0.0
 11
129.1119455318475957
 21
4.7624102253117568
 31
0.0
  0
LINE
  5
1854
  8
0
 10
129.1119455318475957
 20
4.7624102253117568
 30
0.0
 11
129.7769622379476004
 21
4.6104064067117569
 31
0.0
  0
LINE
  5
1855
  8
0
 10
129.9812373432476136
 20
5.6698794616117567
 30
0.0
 11
129.9728443492475947
 21
6.1507137634117584
 31
0.0
  0
LINE
  5
1856
  8
0
 10
129.9474305673475953
 20
5.6740432880117577
 30
0.0
 11
129.9393880944475939
 21
6.1464279265117581
 31
0.0
  0
LINE
  5
1857
  8
0
 10
128.1279177971476031
 20
4.7643898704117591
 30
0.0
 11
129.0943994029476016
 21
4.7643898704117591
 31
0.0
  0
LINE
  5
1858
  8
0
 10
128.1269450008475985
 20
4.8037379019117576
 30
0.0
 11
129.0953721993475938
 21
4.8037379019117576
 31
0.0
  0
LINE
  5
1859
  8
0
 10
128.1279177971476031
 20
4.7643898704117591
 30
0.0
 11
128.110371668247609
 21
4.7624102253117568
 31
0.0
  0
LINE
  5
185A
  8
0
 10
128.110371668247609
 20
4.7624102253117568
 30
0.0
 11
127.4453549622476061
 21
4.6104064067117569
 31
0.0
  0
LINE
  5
185B
  8
0
 10
129.9728443492475947
 20
6.1507137634117584
 30
0.0
 11
129.9476328760476065
 21
6.1759250433117581
 31
0.0
  0
LINE
  5
185C
  8
0
 10
127.2852434224510034
 20
5.6305097082117577
 30
0.0
 11
129.9336920931446002
 21
5.6305097082117568
 31
0.0
  0
LINE
  5
185D
  8
0
 10
127.2886252715909023
 20
6.18169064604586
 30
0.0
 11
129.9336919286043894
 21
6.1816906460458592
 31
0.0
  0
ARC
  5
185E
  8
0
 10
128.3981326165277892
 20
4.8409163207946708
 30
0.0
 40
1.3097959992160519
 50
85.3645013867868983
 51
94.6355250274225739
  0
ARC
  5
185F
  8
0
 10
128.1903514451975923
 20
4.9361103924558538
 30
0.0
 40
1.214601886051113
 50
85.1861675586443852
 51
94.8138324413548048
  0
ARC
  5
1860
  8
0
 10
127.9929358243504964
 20
5.0844468920495309
 30
0.0
 40
1.0662653071562109
 50
84.8620595322413607
 51
95.1383237554712338
  0
ARC
  5
1861
  8
0
 10
127.8107326312321987
 20
5.271246048487118
 30
0.0
 40
0.8794660126061477
 50
84.3419274646351909
 51
95.6576504037657287
  0
ARC
  5
1862
  8
0
 10
127.6482484746476018
 20
5.478266449496167
 30
0.0
 40
0.6724453676698288
 50
83.5291825848278364
 51
96.4708174151713536
  0
ARC
  5
1863
  8
0
 10
127.5094711657976063
 20
5.68535153751235
 30
0.0
 40
0.4653598188135488
 50
82.2201234718434222
 51
97.7798765281573736
  0
ARC
  5
1864
  8
0
 10
128.1879302536476075
 20
4.8037599491117611
 30
0.0
 40
0.0393700787000031
 50
270.0
 51
359.9679144259297914
  0
ARC
  5
1865
  8
0
 10
127.4497412772475968
 20
4.591216278711757
 30
0.0
 40
0.0196850394
 50
102.875001559599994
 51
180.0
  0
ARC
  5
1866
  8
0
 10
128.1269450008475985
 20
4.8234229413117582
 30
0.0
 40
0.0196850394
 50
181.0
 51
270.0
  0
ARC
  5
1867
  8
0
 10
127.4398987575475957
 20
4.4592717602117578
 30
0.0
 40
0.0098425197
 50
180.0
 51
270.0
  0
ARC
  5
1868
  8
0
 10
128.3968423563937904
 20
7.0342398256390331
 30
0.0
 40
1.3643590623262909
 50
265.5232568306046801
 51
274.4767497459342849
  0
ARC
  5
1869
  8
0
 10
128.1878034440975966
 20
6.9350774306908427
 30
0.0
 40
1.2651966298747299
 50
265.3510570898915262
 51
274.6489429101084738
  0
ARC
  5
186A
  8
0
 10
127.9891888627475964
 20
6.7806252599668424
 30
0.0
 40
1.1107443874442759
 50
265.0382029380614881
 51
274.9617970619377161
  0
ARC
  5
186B
  8
0
 10
127.8058892404976064
 20
6.5860042425460978
 30
0.0
 40
0.916123244912341
 50
264.5362422724031148
 51
275.4637577275968283
  0
ARC
  5
186C
  8
0
 10
127.6424205924859052
 20
6.3702179309324194
 30
0.0
 40
0.7003367143837719
 50
263.7499525453451952
 51
276.2496294338349117
  0
ARC
  5
186D
  8
0
 10
127.5027983345114961
 20
6.1544947048181342
 30
0.0
 40
0.4846130695323946
 50
262.4857736536870902
 51
277.5147292257140066
  0
ARC
  5
186E
  8
0
 10
128.6111582954042944
 20
4.8081139121158269
 30
0.0
 40
1.342598410806243
 50
85.4214817730402842
 51
94.5784921379530061
  0
ARC
  5
186F
  8
0
 10
128.8241848845975994
 20
4.8409236946544549
 30
0.0
 40
1.3097886251562261
 50
85.3644620248361861
 51
94.6355379751638139
  0
ARC
  5
1870
  8
0
 10
129.0319657549976
 20
4.936110364106689
 30
0.0
 40
1.2146019143002791
 50
85.1861676708695654
 51
94.8138323291304346
  0
ARC
  5
1871
  8
0
 10
129.2293849566976007
 20
5.0843670788020541
 30
0.0
 40
1.0663451203978029
 50
84.8622519492611787
 51
95.1377480507396172
  0
ARC
  5
1872
  8
0
 10
129.4115813736976008
 20
5.2711813809553476
 30
0.0
 40
0.8795306801321792
 50
84.3425577624865355
 51
95.6574422375134787
  0
ARC
  5
1873
  8
0
 10
129.5740654087067014
 20
5.4783251091634071
 30
0.0
 40
0.672386707910441
 50
83.5283222428052028
 51
96.4710999003858376
  0
ARC
  5
1874
  8
0
 10
129.7128488834717075
 20
5.6853934376563293
 30
0.0
 40
0.4653179186781519
 50
82.2197726583556232
 51
97.7809225055434581
  0
ARC
  5
1875
  8
0
 10
129.034386950916911
 20
4.8037599596601739
 30
0.0
 40
0.0393700892484188
 50
180.0321009167132047
 51
269.9999936412958732
  0
ARC
  5
1876
  8
0
 10
129.7725759229475955
 20
4.591216278711757
 30
0.0
 40
0.0196850394
 50
0.0
 51
77.1249984403999918
  0
ARC
  5
1877
  8
0
 10
129.0953721993475938
 20
4.8234229413117582
 30
0.0
 40
0.0196850394
 50
270.0
 51
359.0
  0
ARC
  5
1878
  8
0
 10
129.9337135604523041
 20
5.6501948128953909
 30
0.0
 40
0.0196851163890627
 50
269.9375169367547187
 51
314.9999553629858724
  0
ARC
  5
1879
  8
0
 10
129.7824184426476108
 20
4.4592717602117578
 30
0.0
 40
0.0098425197
 50
270.0
 51
0.0
  0
ARC
  5
187A
  8
0
 10
128.6111586791446086
 20
7.0683827699338364
 30
0.0
 40
1.3985020978565801
 50
265.5782146180901009
 51
274.4217788863380179
  0
ARC
  5
187B
  8
0
 10
128.8254747656976065
 20
7.0342417557408821
 30
0.0
 40
1.364360992628135
 50
265.5232598914737991
 51
274.4767401085263145
  0
ARC
  5
187C
  8
0
 10
129.0345137560476019
 20
6.935077401528277
 30
0.0
 40
1.2651966008121609
 50
265.3510569805948194
 51
274.6489430194051806
  0
ARC
  5
187D
  8
0
 10
129.2331283374475959
 20
6.7806252599681347
 30
0.0
 40
1.1107443874455629
 50
265.0382029380671725
 51
274.9617970619328275
  0
ARC
  5
187E
  8
0
 10
129.4164279596475922
 20
6.586004241499805
 30
0.0
 40
0.9161232438660393
 50
264.5362422692850828
 51
275.4637577307148035
  0
ARC
  5
187F
  8
0
 10
129.5798991776975981
 20
6.3702650102408711
 30
0.0
 40
0.7003837936875545
 50
263.7505808295409224
 51
276.2494191704590776
  0
ARC
  5
1880
  8
0
 10
129.7195167876975859
 20
6.1545263495554314
 30
0.0
 40
0.484644714265636
 50
262.4860193331666096
 51
277.5139806668333904
  0
ARC
  5
1881
  8
0
 10
127.2886976162663046
 20
5.649352962096005
 30
0.0
 40
0.0191572354962738
 50
224.4305544145045985
 51
259.6123269308665158
  0
ARC
  5
1882
  8
0
 10
127.2661637829467054
 20
6.115776374937294
 30
0.0
 40
0.034936995566149
 50
61.3228888100829721
 51
118.6779018860347037
  0
ARC
  5
1883
  8
0
 10
127.3160473469976068
 20
6.0206001374202351
 30
0.0
 40
0.1301132215333154
 50
75.2540245819056537
 51
104.7459754180943037
  0
ARC
  5
1884
  8
0
 10
127.3978210578475938
 20
5.8723614130511761
 30
0.0
 40
0.2783519507973759
 50
79.9330748319356559
 51
100.0669251680643015
  0
ARC
  5
1885
  8
0
 10
127.2580195134268024
 20
5.7061278293057187
 30
0.0
 40
0.0362480000496766
 50
242.2689616064774043
 51
297.7312910856446138
  0
ARC
  5
1886
  8
0
 10
127.308205406197601
 20
5.8052811070786863
 30
0.0
 40
0.1354012769917341
 50
255.7546700820238925
 51
284.2453299179726969
  0
ARC
  5
1887
  8
0
 10
127.3904742594975943
 20
5.9597156854856648
 30
0.0
 40
0.2898358656301896
 50
260.2767724584311964
 51
279.7232275415680078
  0
ARC
  5
1888
  8
0
 10
129.83184294064759
 20
5.959715521300863
 30
0.0
 40
0.2898357037954453
 50
260.2767669866038887
 51
279.7232330133970208
  0
ARC
  5
1889
  8
0
 10
129.9141117939475976
 20
5.8052811074809973
 30
0.0
 40
0.1354012773939779
 50
255.7546701034090972
 51
284.2453298965883732
  0
ARC
  5
188A
  8
0
 10
129.9642974058662048
 20
5.7061270762909402
 30
0.0
 40
0.0362472028156074
 50
242.2685480639777893
 51
297.7321933960237743
  0
ARC
  5
188B
  8
0
 10
129.8244961423476127
 20
5.8723612114267736
 30
0.0
 40
0.2783521493176211
 50
79.9330820864535809
 51
100.0669179135472007
  0
ARC
  5
188C
  8
0
 10
129.9062698531475917
 20
6.0206003006830979
 30
0.0
 40
0.1301130636349865
 50
75.2540063038770342
 51
104.7459936961238043
  0
ARC
  5
188D
  8
0
 10
129.9561537025809059
 20
6.1157753121975897
 30
0.0
 40
0.0349380649202163
 50
61.3236011445183919
 51
118.6766855318500973
  0
ARC
  5
188E
  8
0
 10
130.3910747460469963
 20
5.2425488022197246
 30
0.0
 40
2.0346723241670008
 50
169.0078278287610942
 51
175.8711469656606141
  0
ARC
  5
188F
  8
0
 10
128.6909466398678887
 20
5.3514660120312918
 30
0.0
 40
0.331401010296118
 50
173.4890404149406891
 51
235.6660328434574012
  0
ARC
  5
1890
  8
0
 10
128.6106593615795077
 20
5.2711194924998503
 30
0.0
 40
0.2207697516646112
 50
241.1195752693726888
 51
270.1294396436666148
  0
ARC
  5
1891
  8
0
 10
126.8312418588271981
 20
5.2425487917670504
 30
0.0
 40
2.0346724267683078
 50
4.1288531208850037
 51
10.9921719098859008
  0
ARC
  5
1892
  8
0
 10
128.5313700671202071
 20
5.35146601203129
 30
0.0
 40
0.3314010102961063
 50
304.3339671565416893
 51
6.510959585059882
  0
ARC
  5
1893
  8
0
 10
128.6116573390640099
 20
5.2711195085013571
 30
0.0
 40
0.2207697687402808
 50
269.8704370223762794
 51
298.8804241666628059
  0
LINE
  5
1894
  8
0
 10
127.4300562378475945
 20
4.591216278711757
 30
0.0
 11
129.7922609622476102
 21
4.591216278711757
 31
0.0
  0
ARC
  5
1896
  8
0
 10
127.2892548573871068
 20
6.1604312698306893
 30
0.0
 40
0.0212686966063514
 50
91.6962900837927464
 51
133.2410655473927079
  0
ARC
  5
1897
  8
0
 10
129.9336177055598966
 20
6.1617741099894658
 30
0.0
 40
0.0199166743595896
 50
45.2761678193596708
 51
89.786476549423142
  0
ENDSEC
  0
EOF
