  0
SECTION
  2
HEADER
  9
$ACADVER
  1
AC1009
  9
$INSBASE
 10
66.3921743457523519
 20
2.3349402094597811
 30
0.0
  9
$EXTMIN
 10
65.1913869441523133
 20
2.2562216731437679
 30
0.0
  9
$EXTMAX
 10
67.5929617473523479
 20
3.7522630440597831
 30
0.0
  9
$LIMMIN
 10
0.0
 20
0.0
  9
$LIMMAX
 10
11.6929133858000007
 20
8.2677165353999982
  9
$ORTHOMODE
 70
     0
  9
$REGENMODE
 70
     1
  9
$FILLMODE
 70
     1
  9
$QTEXTMODE
 70
     0
  9
$MIRRTEXT
 70
     0
  9
$DRAGMODE
 70
     2
  9
$LTSCALE
 40
0.6431102362
  9
$OSMODE
 70
     7
  9
$ATTMODE
 70
     1
  9
$TEXTSIZE
 40
0.2
  9
$TRACEWID
 40
0.05
  9
$TEXTSTYLE
  7
STANDARD
  9
$CLAYER
  8
0
  9
$CELTYPE
  6
BYLAYER
  9
$CECOLOR
 62
   256
  9
$DIMSCALE
 40
1.0
  9
$DIMASZ
 40
0.1875
  9
$DIMEXO
 40
0.0625
  9
$DIMDLI
 40
0.4443307087
  9
$DIMRND
 40
0.0
  9
$DIMDLE
 40
0.0
  9
$DIMEXE
 40
0.125
  9
$DIMTP
 40
0.01
  9
$DIMTM
 40
0.01
  9
$DIMTXT
 40
1.0
  9
$DIMCEN
 40
0.1052362205
  9
$DIMTSZ
 40
0.0
  9
$DIMTOL
 70
     1
  9
$DIMLIM
 70
     0
  9
$DIMTIH
 70
     1
  9
$DIMTOH
 70
     1
  9
$DIMSE1
 70
     0
  9
$DIMSE2
 70
     0
  9
$DIMTAD
 70
     0
  9
$DIMZIN
 70
     0
  9
$DIMBLK
  1

  9
$DIMASO
 70
     1
  9
$DIMSHO
 70
     1
  9
$DIMPOST
  1
\X
  9
$DIMAPOST
  1

  9
$DIMALT
 70
     1
  9
$DIMALTD
 70
     2
  9
$DIMALTF
 40
25.3999999999999986
  9
$DIMLFAC
 40
1.0
  9
$DIMTOFL
 70
     0
  9
$DIMTVP
 40
0.0
  9
$DIMTIX
 70
     0
  9
$DIMSOXD
 70
     0
  9
$DIMSAH
 70
     0
  9
$DIMBLK1
  1

  9
$DIMBLK2
  1

  9
$DIMSTYLE
  2
STANDARD
  9
$DIMCLRD
 70
     0
  9
$DIMCLRE
 70
     0
  9
$DIMCLRT
 70
     0
  9
$DIMTFAC
 40
1.0
  9
$DIMGAP
 40
0.09
  9
$LUNITS
 70
     2
  9
$LUPREC
 70
     4
  9
$SKETCHINC
 40
0.1
  9
$FILLETRAD
 40
0.0
  9
$AUNITS
 70
     0
  9
$AUPREC
 70
     0
  9
$MENU
  1
.
  9
$ELEVATION
 40
0.0
  9
$PELEVATION
 40
0.0
  9
$THICKNESS
 40
0.0
  9
$LIMCHECK
 70
     0
  9
$BLIPMODE
 70
     0
  9
$CHAMFERA
 40
0.0
  9
$CHAMFERB
 40
0.0
  9
$SKPOLY
 70
     0
  9
$TDCREATE
 40
2458172.500289352145046
  9
$TDUPDATE
 40
2459591.5931481481529772
  9
$TDINDWG
 40
0.0378676042
  9
$TDUSRTIMER
 40
0.0378676042
  9
$USRTIMER
 70
     1
  9
$ANGBASE
 50
0.0
  9
$ANGDIR
 70
     0
  9
$PDMODE
 70
     0
  9
$PDSIZE
 40
0.3125
  9
$PLINEWID
 40
0.0
  9
$COORDS
 70
     1
  9
$SPLFRAME
 70
     0
  9
$SPLINETYPE
 70
     6
  9
$SPLINESEGS
 70
     8
  9
$ATTDIA
 70
     1
  9
$ATTREQ
 70
     1
  9
$HANDLING
 70
     1
  9
$HANDSEED
  5
101B
  9
$SURFTAB1
 70
     6
  9
$SURFTAB2
 70
     6
  9
$SURFTYPE
 70
     6
  9
$SURFU
 70
     6
  9
$SURFV
 70
     6
  9
$UCSNAME
  2

  9
$UCSORG
 10
0.0
 20
0.0
 30
0.0
  9
$UCSXDIR
 10
1.0
 20
0.0
 30
0.0
  9
$UCSYDIR
 10
0.0
 20
1.0
 30
0.0
  9
$PUCSNAME
  2

  9
$PUCSORG
 10
0.0
 20
0.0
 30
0.0
  9
$PUCSXDIR
 10
1.0
 20
0.0
 30
0.0
  9
$PUCSYDIR
 10
0.0
 20
1.0
 30
0.0
  9
$USERI1
 70
     0
  9
$USERI2
 70
     0
  9
$USERI3
 70
     0
  9
$USERI4
 70
     0
  9
$USERI5
 70
     0
  9
$USERR1
 40
0.0
  9
$USERR2
 40
0.0
  9
$USERR3
 40
0.0
  9
$USERR4
 40
0.0
  9
$USERR5
 40
0.0
  9
$WORLDVIEW
 70
     1
  9
$SHADEDGE
 70
     3
  9
$SHADEDIF
 70
    70
  9
$TILEMODE
 70
     1
  9
$MAXACTVP
 70
    64
  9
$PLIMCHECK
 70
     0
  9
$PEXTMIN
 10
1.0000000000000000E+20
 20
1.0000000000000000E+20
 30
1.0000000000000000E+20
  9
$PEXTMAX
 10
-1.0000000000000000E+20
 20
-1.0000000000000000E+20
 30
-1.0000000000000000E+20
  9
$PLIMMIN
 10
0.0
 20
0.0
  9
$PLIMMAX
 10
12.0
 20
9.0
  9
$UNITMODE
 70
     0
  9
$VISRETAIN
 70
     1
  9
$PLINEGEN
 70
     0
  9
$PSLTSCALE
 70
     1
  0
ENDSEC
  0
SECTION
  2
TABLES
  0
TABLE
  2
VPORT
 70
     1
  0
VPORT
  2
*ACTIVE
 70
     0
 10
0.0
 20
0.0
 11
1.0
 21
1.0
 12
0.0001605037511088
 22
-0.0696114575403755
 13
0.0
 23
0.0
 14
1.0
 24
1.0
 15
0.0
 25
0.0
 16
0.0
 26
0.0
 36
7.9633525624198969
 17
66.3964169024310138
 27
3.0740640381709472
 37
0.0
 40
1.50774945238737
 41
2.29071170084439
 42
50.0
 43
0.0
 44
0.0
 50
0.0
 51
0.0
 71
     0
 72
   100
 73
     1
 74
     1
 75
     0
 76
     0
 77
     0
 78
     0
  0
ENDTAB
  0
TABLE
  2
LTYPE
 70
     2
  0
LTYPE
  2
CONTINUOUS
 70
     0
  3
Solid line
 72
    65
 73
     0
 40
0.0
  0
LTYPE
  2
PHANTOM2
 70
     0
  3
___ _ _ ___ _ _ ___ _ _ ___ _ _
 72
    65
 73
     6
 40
1.25
 49
0.625
 49
-0.125
 49
0.125
 49
-0.125
 49
0.125
 49
-0.125
  0
ENDTAB
  0
TABLE
  2
LAYER
 70
     2
  0
LAYER
  2
0
 70
     0
 62
   255
  6
CONTINUOUS
  0
LAYER
  2
DEFPOINTS
 70
     0
 62
     7
  6
CONTINUOUS
  0
ENDTAB
  0
TABLE
  2
STYLE
 70
     1
  0
STYLE
  2
STANDARD
 70
     0
 40
0.0
 41
0.8
 50
0.0
 71
     0
 42
0.2
  3
txt
  4

  0
ENDTAB
  0
TABLE
  2
VIEW
 70
     0
  0
ENDTAB
  0
TABLE
  2
UCS
 70
     0
  0
ENDTAB
  0
TABLE
  2
APPID
 70
     9
  0
APPID
  2
ACAD
 70
     0
  0
APPID
  2
ACAD_MLEADERVER
 70
     0
  0
APPID
  2
ACAD_EXEMPT_FROM_CAD_STANDARDS
 70
     0
  0
APPID
  2
ACAD_DSTYLE_DIMJAG
 70
     0
  0
APPID
  2
ACAD_DSTYLE_DIMTALN
 70
     0
  0
APPID
  2
ACAD_NAV_VCDISPLAY
 70
     0
  0
APPID
  2
ACAECLAYERSTANDARD
 70
     0
  0
APPID
  2
ACCMTRANSPARENCY
 70
     0
  0
APPID
  2
ACDBATTR
 70
     0
  0
ENDTAB
  0
TABLE
  2
DIMSTYLE
 70
     1
  0
DIMSTYLE
  2
STANDARD
 70
     0
  3

  4

  5

  6

  7

 40
1.0
 41
0.1875
 42
0.0625
 43
0.38
 44
0.125
 45
0.0
 46
0.0
 47
0.01
 48
0.01
140
0.15625
141
0.09
142
0.0
143
25.3999999999999986
144
1.0
145
0.0
146
1.0
147
0.09
 71
     1
 72
     0
 73
     1
 74
     1
 75
     0
 76
     0
 77
     0
 78
     4
170
     0
171
     2
172
     0
173
     0
174
     0
175
     0
176
     0
177
     0
178
     0
  0
ENDTAB
  0
ENDSEC
  0
SECTION
  2
BLOCKS
  0
BLOCK
  8
0
  2
$MODEL_SPACE
 70
     0
 10
0.0
 20
0.0
 30
0.0
  3
$MODEL_SPACE
  1

  0
ENDBLK
  5
21
  8
0
  0
BLOCK
 67
     1
  8
0
  2
$PAPER_SPACE
 70
     0
 10
0.0
 20
0.0
 30
0.0
  3
$PAPER_SPACE
  1

  0
ENDBLK
  5
1D
 67
     1
  8
0
  0
ENDSEC
  0
SECTION
  2
ENTITIES
  0
ATTDEF
  5
817
  8
DEFPOINTS
 10
66.3925685137178476
 20
2.3388806495668879
 30
0.0
 40
0.001
  1
K-77990BR-8
  3

  2
MODELNUMBER
 70
     0
1001
ACDBATTR
1070
     0
1070
     1
  0
ATTDEF
  5
818
  8
DEFPOINTS
 10
66.3925685137178476
 20
2.3372139829002232
 30
0.0
 40
0.001
  1
COMPONENTS
  3

  2
TRADENAME
 70
     0
1001
ACDBATTR
1070
     0
1070
     1
  0
ATTDEF
  5
819
  8
DEFPOINTS
 10
66.3925685137178476
 20
2.335547316233558
 30
0.0
 40
0.001
  1
BATH FAUCET HANDLES
  3

  2
PRODUCT
 70
     0
1001
ACDBATTR
1070
     0
1070
     1
  0
LINE
  5
CAE
  8
0
 10
65.2477164414523543
 20
3.693207925959785
 30
0.0
 11
65.1913869441523133
 21
2.4727354850597849
 31
0.0
  0
LINE
  5
CAF
  8
0
 10
65.2162827292523559
 20
2.4478396999597849
 30
0.0
 11
65.2120224119523471
 21
2.3555328229597832
 31
0.0
  0
LINE
  5
CB0
  8
0
 10
65.3067715595523453
 20
3.7522630440597831
 30
0.0
 11
65.2477164414523543
 21
3.693207925959785
 31
0.0
  0
LINE
  5
CB1
  8
0
 10
65.1913869441523133
 20
2.4727354850597849
 30
0.0
 11
65.2162827293523435
 21
2.4478396999597849
 31
0.0
  0
LINE
  5
CB2
  8
0
 10
67.5680659622523478
 20
2.4478396999597809
 30
0.0
 11
67.5723262796523443
 21
2.3555328229597792
 31
0.0
  0
LINE
  5
CB3
  8
0
 10
67.5366322500523495
 20
3.693207925959781
 30
0.0
 11
67.5929617473523479
 21
2.4727354850597809
 31
0.0
  0
LINE
  5
CB4
  8
0
 10
67.5929617473523479
 20
2.4727354850597809
 30
0.0
 11
67.5680659622523478
 21
2.4478396999597809
 31
0.0
  0
LINE
  5
CB5
  8
0
 10
67.4775771319523585
 20
3.7522630440597791
 30
0.0
 11
67.5366322500523495
 21
3.693207925959781
 31
0.0
  0
LINE
  5
CB6
  8
0
 10
65.2316865183523333
 20
2.3349402094597829
 30
0.0
 11
67.5526621731523562
 21
2.3349402094597789
 31
0.0
  0
LINE
  5
CB7
  8
0
 10
65.2162827292523559
 20
2.4478396999597849
 30
0.0
 11
67.5680659622523478
 21
2.4478396999597809
 31
0.0
  0
LINE
  5
CB8
  8
0
 10
67.4775771319523585
 20
3.7522630440597791
 30
0.0
 11
65.3067715595523453
 21
3.7522630440597831
 31
0.0
  0
ARC
  5
CB9
  8
0
 10
67.5526621731523562
 20
2.3546252488597821
 30
0.0
 40
0.0196850394
 50
270.0
 51
2.6425452936999898
  0
ARC
  5
CBA
  8
0
 10
65.2316865183523333
 20
2.3546252488597852
 30
0.0
 40
0.0196850394
 50
177.3574547062999898
 51
270.0
  0
LINE
  5
D14
  8
0
 10
65.4472926487023585
 20
2.256222099159781
 30
0.0
 11
67.3370562801023596
 21
2.256222099159781
 31
0.0
  0
LINE
  5
D15
  8
0
 10
65.4472923532023572
 20
2.2759071385597811
 30
0.0
 11
65.5366331370023545
 21
2.2759071385597811
 31
0.0
  0
LINE
  5
D16
  8
0
 10
66.3028335618023448
 20
2.2759071385597811
 30
0.0
 11
66.481515129702359
 21
2.2759071385597811
 31
0.0
  0
LINE
  5
D17
  8
0
 10
67.2477155544023333
 20
2.2759071385597811
 30
0.0
 11
67.3370563383023466
 21
2.2759071385597811
 31
0.0
  0
LINE
  5
D18
  8
0
 10
65.4472924560023444
 20
2.256222099159781
 30
0.0
 11
65.4472924560023444
 21
2.3349402094597811
 31
0.0
  0
LINE
  5
D19
  8
0
 10
65.5366334037023535
 20
2.27590734465978
 30
0.0
 11
65.5366331968023417
 21
2.3349402094597811
 31
0.0
  0
LINE
  5
D1A
  8
0
 10
66.3028336050023483
 20
2.3349402094597811
 30
0.0
 11
66.3028338120023477
 21
2.27590712565978
 31
0.0
  0
LINE
  5
D1B
  8
0
 10
66.4815152936023424
 20
2.27590734475978
 30
0.0
 11
66.481515086602343
 21
2.3349402094597811
 31
0.0
  0
LINE
  5
D1C
  8
0
 10
67.2477154947023621
 20
2.3349402094597811
 30
0.0
 11
67.2477157017023472
 21
2.27590712555978
 31
0.0
  0
LINE
  5
D1D
  8
0
 10
67.3370562355023452
 20
2.256222099159781
 30
0.0
 11
67.3370562355023452
 21
2.3349402094597811
 31
0.0
  0
ARC
  5
D1E
  8
0
 10
65.7532698469023558
 20
3.39748208785978
 30
0.0
 40
1.2489795773000001
 50
293.9705690647995766
 51
296.1045340779006096
  0
ARC
  5
D1F
  8
0
 10
66.6981529543023441
 20
3.39747955455978
 30
0.0
 40
1.2489767668
 50
293.9705651264998778
 51
296.1045350508003935
  0
ARC
  5
D20
  8
0
 10
66.0836476346023574
 20
3.392028870759781
 30
0.0
 40
1.242960446399999
 50
243.8903988081000023
 51
246.0347323854998933
  0
ARC
  5
D21
  8
0
 10
67.0285267257023634
 20
3.3920229574597802
 30
0.0
 40
1.2429539045999991
 50
243.8903946940000935
 51
246.0347397074995968
  0
ENDSEC
  0
EOF
