  0
SECTION
  2
HEADER
  9
$ACADVER
  1
AC1009
  9
$INSBASE
 10
4506.7754832719620026
 20
458.6783425581185725
 30
0.0
  9
$EXTMIN
 10
4497.0842230223152001
 20
454.3074384326508834
 30
0.0
  9
$EXTMAX
 10
4512.6809359095486798
 20
468.2029060879066265
 30
0.0
  9
$LIMMIN
 10
0.0
 20
0.0
  9
$LIMMAX
 10
11.6929133858000007
 20
8.2677165353999982
  9
$ORTHOMODE
 70
     0
  9
$REGENMODE
 70
     1
  9
$FILLMODE
 70
     1
  9
$QTEXTMODE
 70
     0
  9
$MIRRTEXT
 70
     0
  9
$DRAGMODE
 70
     2
  9
$LTSCALE
 40
0.6431102362
  9
$OSMODE
 70
  2039
  9
$ATTMODE
 70
     1
  9
$TEXTSIZE
 40
0.2
  9
$TRACEWID
 40
0.05
  9
$TEXTSTYLE
  7
STANDARD
  9
$CLAYER
  8
0
  9
$CELTYPE
  6
BYLAYER
  9
$CECOLOR
 62
   256
  9
$DIMSCALE
 40
1.0
  9
$DIMASZ
 40
0.1875
  9
$DIMEXO
 40
0.0625
  9
$DIMDLI
 40
0.4443307087
  9
$DIMRND
 40
0.0
  9
$DIMDLE
 40
0.0
  9
$DIMEXE
 40
0.125
  9
$DIMTP
 40
0.01
  9
$DIMTM
 40
0.01
  9
$DIMTXT
 40
2.0
  9
$DIMCEN
 40
0.1052362205
  9
$DIMTSZ
 40
0.0
  9
$DIMTOL
 70
     1
  9
$DIMLIM
 70
     0
  9
$DIMTIH
 70
     1
  9
$DIMTOH
 70
     1
  9
$DIMSE1
 70
     0
  9
$DIMSE2
 70
     0
  9
$DIMTAD
 70
     0
  9
$DIMZIN
 70
     0
  9
$DIMBLK
  1

  9
$DIMASO
 70
     1
  9
$DIMSHO
 70
     1
  9
$DIMPOST
  1
\X
  9
$DIMAPOST
  1

  9
$DIMALT
 70
     1
  9
$DIMALTD
 70
     2
  9
$DIMALTF
 40
25.3999999999999986
  9
$DIMLFAC
 40
1.0
  9
$DIMTOFL
 70
     0
  9
$DIMTVP
 40
0.0
  9
$DIMTIX
 70
     0
  9
$DIMSOXD
 70
     0
  9
$DIMSAH
 70
     0
  9
$DIMBLK1
  1

  9
$DIMBLK2
  1

  9
$DIMSTYLE
  2
STANDARD
  9
$DIMCLRD
 70
     0
  9
$DIMCLRE
 70
     0
  9
$DIMCLRT
 70
     0
  9
$DIMTFAC
 40
1.0
  9
$DIMGAP
 40
0.09
  9
$LUNITS
 70
     2
  9
$LUPREC
 70
     4
  9
$SKETCHINC
 40
0.1
  9
$FILLETRAD
 40
0.0
  9
$AUNITS
 70
     0
  9
$AUPREC
 70
     0
  9
$MENU
  1
.
  9
$ELEVATION
 40
0.0
  9
$PELEVATION
 40
0.0
  9
$THICKNESS
 40
0.0
  9
$LIMCHECK
 70
     0
  9
$BLIPMODE
 70
     0
  9
$CHAMFERA
 40
0.0
  9
$CHAMFERB
 40
0.0
  9
$SKPOLY
 70
     0
  9
$TDCREATE
 40
2458060.468368056230247
  9
$TDUPDATE
 40
2459646.6745138890109956
  9
$TDINDWG
 40
1.5131625
  9
$TDUSRTIMER
 40
1.5131625
  9
$USRTIMER
 70
     1
  9
$ANGBASE
 50
0.0
  9
$ANGDIR
 70
     0
  9
$PDMODE
 70
     0
  9
$PDSIZE
 40
0.3125
  9
$PLINEWID
 40
0.0
  9
$COORDS
 70
     1
  9
$SPLFRAME
 70
     0
  9
$SPLINETYPE
 70
     6
  9
$SPLINESEGS
 70
     8
  9
$ATTDIA
 70
     1
  9
$ATTREQ
 70
     1
  9
$HANDLING
 70
     1
  9
$HANDSEED
  5
1BA01
  9
$SURFTAB1
 70
     6
  9
$SURFTAB2
 70
     6
  9
$SURFTYPE
 70
     6
  9
$SURFU
 70
     6
  9
$SURFV
 70
     6
  9
$UCSNAME
  2

  9
$UCSORG
 10
0.0
 20
0.0
 30
0.0
  9
$UCSXDIR
 10
1.0
 20
0.0
 30
0.0
  9
$UCSYDIR
 10
0.0
 20
1.0
 30
0.0
  9
$PUCSNAME
  2

  9
$PUCSORG
 10
0.0
 20
0.0
 30
0.0
  9
$PUCSXDIR
 10
1.0
 20
0.0
 30
0.0
  9
$PUCSYDIR
 10
0.0
 20
1.0
 30
0.0
  9
$USERI1
 70
     0
  9
$USERI2
 70
     0
  9
$USERI3
 70
     0
  9
$USERI4
 70
     0
  9
$USERI5
 70
     0
  9
$USERR1
 40
0.0
  9
$USERR2
 40
0.0
  9
$USERR3
 40
0.0
  9
$USERR4
 40
0.0
  9
$USERR5
 40
0.0
  9
$WORLDVIEW
 70
     1
  9
$SHADEDGE
 70
     3
  9
$SHADEDIF
 70
    70
  9
$TILEMODE
 70
     1
  9
$MAXACTVP
 70
    64
  9
$PLIMCHECK
 70
     0
  9
$PEXTMIN
 10
1.0000000000000000E+20
 20
1.0000000000000000E+20
 30
1.0000000000000000E+20
  9
$PEXTMAX
 10
-1.0000000000000000E+20
 20
-1.0000000000000000E+20
 30
-1.0000000000000000E+20
  9
$PLIMMIN
 10
0.0
 20
0.0
  9
$PLIMMAX
 10
12.0
 20
9.0
  9
$UNITMODE
 70
     0
  9
$VISRETAIN
 70
     1
  9
$PLINEGEN
 70
     0
  9
$PSLTSCALE
 70
     1
  0
ENDSEC
  0
SECTION
  2
TABLES
  0
TABLE
  2
VPORT
 70
     1
  0
VPORT
  2
*ACTIVE
 70
     0
 10
0.0
 20
0.0
 11
1.0
 21
1.0
 12
591.4804189727531138
 22
334.464761729729787
 13
0.0
 23
0.0
 14
1.0
 24
1.0
 15
0.0
 25
0.0
 16
0.0
 26
0.0
 36
60.4960186965801583
 17
3911.3653564453120453
 27
132.5796051025390057
 37
0.0
 40
19.3507148100633799
 41
2.0416666666666661
 42
50.0
 43
0.0
 44
0.0
 50
0.0
 51
0.0
 71
     0
 72
   100
 73
     1
 74
     1
 75
     0
 76
     0
 77
     0
 78
     0
  0
ENDTAB
  0
TABLE
  2
LTYPE
 70
     2
  0
LTYPE
  2
CONTINUOUS
 70
     0
  3
Solid line
 72
    65
 73
     0
 40
0.0
  0
LTYPE
  2
PHANTOM2
 70
     0
  3
___ _ _ ___ _ _ ___ _ _ ___ _ _
 72
    65
 73
     6
 40
1.25
 49
0.625
 49
-0.125
 49
0.125
 49
-0.125
 49
0.125
 49
-0.125
  0
ENDTAB
  0
TABLE
  2
LAYER
 70
     2
  0
LAYER
  2
0
 70
     0
 62
   255
  6
CONTINUOUS
  0
LAYER
  2
DEFPOINTS
 70
     0
 62
     7
  6
CONTINUOUS
  0
ENDTAB
  0
TABLE
  2
STYLE
 70
     1
  0
STYLE
  2
STANDARD
 70
     0
 40
0.0
 41
0.8
 50
0.0
 71
     0
 42
0.2
  3
txt
  4

  0
ENDTAB
  0
TABLE
  2
VIEW
 70
     0
  0
ENDTAB
  0
TABLE
  2
UCS
 70
     0
  0
ENDTAB
  0
TABLE
  2
APPID
 70
    11
  0
APPID
  2
ACAD
 70
     0
  0
APPID
  2
ACAD_MLEADERVER
 70
     0
  0
APPID
  2
ACAD_EXEMPT_FROM_CAD_STANDARDS
 70
     0
  0
APPID
  2
ACAD_NAV_VCDISPLAY
 70
     0
  0
APPID
  2
ACAECLAYERSTANDARD
 70
     0
  0
APPID
  2
ACCMTRANSPARENCY
 70
     0
  0
APPID
  2
ACAD_DSTYLE_DIMJAG
 70
     0
  0
APPID
  2
ACAD_DSTYLE_DIMTALN
 70
     0
  0
APPID
  2
ACDBATTR
 70
     0
  0
APPID
  2
ACADANNOTATIVE
 70
     0
  0
APPID
  2
DCO15
 70
     0
  0
ENDTAB
  0
TABLE
  2
DIMSTYLE
 70
     1
  0
DIMSTYLE
  2
STANDARD
 70
     0
  3

  4

  5

  6

  7

 40
1.0
 41
0.1875
 42
0.0625
 43
0.38
 44
0.125
 45
0.0
 46
0.0
 47
0.01
 48
0.01
140
0.15625
141
0.09
142
0.0
143
25.3999999999999986
144
1.0
145
0.0
146
1.0
147
0.09
 71
     1
 72
     0
 73
     1
 74
     1
 75
     0
 76
     0
 77
     0
 78
     4
170
     0
171
     2
172
     0
173
     0
174
     0
175
     0
176
     0
177
     0
178
     0
  0
ENDTAB
  0
ENDSEC
  0
SECTION
  2
BLOCKS
  0
BLOCK
  8
0
  2
$MODEL_SPACE
 70
     0
 10
0.0
 20
0.0
 30
0.0
  3
$MODEL_SPACE
  1

  0
ENDBLK
  5
21
  8
0
  0
BLOCK
 67
     1
  8
0
  2
$PAPER_SPACE
 70
     0
 10
0.0
 20
0.0
 30
0.0
  3
$PAPER_SPACE
  1

  0
ENDBLK
  5
1D
 67
     1
  8
0
  0
BLOCK
  8
0
  2
_FILLED
 70
     0
 10
0.0
 20
0.0
 30
0.0
  3
_FILLED
  1

  0
SOLID
  5
1B77F
  8
0
  6
BYBLOCK
 62
     0
 10
0.0
 20
0.0
 30
0.0
 11
-1.0
 21
0.1666666667
 31
0.0
 12
-1.0
 22
-0.1666666667
 32
0.0
 13
-1.0
 23
-0.1666666667
 33
0.0
  0
ENDBLK
  5
1B780
  8
0
  6
BYBLOCK
 62
     0
  0
ENDSEC
  0
SECTION
  2
ENTITIES
  0
ATTDEF
  5
159BF
  8
DEFPOINTS
 10
4506.7773863793318014
 20
458.6825806538067809
 30
0.0
 40
0.001
  1
K-77969BR
  3

  2
MODELNUMBER
 70
     0
1001
ACDBATTR
1070
     0
1070
     1
  0
ATTDEF
  5
159C0
  8
DEFPOINTS
 10
4506.7773863793318014
 20
458.6809138134275941
 30
0.0
 40
0.001
  1
COMPONENTS
  3

  2
TRADENAME
 70
     0
1001
ACDBATTR
1070
     0
1070
     1
  0
ATTDEF
  5
159C1
  8
DEFPOINTS
 10
4506.7773863793318014
 20
458.6792473204733938
 30
0.0
 40
0.001
  1
BATHROOM SINK SPOUT
  3

  2
PRODUCT
 70
     0
1001
ACDBATTR
1070
     0
1070
     1
  0
LINE
  5
1B95F
  8
0
 10
4499.8132537150922872
 20
466.9049634701578952
 30
0.0
 11
4499.6061560631605971
 21
465.742276093118619
 31
0.0
  0
LINE
  5
1B960
  8
0
 10
4506.2380610655618511
 20
458.988020875618588
 30
0.0
 11
4505.6095363269605514
 21
458.8394063675186203
 31
0.0
  0
LINE
  5
1B961
  8
0
 10
4505.6042234294618538
 20
458.6783425581185725
 30
0.0
 11
4507.9467431144612419
 21
458.6783425581185725
 31
0.0
  0
LINE
  5
1B962
  8
0
 10
4500.76460812696223
 20
466.184276389418585
 30
0.0
 11
4500.6526765145608806
 21
465.5558700716185854
 31
0.0
  0
LINE
  5
1B963
  8
0
 10
4506.263672248362127
 20
458.9933031880185013
 30
0.0
 11
4507.2872942955609687
 21
458.9933031880185013
 31
0.0
  0
LINE
  5
1B964
  8
0
 10
4507.3129054783621541
 20
458.988020875618588
 30
0.0
 11
4507.9414302170607698
 21
458.8394063675186203
 31
0.0
  0
LINE
  5
1B965
  8
0
 10
4505.59438090976073
 20
458.8202495593185972
 30
0.0
 11
4505.59438090976073
 21
458.6881850778186163
 31
0.0
  0
LINE
  5
1B966
  8
0
 10
4499.6220841081621984
 20
465.7194441214185758
 30
0.0
 11
4500.6298445427610204
 21
465.5399420266185757
 31
0.0
  0
LINE
  5
1B967
  8
0
 10
4506.2439872089616983
 20
459.0129882274185888
 30
0.0
 11
4506.2439872089616983
 21
466.2295236605186233
 31
0.0
  0
LINE
  5
1B968
  8
0
 10
4507.3069793349623069
 20
459.0129882274185888
 30
0.0
 11
4507.3069793349623069
 21
466.2295236605186233
 31
0.0
  0
LINE
  5
1B969
  8
0
 10
4507.3069793349623069
 20
466.2688937392185835
 30
0.0
 11
4507.3069793349623069
 21
466.9015115599186174
 31
0.0
  0
LINE
  5
1B96A
  8
0
 10
4500.8421281613973406
 20
466.2492092432502773
 30
0.0
 11
4507.2872942955609687
 21
466.2492086998184959
 31
0.0
  0
LINE
  5
1B96B
  8
0
 10
4507.9565856341605468
 20
458.8202495593185972
 30
0.0
 11
4507.9565856341605468
 21
458.6881850778186163
 31
0.0
  0
LINE
  5
1B96C
  8
0
 10
4499.8326515471608218
 20
466.9211965992186038
 30
0.0
 11
4507.2872942955609687
 21
466.9211965993185913
 31
0.0
  0
ARC
  5
1B96D
  8
0
 10
4507.2676092562624035
 20
458.7964527943186113
 30
0.0
 40
0.1968503937
 50
76.6967576673937828
 51
90.0
  0
ARC
  5
1B96E
  8
0
 10
4506.2833572877607367
 20
458.7964527943186113
 30
0.0
 40
0.1968503937
 50
90.0
 51
103.303242332606203
  0
ARC
  5
1B96F
  8
0
 10
4500.8421504846501193
 20
466.1704425508850136
 30
0.0
 40
0.0787666955285966
 50
90.0162381851336448
 51
169.884645347899891
  0
ARC
  5
1B970
  8
0
 10
4505.6140659491629776
 20
458.8202495593185972
 30
0.0
 40
0.0196850394
 50
103.303242332606203
 51
180.0
  0
ARC
  5
1B971
  8
0
 10
4507.9369005948619815
 20
458.8202495593185972
 30
0.0
 40
0.0196850394
 50
0.0
 51
76.6967576673937828
  0
ARC
  5
1B972
  8
0
 10
4507.2872942955609687
 20
459.0129882274185888
 30
0.0
 40
0.0196850394
 50
270.0
 51
0.0
  0
ARC
  5
1B973
  8
0
 10
4506.263672248362127
 20
459.0129882274185888
 30
0.0
 40
0.0196850394
 50
180.0
 51
270.0
  0
ARC
  5
1B974
  8
0
 10
4506.263672248362127
 20
466.2295236605186233
 30
0.0
 40
0.0196850394
 50
90.0
 51
180.0
  0
ARC
  5
1B975
  8
0
 10
4507.2872942955609687
 20
466.2295236605186233
 30
0.0
 40
0.0196850394
 50
0.0
 51
90.0
  0
ARC
  5
1B976
  8
0
 10
4507.2872942955609687
 20
466.9015115599186174
 30
0.0
 40
0.0196850394
 50
0.0
 51
90.0
  0
ARC
  5
1B977
  8
0
 10
4507.2872942955609687
 20
466.2688937392185835
 30
0.0
 40
0.0196850394
 50
270.0
 51
0.0
  0
ARC
  5
1B978
  8
0
 10
4500.6332965061619689
 20
465.5593220350186243
 30
0.0
 40
0.0196850394
 50
259.9004066479201924
 51
349.9004066478997856
  0
ARC
  5
1B979
  8
0
 10
4499.6255360715622373
 20
465.73882412971858
 30
0.0
 40
0.0196850394
 50
169.9004066478998141
 51
259.9004066479201924
  0
ARC
  5
1B97A
  8
0
 10
4505.6042234294618538
 20
458.6881850778186163
 30
0.0
 40
0.0098425197
 50
180.0
 51
270.0
  0
ARC
  5
1B97B
  8
0
 10
4507.9467431144612419
 20
458.6881850778186163
 30
0.0
 40
0.0098425197
 50
270.0
 51
0.0
  0
ARC
  5
1B97C
  8
0
 10
4499.8339135439528036
 20
466.8999822551087959
 30
0.0
 40
0.0212518477292262
 50
93.4043935787223347
 51
166.4443472647527926
  0
LINE
  5
1B97D
  8
0
 10
4505.6095363269487279
 20
458.83940636743921
 30
0.0
 11
4507.9414302174836848
 21
458.8394063674185759
 31
0.0
  0
ENDSEC
  0
EOF
