  0
SECTION
  2
HEADER
  9
$ACADVER
  1
AC1009
  9
$INSBASE
 10
4498.2653295142799834
 20
459.9600520467066076
 30
0.0
  9
$EXTMIN
 10
4492.3893494894800824
 20
455.7869173242183933
 30
0.0
  9
$EXTMAX
 10
4499.4464277468287037
 20
470.3266040575745137
 30
0.0
  9
$LIMMIN
 10
0.0
 20
0.0
  9
$LIMMAX
 10
11.6929133858000007
 20
8.2677165353999982
  9
$ORTHOMODE
 70
     0
  9
$REGENMODE
 70
     1
  9
$FILLMODE
 70
     1
  9
$QTEXTMODE
 70
     0
  9
$MIRRTEXT
 70
     0
  9
$DRAGMODE
 70
     2
  9
$LTSCALE
 40
0.6431102362
  9
$OSMODE
 70
  2039
  9
$ATTMODE
 70
     1
  9
$TEXTSIZE
 40
0.2
  9
$TRACEWID
 40
0.05
  9
$TEXTSTYLE
  7
STANDARD
  9
$CLAYER
  8
0
  9
$CELTYPE
  6
BYLAYER
  9
$CECOLOR
 62
   256
  9
$DIMSCALE
 40
1.0
  9
$DIMASZ
 40
0.1875
  9
$DIMEXO
 40
0.0625
  9
$DIMDLI
 40
0.4443307087
  9
$DIMRND
 40
0.0
  9
$DIMDLE
 40
0.0
  9
$DIMEXE
 40
0.125
  9
$DIMTP
 40
0.01
  9
$DIMTM
 40
0.01
  9
$DIMTXT
 40
2.0
  9
$DIMCEN
 40
0.1052362205
  9
$DIMTSZ
 40
0.0
  9
$DIMTOL
 70
     1
  9
$DIMLIM
 70
     0
  9
$DIMTIH
 70
     1
  9
$DIMTOH
 70
     1
  9
$DIMSE1
 70
     0
  9
$DIMSE2
 70
     0
  9
$DIMTAD
 70
     0
  9
$DIMZIN
 70
     0
  9
$DIMBLK
  1

  9
$DIMASO
 70
     1
  9
$DIMSHO
 70
     1
  9
$DIMPOST
  1
\X
  9
$DIMAPOST
  1

  9
$DIMALT
 70
     1
  9
$DIMALTD
 70
     2
  9
$DIMALTF
 40
25.3999999999999986
  9
$DIMLFAC
 40
1.0
  9
$DIMTOFL
 70
     0
  9
$DIMTVP
 40
0.0
  9
$DIMTIX
 70
     0
  9
$DIMSOXD
 70
     0
  9
$DIMSAH
 70
     0
  9
$DIMBLK1
  1

  9
$DIMBLK2
  1

  9
$DIMSTYLE
  2
STANDARD
  9
$DIMCLRD
 70
     0
  9
$DIMCLRE
 70
     0
  9
$DIMCLRT
 70
     0
  9
$DIMTFAC
 40
1.0
  9
$DIMGAP
 40
0.09
  9
$LUNITS
 70
     2
  9
$LUPREC
 70
     4
  9
$SKETCHINC
 40
0.1
  9
$FILLETRAD
 40
0.0
  9
$AUNITS
 70
     0
  9
$AUPREC
 70
     0
  9
$MENU
  1
.
  9
$ELEVATION
 40
0.0
  9
$PELEVATION
 40
0.0
  9
$THICKNESS
 40
0.0
  9
$LIMCHECK
 70
     0
  9
$BLIPMODE
 70
     0
  9
$CHAMFERA
 40
0.0
  9
$CHAMFERB
 40
0.0
  9
$SKPOLY
 70
     0
  9
$TDCREATE
 40
2458060.468368056230247
  9
$TDUPDATE
 40
2459646.6747453701682389
  9
$TDINDWG
 40
1.5136949073999999
  9
$TDUSRTIMER
 40
1.5136949073999999
  9
$USRTIMER
 70
     1
  9
$ANGBASE
 50
0.0
  9
$ANGDIR
 70
     0
  9
$PDMODE
 70
     0
  9
$PDSIZE
 40
0.3125
  9
$PLINEWID
 40
0.0
  9
$COORDS
 70
     1
  9
$SPLFRAME
 70
     0
  9
$SPLINETYPE
 70
     6
  9
$SPLINESEGS
 70
     8
  9
$ATTDIA
 70
     1
  9
$ATTREQ
 70
     1
  9
$HANDLING
 70
     1
  9
$HANDSEED
  5
1B978
  9
$SURFTAB1
 70
     6
  9
$SURFTAB2
 70
     6
  9
$SURFTYPE
 70
     6
  9
$SURFU
 70
     6
  9
$SURFV
 70
     6
  9
$UCSNAME
  2

  9
$UCSORG
 10
0.0
 20
0.0
 30
0.0
  9
$UCSXDIR
 10
1.0
 20
0.0
 30
0.0
  9
$UCSYDIR
 10
0.0
 20
1.0
 30
0.0
  9
$PUCSNAME
  2

  9
$PUCSORG
 10
0.0
 20
0.0
 30
0.0
  9
$PUCSXDIR
 10
1.0
 20
0.0
 30
0.0
  9
$PUCSYDIR
 10
0.0
 20
1.0
 30
0.0
  9
$USERI1
 70
     0
  9
$USERI2
 70
     0
  9
$USERI3
 70
     0
  9
$USERI4
 70
     0
  9
$USERI5
 70
     0
  9
$USERR1
 40
0.0
  9
$USERR2
 40
0.0
  9
$USERR3
 40
0.0
  9
$USERR4
 40
0.0
  9
$USERR5
 40
0.0
  9
$WORLDVIEW
 70
     1
  9
$SHADEDGE
 70
     3
  9
$SHADEDIF
 70
    70
  9
$TILEMODE
 70
     1
  9
$MAXACTVP
 70
    64
  9
$PLIMCHECK
 70
     0
  9
$PEXTMIN
 10
1.0000000000000000E+20
 20
1.0000000000000000E+20
 30
1.0000000000000000E+20
  9
$PEXTMAX
 10
-1.0000000000000000E+20
 20
-1.0000000000000000E+20
 30
-1.0000000000000000E+20
  9
$PLIMMIN
 10
0.0
 20
0.0
  9
$PLIMMAX
 10
12.0
 20
9.0
  9
$UNITMODE
 70
     0
  9
$VISRETAIN
 70
     1
  9
$PLINEGEN
 70
     0
  9
$PSLTSCALE
 70
     1
  0
ENDSEC
  0
SECTION
  2
TABLES
  0
TABLE
  2
VPORT
 70
     1
  0
VPORT
  2
*ACTIVE
 70
     0
 10
0.0
 20
0.0
 11
1.0
 21
1.0
 12
594.7091236113210471
 22
330.4332885391476111
 13
0.0
 23
0.0
 14
1.0
 24
1.0
 15
0.0
 25
0.0
 16
0.0
 26
0.0
 36
60.4960186965801583
 17
3911.3653564453120453
 27
132.5796051025390057
 37
0.0
 40
29.7868487560116613
 41
2.0416666666666661
 42
50.0
 43
0.0
 44
0.0
 50
0.0
 51
0.0
 71
     0
 72
   100
 73
     1
 74
     1
 75
     0
 76
     0
 77
     0
 78
     0
  0
ENDTAB
  0
TABLE
  2
LTYPE
 70
     2
  0
LTYPE
  2
CONTINUOUS
 70
     0
  3
Solid line
 72
    65
 73
     0
 40
0.0
  0
LTYPE
  2
PHANTOM2
 70
     0
  3
___ _ _ ___ _ _ ___ _ _ ___ _ _
 72
    65
 73
     6
 40
1.25
 49
0.625
 49
-0.125
 49
0.125
 49
-0.125
 49
0.125
 49
-0.125
  0
ENDTAB
  0
TABLE
  2
LAYER
 70
     2
  0
LAYER
  2
0
 70
     0
 62
   255
  6
CONTINUOUS
  0
LAYER
  2
DEFPOINTS
 70
     0
 62
     7
  6
CONTINUOUS
  0
ENDTAB
  0
TABLE
  2
STYLE
 70
     1
  0
STYLE
  2
STANDARD
 70
     0
 40
0.0
 41
0.8
 50
0.0
 71
     0
 42
0.2
  3
txt
  4

  0
ENDTAB
  0
TABLE
  2
VIEW
 70
     0
  0
ENDTAB
  0
TABLE
  2
UCS
 70
     0
  0
ENDTAB
  0
TABLE
  2
APPID
 70
    11
  0
APPID
  2
ACAD
 70
     0
  0
APPID
  2
ACAD_MLEADERVER
 70
     0
  0
APPID
  2
ACAD_EXEMPT_FROM_CAD_STANDARDS
 70
     0
  0
APPID
  2
ACAD_NAV_VCDISPLAY
 70
     0
  0
APPID
  2
ACAECLAYERSTANDARD
 70
     0
  0
APPID
  2
ACCMTRANSPARENCY
 70
     0
  0
APPID
  2
ACAD_DSTYLE_DIMJAG
 70
     0
  0
APPID
  2
ACAD_DSTYLE_DIMTALN
 70
     0
  0
APPID
  2
ACDBATTR
 70
     0
  0
APPID
  2
ACADANNOTATIVE
 70
     0
  0
APPID
  2
DCO15
 70
     0
  0
ENDTAB
  0
TABLE
  2
DIMSTYLE
 70
     1
  0
DIMSTYLE
  2
STANDARD
 70
     0
  3

  4

  5

  6

  7

 40
1.0
 41
0.1875
 42
0.0625
 43
0.38
 44
0.125
 45
0.0
 46
0.0
 47
0.01
 48
0.01
140
0.15625
141
0.09
142
0.0
143
25.3999999999999986
144
1.0
145
0.0
146
1.0
147
0.09
 71
     1
 72
     0
 73
     1
 74
     1
 75
     0
 76
     0
 77
     0
 78
     4
170
     0
171
     2
172
     0
173
     0
174
     0
175
     0
176
     0
177
     0
178
     0
  0
ENDTAB
  0
ENDSEC
  0
SECTION
  2
BLOCKS
  0
BLOCK
  8
0
  2
$MODEL_SPACE
 70
     0
 10
0.0
 20
0.0
 30
0.0
  3
$MODEL_SPACE
  1

  0
ENDBLK
  5
21
  8
0
  0
BLOCK
 67
     1
  8
0
  2
$PAPER_SPACE
 70
     0
 10
0.0
 20
0.0
 30
0.0
  3
$PAPER_SPACE
  1

  0
ENDBLK
  5
1D
 67
     1
  8
0
  0
BLOCK
  8
0
  2
_FILLED
 70
     0
 10
0.0
 20
0.0
 30
0.0
  3
_FILLED
  1

  0
SOLID
  5
1B77F
  8
0
  6
BYBLOCK
 62
     0
 10
0.0
 20
0.0
 30
0.0
 11
-1.0
 21
0.1666666667
 31
0.0
 12
-1.0
 22
-0.1666666667
 32
0.0
 13
-1.0
 23
-0.1666666667
 33
0.0
  0
ENDBLK
  5
1B780
  8
0
  6
BYBLOCK
 62
     0
  0
ENDSEC
  0
SECTION
  2
ENTITIES
  0
ATTDEF
  5
159BF
  8
DEFPOINTS
 10
4498.268432911328091
 20
459.9639229269096745
 30
0.0
 40
0.001
  1
K-77969BR
  3

  2
MODELNUMBER
 70
     0
1001
ACDBATTR
1070
     0
1070
     1
  0
ATTDEF
  5
159C0
  8
DEFPOINTS
 10
4498.268432911328091
 20
459.9622560865304877
 30
0.0
 40
0.001
  1
COMPONENTS
  3

  2
TRADENAME
 70
     0
1001
ACDBATTR
1070
     0
1070
     1
  0
ATTDEF
  5
159C1
  8
DEFPOINTS
 10
4498.268432911328091
 20
459.9605895935762874
 30
0.0
 40
0.001
  1
BATHROOM SINK SPOUT
  3

  2
PRODUCT
 70
     0
1001
ACDBATTR
1070
     0
1070
     1
  0
LINE
  5
1B8C6
  8
0
 10
4497.0940655421300107
 20
459.9600520467066076
 30
0.0
 11
4499.4365852271293988
 21
459.9600520467066076
 31
0.0
  0
LINE
  5
1B8C7
  8
0
 10
4497.75351436092933
 20
460.2750126766065932
 30
0.0
 11
4498.7771364082300352
 21
460.2750126766065932
 31
0.0
  0
LINE
  5
1B8C8
  8
0
 10
4497.0993825691975871
 20
460.1211158560503236
 30
0.0
 11
4497.7279031782300081
 21
460.2697303642066231
 31
0.0
  0
LINE
  5
1B8C9
  8
0
 10
4499.4312723296288823
 20
460.1211158561064849
 30
0.0
 11
4498.8027475910294015
 21
460.2697303642066231
 31
0.0
  0
LINE
  5
1B8CA
  8
0
 10
4497.0842230224288869
 20
459.9698945664065945
 30
0.0
 11
4497.0842230224288869
 21
460.1019590479065187
 31
0.0
  0
LINE
  5
1B8CB
  8
0
 10
4497.7338293216298553
 20
460.2946977160065103
 30
0.0
 11
4497.7338293216298553
 21
468.183221048506482
 31
0.0
  0
LINE
  5
1B8CC
  8
0
 10
4498.7968214476286448
 20
460.2946977160065103
 30
0.0
 11
4498.7968214476286448
 21
468.183221048506482
 31
0.0
  0
LINE
  5
1B8CD
  8
0
 10
4499.4464277468287037
 20
459.9698945664065945
 30
0.0
 11
4499.4464277468287037
 21
460.1019590479065187
 31
0.0
  0
LINE
  5
1B8CE
  8
0
 10
4498.7771364152285969
 20
468.202906087806582
 30
0.0
 11
4497.7535143540289937
 21
468.202906087806582
 31
0.0
  0
ARC
  5
1B8CF
  8
0
 10
4497.7743416771836564
 20
460.0719058958171104
 30
0.0
 40
0.2032020040961813
 50
91.7541318227517593
 51
103.2107579127917063
  0
ARC
  5
1B8D0
  8
0
 10
4498.7563090919747992
 20
460.0719058958171104
 30
0.0
 40
0.2032020040962631
 50
76.7892420872082511
 51
88.2458681772482549
  0
ARC
  5
1B8D1
  8
0
 10
4497.1039058614323949
 20
460.1019598130204145
 30
0.0
 40
0.0196828391164336
 50
103.2858230866761033
 51
180.0022272086615942
  0
ARC
  5
1B8D2
  8
0
 10
4499.4267427074291845
 20
460.1019590479065187
 30
0.0
 40
0.0196850394
 50
0.0
 51
76.6967576694824658
  0
ARC
  5
1B8D3
  8
0
 10
4497.75351436092933
 20
468.183221048506482
 30
0.0
 40
0.0196850394
 50
90.0000203499741644
 51
180.0
  0
ARC
  5
1B8D4
  8
0
 10
4498.7771364082300352
 20
468.183221048506482
 30
0.0
 40
0.0196850394
 50
0.0
 51
89.9999796498173907
  0
ARC
  5
1B8D5
  8
0
 10
4498.7771364082300352
 20
460.2946977160065103
 30
0.0
 40
0.0196850394
 50
270.0
 51
0.0
  0
ARC
  5
1B8D6
  8
0
 10
4497.75351436092933
 20
460.2946977160065103
 30
0.0
 40
0.0196850394
 50
180.0
 51
270.0
  0
ARC
  5
1B8D7
  8
0
 10
4497.0940655421300107
 20
459.9698945664065945
 30
0.0
 40
0.0098425197
 50
180.0
 51
270.0
  0
ARC
  5
1B8D8
  8
0
 10
4499.4365852271293988
 20
459.9698945664065945
 30
0.0
 40
0.0098425197
 50
270.0
 51
0.0
  0
ARC
  5
1B8D9
  8
0
 10
4498.2553829081043659
 20
464.6611907103646786
 30
0.0
 40
2.3628361932738269
 50
78.3778170188443113
 51
99.8505367343288839
  0
ARC
  5
1B8DA
  8
0
 10
4498.2548623107131789
 20
468.9859916177034052
 30
0.0
 40
2.1644967704446141
 50
258.5225544279558108
 51
283.0537253080133837
  0
ARC
  5
1B8DB
  8
0
 10
4498.2653265305852983
 20
464.7324365117892171
 30
0.0
 40
2.254909244717584
 50
83.8392728172754573
 51
96.1606412119402592
  0
ARC
  5
1B8DC
  8
0
 10
4498.1253656823855636
 20
466.0390967989446835
 30
0.0
 40
0.9407755442223702
 50
96.2260218257199114
 51
102.9083410444687985
  0
ARC
  5
1B8DD
  8
0
 10
4498.391894614431294
 20
465.9419190353646059
 30
0.0
 40
1.0388363104361431
 50
76.7683328627211523
 51
83.620752810902701
  0
LINE
  5
1B8DE
  8
0
 10
4497.0993825691793973
 20
460.1211158560064973
 30
0.0
 11
4499.4312723296488912
 21
460.1211158560627155
 31
0.0
  0
ARC
  5
1B8DF
  8
0
 10
4497.9317387800765573
 20
466.5851788668530844
 30
0.0
 40
0.4119723606970351
 50
101.2804529785874053
 51
114.6698786301085988
  0
ARC
  5
1B8E0
  8
0
 10
4497.8782295187429554
 20
467.0833598910414253
 30
0.0
 40
0.2251685593318477
 50
236.2403578120103873
 51
256.1074246271542734
  0
ARC
  5
1B8E1
  8
0
 10
4497.7767850217360319
 20
466.9181235163060251
 30
0.0
 40
0.0447782209121619
 50
112.3107398924141052
 51
163.5782489941217932
  0
ARC
  5
1B8E2
  8
0
 10
4497.7707910207645909
 20
466.9309167691233142
 30
0.0
 40
0.0369619427534075
 50
180.2080250052179053
 51
208.6594438106560006
  0
ARC
  5
1B8E3
  8
0
 10
4497.7868319923909439
 20
466.9402602358799754
 30
0.0
 40
0.0555211195918133
 50
209.1810776327716894
 51
232.5886440836771101
  0
ARC
  5
1B8E4
  8
0
 10
4498.691597241198906
 20
466.82416091782801
 30
0.0
 40
0.1565637106728146
 50
51.579591461167162
 51
75.274777939304272
  0
ARC
  5
1B8E5
  8
0
 10
4498.7001753763661327
 20
466.9927102112877151
 30
0.0
 40
0.1232407729765461
 50
290.7037929781462822
 51
314.5510741391262854
  0
ARC
  5
1B8E6
  8
0
 10
4498.7727583137930196
 20
466.9288202808223787
 30
0.0
 40
0.0241739092231634
 50
5.4872128437135208
 51
48.1391440684702587
  0
ARC
  5
1B8E7
  8
0
 10
4498.7558953014167855
 20
466.9319601382661062
 30
0.0
 40
0.0409623066608549
 50
318.6269048856286759
 51
357.5923448293386855
  0
ARC
  5
1B8E8
  8
0
 10
4497.9626663175040449
 20
466.7287573126706093
 30
0.0
 40
0.2322419695932658
 50
101.7923928986370044
 51
121.5923499270836032
  0
ARC
  5
1B8E9
  8
0
 10
4497.8824259373423047
 20
466.9406095575197924
 30
0.0
 40
0.0605255122103814
 50
217.7769056254286113
 51
251.4159602102637052
  0
ARC
  5
1B8EA
  8
0
 10
4497.8487724377928316
 20
466.9120007240356927
 30
0.0
 40
0.0165213800646543
 50
118.0585743286173965
 51
210.8353149344843871
  0
ARC
  5
1B8EB
  8
0
 10
4498.0905430617376624
 20
467.5260953535192812
 30
0.0
 40
0.6818919433058107
 50
250.5190643196991118
 51
266.7967773306154982
  0
ARC
  5
1B8EC
  8
0
 10
4498.5518954887720611
 20
466.6835372783651223
 30
0.0
 40
0.2806328911124955
 50
62.6013239751674533
 51
73.909850778363392
  0
ARC
  5
1B8ED
  8
0
 10
4498.6645379190349558
 20
466.8995332985065829
 30
0.0
 40
0.0370353169232689
 50
28.0275443168231888
 51
63.5450560695914035
  0
ARC
  5
1B8EE
  8
0
 10
4498.6841607019059666
 20
466.9112891101316904
 30
0.0
 40
0.014236896146118
 50
325.2882811542839931
 51
23.3683497988724405
  0
ARC
  5
1B8EF
  8
0
 10
4498.552504809347738
 20
467.1497654421726793
 30
0.0
 40
0.2901527758992523
 50
281.0558701664596128
 51
294.7932629931802921
  0
ARC
  5
1B8F0
  8
0
 10
4498.6523228879223097
 20
466.9369128589627849
 30
0.0
 40
0.0550780151800314
 50
293.3796196589528904
 51
322.2352587438720093
  0
ARC
  5
1B8F1
  8
0
 10
4498.2627978219197757
 20
469.0846487456072964
 30
0.0
 40
2.2492382727509428
 50
264.633639063269527
 51
270.7779164077919063
  0
ARC
  5
1B8F2
  8
0
 10
4498.3507752941468425
 20
468.1181678480076016
 30
0.0
 40
1.279326078018117
 50
274.3271870022076087
 51
281.6057952767948223
  0
ARC
  5
1B8F3
  8
0
 10
4498.2709098129971608
 20
469.0667196595459814
 30
0.0
 40
2.2312145764360469
 50
270.5758766528660999
 51
274.5343619460256832
  0
ARC
  5
1B8F4
  8
0
 10
4498.2653296895077801
 20
468.9430083544289118
 30
0.0
 40
1.983502018022423
 50
262.9923216553236784
 51
277.0075923739290147
  0
ENDSEC
  0
EOF
