  0
SECTION
  2
HEADER
  9
$ACADVER
  1
AC1009
  9
$INSBASE
 10
4503.6120716773948516
 20
459.5194409041970971
 30
0.0
  9
$EXTMIN
 10
4493.7264217011543224
 20
455.4230978231702238
 30
0.0
  9
$EXTMAX
 10
4509.875099229812804
 20
470.3266040575745137
 30
0.0
  9
$LIMMIN
 10
0.0
 20
0.0
  9
$LIMMAX
 10
11.6929133858000007
 20
8.2677165353999982
  9
$ORTHOMODE
 70
     0
  9
$REGENMODE
 70
     1
  9
$FILLMODE
 70
     1
  9
$QTEXTMODE
 70
     0
  9
$MIRRTEXT
 70
     0
  9
$DRAGMODE
 70
     2
  9
$LTSCALE
 40
0.6431102362
  9
$OSMODE
 70
  2039
  9
$ATTMODE
 70
     1
  9
$TEXTSIZE
 40
0.2
  9
$TRACEWID
 40
0.05
  9
$TEXTSTYLE
  7
STANDARD
  9
$CLAYER
  8
0
  9
$CELTYPE
  6
BYLAYER
  9
$CECOLOR
 62
   256
  9
$DIMSCALE
 40
1.0
  9
$DIMASZ
 40
0.1875
  9
$DIMEXO
 40
0.0625
  9
$DIMDLI
 40
0.4443307087
  9
$DIMRND
 40
0.0
  9
$DIMDLE
 40
0.0
  9
$DIMEXE
 40
0.125
  9
$DIMTP
 40
0.01
  9
$DIMTM
 40
0.01
  9
$DIMTXT
 40
2.0
  9
$DIMCEN
 40
0.1052362205
  9
$DIMTSZ
 40
0.0
  9
$DIMTOL
 70
     1
  9
$DIMLIM
 70
     0
  9
$DIMTIH
 70
     1
  9
$DIMTOH
 70
     1
  9
$DIMSE1
 70
     0
  9
$DIMSE2
 70
     0
  9
$DIMTAD
 70
     0
  9
$DIMZIN
 70
     0
  9
$DIMBLK
  1

  9
$DIMASO
 70
     1
  9
$DIMSHO
 70
     1
  9
$DIMPOST
  1
\X
  9
$DIMAPOST
  1

  9
$DIMALT
 70
     1
  9
$DIMALTD
 70
     2
  9
$DIMALTF
 40
25.3999999999999986
  9
$DIMLFAC
 40
1.0
  9
$DIMTOFL
 70
     0
  9
$DIMTVP
 40
0.0
  9
$DIMTIX
 70
     0
  9
$DIMSOXD
 70
     0
  9
$DIMSAH
 70
     0
  9
$DIMBLK1
  1

  9
$DIMBLK2
  1

  9
$DIMSTYLE
  2
STANDARD
  9
$DIMCLRD
 70
     0
  9
$DIMCLRE
 70
     0
  9
$DIMCLRT
 70
     0
  9
$DIMTFAC
 40
1.0
  9
$DIMGAP
 40
0.09
  9
$LUNITS
 70
     2
  9
$LUPREC
 70
     4
  9
$SKETCHINC
 40
0.1
  9
$FILLETRAD
 40
0.0
  9
$AUNITS
 70
     0
  9
$AUPREC
 70
     0
  9
$MENU
  1
.
  9
$ELEVATION
 40
0.0
  9
$PELEVATION
 40
0.0
  9
$THICKNESS
 40
0.0
  9
$LIMCHECK
 70
     0
  9
$BLIPMODE
 70
     0
  9
$CHAMFERA
 40
0.0
  9
$CHAMFERB
 40
0.0
  9
$SKPOLY
 70
     0
  9
$TDCREATE
 40
2458060.468368056230247
  9
$TDUPDATE
 40
2459646.6647222228348255
  9
$TDINDWG
 40
1.5107666666999999
  9
$TDUSRTIMER
 40
1.5107666666999999
  9
$USRTIMER
 70
     1
  9
$ANGBASE
 50
0.0
  9
$ANGDIR
 70
     0
  9
$PDMODE
 70
     0
  9
$PDSIZE
 40
0.3125
  9
$PLINEWID
 40
0.0
  9
$COORDS
 70
     1
  9
$SPLFRAME
 70
     0
  9
$SPLINETYPE
 70
     6
  9
$SPLINESEGS
 70
     8
  9
$ATTDIA
 70
     1
  9
$ATTREQ
 70
     1
  9
$HANDLING
 70
     1
  9
$HANDSEED
  5
1B94E
  9
$SURFTAB1
 70
     6
  9
$SURFTAB2
 70
     6
  9
$SURFTYPE
 70
     6
  9
$SURFU
 70
     6
  9
$SURFV
 70
     6
  9
$UCSNAME
  2

  9
$UCSORG
 10
0.0
 20
0.0
 30
0.0
  9
$UCSXDIR
 10
1.0
 20
0.0
 30
0.0
  9
$UCSYDIR
 10
0.0
 20
1.0
 30
0.0
  9
$PUCSNAME
  2

  9
$PUCSORG
 10
0.0
 20
0.0
 30
0.0
  9
$PUCSXDIR
 10
1.0
 20
0.0
 30
0.0
  9
$PUCSYDIR
 10
0.0
 20
1.0
 30
0.0
  9
$USERI1
 70
     0
  9
$USERI2
 70
     0
  9
$USERI3
 70
     0
  9
$USERI4
 70
     0
  9
$USERI5
 70
     0
  9
$USERR1
 40
0.0
  9
$USERR2
 40
0.0
  9
$USERR3
 40
0.0
  9
$USERR4
 40
0.0
  9
$USERR5
 40
0.0
  9
$WORLDVIEW
 70
     1
  9
$SHADEDGE
 70
     3
  9
$SHADEDIF
 70
    70
  9
$TILEMODE
 70
     1
  9
$MAXACTVP
 70
    64
  9
$PLIMCHECK
 70
     0
  9
$PEXTMIN
 10
1.0000000000000000E+20
 20
1.0000000000000000E+20
 30
1.0000000000000000E+20
  9
$PEXTMAX
 10
-1.0000000000000000E+20
 20
-1.0000000000000000E+20
 30
-1.0000000000000000E+20
  9
$PLIMMIN
 10
0.0
 20
0.0
  9
$PLIMMAX
 10
12.0
 20
9.0
  9
$UNITMODE
 70
     0
  9
$VISRETAIN
 70
     1
  9
$PLINEGEN
 70
     0
  9
$PSLTSCALE
 70
     1
  0
ENDSEC
  0
SECTION
  2
TABLES
  0
TABLE
  2
VPORT
 70
     1
  0
VPORT
  2
*ACTIVE
 70
     0
 10
0.0
 20
0.0
 11
1.0
 21
1.0
 12
605.1487064983283517
 22
328.5567578655840748
 13
0.0
 23
0.0
 14
1.0
 24
1.0
 15
0.0
 25
0.0
 16
0.0
 26
0.0
 36
60.4960186965801583
 17
3911.3653564453120453
 27
132.5796051025390057
 37
0.0
 40
29.714547094878089
 41
2.0416666666666661
 42
50.0
 43
0.0
 44
0.0
 50
0.0
 51
0.0
 71
     0
 72
   100
 73
     1
 74
     1
 75
     0
 76
     0
 77
     0
 78
     0
  0
ENDTAB
  0
TABLE
  2
LTYPE
 70
     2
  0
LTYPE
  2
CONTINUOUS
 70
     0
  3
Solid line
 72
    65
 73
     0
 40
0.0
  0
LTYPE
  2
PHANTOM2
 70
     0
  3
___ _ _ ___ _ _ ___ _ _ ___ _ _
 72
    65
 73
     6
 40
1.25
 49
0.625
 49
-0.125
 49
0.125
 49
-0.125
 49
0.125
 49
-0.125
  0
ENDTAB
  0
TABLE
  2
LAYER
 70
     2
  0
LAYER
  2
0
 70
     0
 62
   255
  6
CONTINUOUS
  0
LAYER
  2
DEFPOINTS
 70
     0
 62
     7
  6
CONTINUOUS
  0
ENDTAB
  0
TABLE
  2
STYLE
 70
     1
  0
STYLE
  2
STANDARD
 70
     0
 40
0.0
 41
0.8
 50
0.0
 71
     0
 42
0.2
  3
txt
  4

  0
ENDTAB
  0
TABLE
  2
VIEW
 70
     0
  0
ENDTAB
  0
TABLE
  2
UCS
 70
     0
  0
ENDTAB
  0
TABLE
  2
APPID
 70
    11
  0
APPID
  2
ACAD
 70
     0
  0
APPID
  2
ACAD_MLEADERVER
 70
     0
  0
APPID
  2
ACAD_EXEMPT_FROM_CAD_STANDARDS
 70
     0
  0
APPID
  2
ACAD_NAV_VCDISPLAY
 70
     0
  0
APPID
  2
ACAECLAYERSTANDARD
 70
     0
  0
APPID
  2
ACCMTRANSPARENCY
 70
     0
  0
APPID
  2
ACAD_DSTYLE_DIMJAG
 70
     0
  0
APPID
  2
ACAD_DSTYLE_DIMTALN
 70
     0
  0
APPID
  2
ACDBATTR
 70
     0
  0
APPID
  2
ACADANNOTATIVE
 70
     0
  0
APPID
  2
DCO15
 70
     0
  0
ENDTAB
  0
TABLE
  2
DIMSTYLE
 70
     1
  0
DIMSTYLE
  2
STANDARD
 70
     0
  3

  4

  5

  6

  7

 40
1.0
 41
0.1875
 42
0.0625
 43
0.38
 44
0.125
 45
0.0
 46
0.0
 47
0.01
 48
0.01
140
0.15625
141
0.09
142
0.0
143
25.3999999999999986
144
1.0
145
0.0
146
1.0
147
0.09
 71
     1
 72
     0
 73
     1
 74
     1
 75
     0
 76
     0
 77
     0
 78
     4
170
     0
171
     2
172
     0
173
     0
174
     0
175
     0
176
     0
177
     0
178
     0
  0
ENDTAB
  0
ENDSEC
  0
SECTION
  2
BLOCKS
  0
BLOCK
  8
0
  2
$MODEL_SPACE
 70
     0
 10
0.0
 20
0.0
 30
0.0
  3
$MODEL_SPACE
  1

  0
ENDBLK
  5
21
  8
0
  0
BLOCK
 67
     1
  8
0
  2
$PAPER_SPACE
 70
     0
 10
0.0
 20
0.0
 30
0.0
  3
$PAPER_SPACE
  1

  0
ENDBLK
  5
1D
 67
     1
  8
0
  0
BLOCK
  8
0
  2
_FILLED
 70
     0
 10
0.0
 20
0.0
 30
0.0
  3
_FILLED
  1

  0
SOLID
  5
1B77F
  8
0
  6
BYBLOCK
 62
     0
 10
0.0
 20
0.0
 30
0.0
 11
-1.0
 21
0.1666666667
 31
0.0
 12
-1.0
 22
-0.1666666667
 32
0.0
 13
-1.0
 23
-0.1666666667
 33
0.0
  0
ENDBLK
  5
1B780
  8
0
  6
BYBLOCK
 62
     0
  0
ENDSEC
  0
SECTION
  2
ENTITIES
  0
ATTDEF
  5
159BF
  8
DEFPOINTS
 10
4503.6136106709718661
 20
459.5234607601764765
 30
0.0
 40
0.001
  1
K-77968BR
  3

  2
MODELNUMBER
 70
     0
1001
ACDBATTR
1070
     0
1070
     1
  0
ATTDEF
  5
159C0
  8
DEFPOINTS
 10
4503.6136106709718661
 20
459.5217939197971759
 30
0.0
 40
0.001
  1
COMPONENTS
  3

  2
TRADENAME
 70
     0
1001
ACDBATTR
1070
     0
1070
     1
  0
ATTDEF
  5
159C1
  8
DEFPOINTS
 10
4503.6136106709718661
 20
459.5201274268430893
 30
0.0
 40
0.001
  1
BATHROOM SINK SPOUT
  3

  2
PRODUCT
 70
     0
1001
ACDBATTR
1070
     0
1070
     1
  0
LINE
  5
1B871
  8
0
 10
4503.361725785195631
 20
459.9018374741971229
 30
0.0
 11
4502.4460255727972253
 21
459.6803062781971221
 31
0.0
  0
LINE
  5
1B872
  8
0
 10
4503.8502606537958854
 20
459.8009369671971172
 30
0.0
 11
4503.3738827009947272
 21
459.8009369671971172
 31
0.0
  0
LINE
  5
1B873
  8
0
 10
4497.11013859099603
 20
466.2406418737970739
 30
0.0
 11
4497.2789727568961098
 21
467.1725470864971044
 31
0.0
  0
LINE
  5
1B874
  8
0
 10
4503.8624175695949816
 20
459.9018374741971229
 30
0.0
 11
4504.7781177819961158
 21
459.6803062781971221
 31
0.0
  0
LINE
  5
1B875
  8
0
 10
4497.7051066083949991
 20
467.0953440056970862
 30
0.0
 11
4497.5362724424958287
 21
466.1634387929971126
 31
0.0
  0
LINE
  5
1B876
  8
0
 10
4497.11013859099603
 20
466.2406418737970739
 30
0.0
 11
4497.5362724424958287
 21
466.1634387929971126
 31
0.0
  0
LINE
  5
1B877
  8
0
 10
4503.3738827009947272
 20
459.8009369671971172
 30
0.0
 11
4503.3738827010956811
 21
459.8922707604971265
 31
0.0
  0
LINE
  5
1B878
  8
0
 10
4503.395541344096273
 20
459.8009369671971172
 30
0.0
 11
4503.395541344096273
 21
466.5840350202969944
 31
0.0
  0
LINE
  5
1B879
  8
0
 10
4503.8286122101962974
 20
466.5840350202969944
 30
0.0
 11
4503.8286122101962974
 21
459.8009369671971172
 31
0.0
  0
LINE
  5
1B87A
  8
0
 10
4503.8502606537958854
 20
459.8009369671971172
 30
0.0
 11
4503.8502606537958854
 21
459.8922709088971033
 31
0.0
  0
ARC
  5
1B87B
  8
0
 10
4500.5273523676960394
 20
466.5840350202969944
 30
0.0
 40
3.301259842499999
 50
0.0
 51
169.731053802703002
  0
ARC
  5
1B87C
  8
0
 10
4500.5273523676960394
 20
466.5840350202969944
 30
0.0
 40
2.868188976399999
 50
0.0
 51
169.731053802703002
  0
LINE
  5
1B87D
  8
0
 10
4502.4309693151963074
 20
459.5194409041970971
 30
0.0
 11
4504.7931740395961242
 21
459.5194409041970971
 31
0.0
  0
LINE
  5
1B87E
  8
0
 10
4504.778117782057052
 20
459.6803062782886968
 30
0.0
 11
4502.4460255728363336
 21
459.6803062782886968
 31
0.0
  0
LINE
  5
1B87F
  8
0
 10
4502.4309693151963074
 20
459.5194409041970971
 30
0.0
 11
4502.4309693151963074
 21
459.6611731876969884
 31
0.0
  0
LINE
  5
1B880
  8
0
 10
4504.7931740395961242
 20
459.5194409041970971
 30
0.0
 11
4504.7931740395961242
 21
459.6611731876969884
 31
0.0
  0
ARC
  5
1B881
  8
0
 10
4504.7734890002948305
 20
459.6611731876969884
 30
0.0
 40
0.0196850394
 50
0.0
 51
76.4000000001129678
  0
ARC
  5
1B882
  8
0
 10
4502.4506543545949171
 20
459.6611731876969884
 30
0.0
 40
0.0196850394
 50
103.5999999998870038
 51
180.0
  0
ARC
  5
1B883
  8
0
 10
4503.3641852374630616
 20
459.8924552604028122
 30
0.0
 40
0.0096992185836906
 50
358.9100458516733738
 51
104.6889981998268979
  0
ARC
  5
1B884
  8
0
 10
4503.8601468212245891
 20
459.8922154638855204
 30
0.0
 40
0.0098863229057577
 50
76.7214235175849808
 51
179.6786690218206957
  0
LINE
  5
1B885
  8
0
 10
4497.6099662923015785
 20
466.5702029240140973
 30
0.0
 11
4497.6226261448800869
 21
466.5679093263127015
 31
0.0
  0
LINE
  5
1B886
  8
0
 10
4497.6226261448800869
 20
466.5679093263127015
 30
0.0
 11
4497.601570759081369
 21
466.4516910032177748
 31
0.0
  0
LINE
  5
1B887
  8
0
 10
4497.601570759081369
 20
466.4516910032177748
 30
0.0
 11
4497.588910906694764
 21
466.4539846008970017
 31
0.0
  0
LINE
  5
1B888
  8
0
 10
4497.6226261449291997
 20
466.5679093263038908
 30
0.0
 11
4497.6272304742960841
 21
466.5550718607969998
 31
0.0
  0
LINE
  5
1B889
  8
0
 10
4497.6272304742960841
 20
466.5550718607969998
 30
0.0
 11
4497.6103861657957168
 21
466.4620972022971159
 31
0.0
  0
LINE
  5
1B88A
  8
0
 10
4497.6103861657957168
 20
466.4620972022971159
 30
0.0
 11
4497.601570759081369
 21
466.4516910032177748
 31
0.0
  0
ENDSEC
  0
EOF
