  0
SECTION
  2
HEADER
  9
$ACADVER
  1
AC1009
  9
$INSBASE
 10
4494.907524063353776
 20
459.9607500989744722
 30
0.0
  9
$EXTMIN
 10
4488.867007326827661
 20
456.7690975921656786
 30
0.0
  9
$EXTMAX
 10
4496.088626425655093
 20
470.4320648823197075
 30
0.0
  9
$LIMMIN
 10
0.0
 20
0.0
  9
$LIMMAX
 10
11.6929133858000007
 20
8.2677165353999982
  9
$ORTHOMODE
 70
     0
  9
$REGENMODE
 70
     1
  9
$FILLMODE
 70
     1
  9
$QTEXTMODE
 70
     0
  9
$MIRRTEXT
 70
     0
  9
$DRAGMODE
 70
     2
  9
$LTSCALE
 40
0.6431102362
  9
$OSMODE
 70
  2039
  9
$ATTMODE
 70
     1
  9
$TEXTSIZE
 40
0.2
  9
$TRACEWID
 40
0.05
  9
$TEXTSTYLE
  7
STANDARD
  9
$CLAYER
  8
0
  9
$CELTYPE
  6
BYLAYER
  9
$CECOLOR
 62
   256
  9
$DIMSCALE
 40
1.0
  9
$DIMASZ
 40
0.1875
  9
$DIMEXO
 40
0.0625
  9
$DIMDLI
 40
0.4443307087
  9
$DIMRND
 40
0.0
  9
$DIMDLE
 40
0.0
  9
$DIMEXE
 40
0.125
  9
$DIMTP
 40
0.01
  9
$DIMTM
 40
0.01
  9
$DIMTXT
 40
2.0
  9
$DIMCEN
 40
0.1052362205
  9
$DIMTSZ
 40
0.0
  9
$DIMTOL
 70
     1
  9
$DIMLIM
 70
     0
  9
$DIMTIH
 70
     1
  9
$DIMTOH
 70
     1
  9
$DIMSE1
 70
     0
  9
$DIMSE2
 70
     0
  9
$DIMTAD
 70
     0
  9
$DIMZIN
 70
     0
  9
$DIMBLK
  1

  9
$DIMASO
 70
     1
  9
$DIMSHO
 70
     1
  9
$DIMPOST
  1
\X
  9
$DIMAPOST
  1

  9
$DIMALT
 70
     1
  9
$DIMALTD
 70
     2
  9
$DIMALTF
 40
25.3999999999999986
  9
$DIMLFAC
 40
1.0
  9
$DIMTOFL
 70
     0
  9
$DIMTVP
 40
0.0
  9
$DIMTIX
 70
     0
  9
$DIMSOXD
 70
     0
  9
$DIMSAH
 70
     0
  9
$DIMBLK1
  1

  9
$DIMBLK2
  1

  9
$DIMSTYLE
  2
STANDARD
  9
$DIMCLRD
 70
     0
  9
$DIMCLRE
 70
     0
  9
$DIMCLRT
 70
     0
  9
$DIMTFAC
 40
1.0
  9
$DIMGAP
 40
0.09
  9
$LUNITS
 70
     2
  9
$LUPREC
 70
     4
  9
$SKETCHINC
 40
0.1
  9
$FILLETRAD
 40
0.0
  9
$AUNITS
 70
     0
  9
$AUPREC
 70
     0
  9
$MENU
  1
.
  9
$ELEVATION
 40
0.0
  9
$PELEVATION
 40
0.0
  9
$THICKNESS
 40
0.0
  9
$LIMCHECK
 70
     0
  9
$BLIPMODE
 70
     0
  9
$CHAMFERA
 40
0.0
  9
$CHAMFERB
 40
0.0
  9
$SKPOLY
 70
     0
  9
$TDCREATE
 40
2458060.468368056230247
  9
$TDUPDATE
 40
2459646.6649074079468846
  9
$TDINDWG
 40
1.5112412037
  9
$TDUSRTIMER
 40
1.5112412037
  9
$USRTIMER
 70
     1
  9
$ANGBASE
 50
0.0
  9
$ANGDIR
 70
     0
  9
$PDMODE
 70
     0
  9
$PDSIZE
 40
0.3125
  9
$PLINEWID
 40
0.0
  9
$COORDS
 70
     1
  9
$SPLFRAME
 70
     0
  9
$SPLINETYPE
 70
     6
  9
$SPLINESEGS
 70
     8
  9
$ATTDIA
 70
     1
  9
$ATTREQ
 70
     1
  9
$HANDLING
 70
     1
  9
$HANDSEED
  5
1B8CF
  9
$SURFTAB1
 70
     6
  9
$SURFTAB2
 70
     6
  9
$SURFTYPE
 70
     6
  9
$SURFU
 70
     6
  9
$SURFV
 70
     6
  9
$UCSNAME
  2

  9
$UCSORG
 10
0.0
 20
0.0
 30
0.0
  9
$UCSXDIR
 10
1.0
 20
0.0
 30
0.0
  9
$UCSYDIR
 10
0.0
 20
1.0
 30
0.0
  9
$PUCSNAME
  2

  9
$PUCSORG
 10
0.0
 20
0.0
 30
0.0
  9
$PUCSXDIR
 10
1.0
 20
0.0
 30
0.0
  9
$PUCSYDIR
 10
0.0
 20
1.0
 30
0.0
  9
$USERI1
 70
     0
  9
$USERI2
 70
     0
  9
$USERI3
 70
     0
  9
$USERI4
 70
     0
  9
$USERI5
 70
     0
  9
$USERR1
 40
0.0
  9
$USERR2
 40
0.0
  9
$USERR3
 40
0.0
  9
$USERR4
 40
0.0
  9
$USERR5
 40
0.0
  9
$WORLDVIEW
 70
     1
  9
$SHADEDGE
 70
     3
  9
$SHADEDIF
 70
    70
  9
$TILEMODE
 70
     1
  9
$MAXACTVP
 70
    64
  9
$PLIMCHECK
 70
     0
  9
$PEXTMIN
 10
1.0000000000000000E+20
 20
1.0000000000000000E+20
 30
1.0000000000000000E+20
  9
$PEXTMAX
 10
-1.0000000000000000E+20
 20
-1.0000000000000000E+20
 30
-1.0000000000000000E+20
  9
$PLIMMIN
 10
0.0
 20
0.0
  9
$PLIMMAX
 10
12.0
 20
9.0
  9
$UNITMODE
 70
     0
  9
$VISRETAIN
 70
     1
  9
$PLINEGEN
 70
     0
  9
$PSLTSCALE
 70
     1
  0
ENDSEC
  0
SECTION
  2
TABLES
  0
TABLE
  2
VPORT
 70
     1
  0
VPORT
  2
*ACTIVE
 70
     0
 10
0.0
 20
0.0
 11
1.0
 21
1.0
 12
592.8119920160163474
 22
332.3758347574008098
 13
0.0
 23
0.0
 14
1.0
 24
1.0
 15
0.0
 25
0.0
 16
0.0
 26
0.0
 36
60.4960186965801583
 17
3911.3653564453120453
 27
132.5796051025390057
 37
0.0
 40
28.6232809660559795
 41
2.0416666666666661
 42
50.0
 43
0.0
 44
0.0
 50
0.0
 51
0.0
 71
     0
 72
   100
 73
     1
 74
     1
 75
     0
 76
     0
 77
     0
 78
     0
  0
ENDTAB
  0
TABLE
  2
LTYPE
 70
     2
  0
LTYPE
  2
CONTINUOUS
 70
     0
  3
Solid line
 72
    65
 73
     0
 40
0.0
  0
LTYPE
  2
PHANTOM2
 70
     0
  3
___ _ _ ___ _ _ ___ _ _ ___ _ _
 72
    65
 73
     6
 40
1.25
 49
0.625
 49
-0.125
 49
0.125
 49
-0.125
 49
0.125
 49
-0.125
  0
ENDTAB
  0
TABLE
  2
LAYER
 70
     2
  0
LAYER
  2
0
 70
     0
 62
   255
  6
CONTINUOUS
  0
LAYER
  2
DEFPOINTS
 70
     0
 62
     7
  6
CONTINUOUS
  0
ENDTAB
  0
TABLE
  2
STYLE
 70
     1
  0
STYLE
  2
STANDARD
 70
     0
 40
0.0
 41
0.8
 50
0.0
 71
     0
 42
0.2
  3
txt
  4

  0
ENDTAB
  0
TABLE
  2
VIEW
 70
     0
  0
ENDTAB
  0
TABLE
  2
UCS
 70
     0
  0
ENDTAB
  0
TABLE
  2
APPID
 70
    11
  0
APPID
  2
ACAD
 70
     0
  0
APPID
  2
ACAD_MLEADERVER
 70
     0
  0
APPID
  2
ACAD_EXEMPT_FROM_CAD_STANDARDS
 70
     0
  0
APPID
  2
ACAD_NAV_VCDISPLAY
 70
     0
  0
APPID
  2
ACAECLAYERSTANDARD
 70
     0
  0
APPID
  2
ACCMTRANSPARENCY
 70
     0
  0
APPID
  2
ACAD_DSTYLE_DIMJAG
 70
     0
  0
APPID
  2
ACAD_DSTYLE_DIMTALN
 70
     0
  0
APPID
  2
ACDBATTR
 70
     0
  0
APPID
  2
ACADANNOTATIVE
 70
     0
  0
APPID
  2
DCO15
 70
     0
  0
ENDTAB
  0
TABLE
  2
DIMSTYLE
 70
     1
  0
DIMSTYLE
  2
STANDARD
 70
     0
  3

  4

  5

  6

  7

 40
1.0
 41
0.1875
 42
0.0625
 43
0.38
 44
0.125
 45
0.0
 46
0.0
 47
0.01
 48
0.01
140
0.15625
141
0.09
142
0.0
143
25.3999999999999986
144
1.0
145
0.0
146
1.0
147
0.09
 71
     1
 72
     0
 73
     1
 74
     1
 75
     0
 76
     0
 77
     0
 78
     4
170
     0
171
     2
172
     0
173
     0
174
     0
175
     0
176
     0
177
     0
178
     0
  0
ENDTAB
  0
ENDSEC
  0
SECTION
  2
BLOCKS
  0
BLOCK
  8
0
  2
$MODEL_SPACE
 70
     0
 10
0.0
 20
0.0
 30
0.0
  3
$MODEL_SPACE
  1

  0
ENDBLK
  5
21
  8
0
  0
BLOCK
 67
     1
  8
0
  2
$PAPER_SPACE
 70
     0
 10
0.0
 20
0.0
 30
0.0
  3
$PAPER_SPACE
  1

  0
ENDBLK
  5
1D
 67
     1
  8
0
  0
BLOCK
  8
0
  2
_FILLED
 70
     0
 10
0.0
 20
0.0
 30
0.0
  3
_FILLED
  1

  0
SOLID
  5
1B77F
  8
0
  6
BYBLOCK
 62
     0
 10
0.0
 20
0.0
 30
0.0
 11
-1.0
 21
0.1666666667
 31
0.0
 12
-1.0
 22
-0.1666666667
 32
0.0
 13
-1.0
 23
-0.1666666667
 33
0.0
  0
ENDBLK
  5
1B780
  8
0
  6
BYBLOCK
 62
     0
  0
ENDSEC
  0
SECTION
  2
ENTITIES
  0
ATTDEF
  5
159BF
  8
DEFPOINTS
 10
4494.9082945300760912
 20
459.9642927216773955
 30
0.0
 40
0.001
  1
K-77968BR
  3

  2
MODELNUMBER
 70
     0
1001
ACDBATTR
1070
     0
1070
     1
  0
ATTDEF
  5
159C0
  8
DEFPOINTS
 10
4494.9082945300760912
 20
459.9626258812982087
 30
0.0
 40
0.001
  1
COMPONENTS
  3

  2
TRADENAME
 70
     0
1001
ACDBATTR
1070
     0
1070
     1
  0
ATTDEF
  5
159C1
  8
DEFPOINTS
 10
4494.9082945300760912
 20
459.9609593883440084
 30
0.0
 40
0.001
  1
BATHROOM SINK SPOUT
  3

  2
PRODUCT
 70
     0
1001
ACDBATTR
1070
     0
1070
     1
  0
LINE
  5
1B7CA
  8
0
 10
4493.7264217011543224
 20
459.9607500989744722
 30
0.0
 11
4496.0886264255550486
 21
459.9607500989744722
 31
0.0
  0
LINE
  5
1B7CB
  8
0
 10
4493.7414779587543308
 20
460.1216154729744972
 30
0.0
 11
4494.2389647221543783
 21
460.2419701875745091
 31
0.0
  0
LINE
  5
1B7CC
  8
0
 10
4494.2389647221543783
 20
460.2419701875745091
 30
0.0
 11
4494.2412791130536789
 21
460.2422461619743785
 31
0.0
  0
LINE
  5
1B7CD
  8
0
 10
4494.2412791130536789
 20
460.2422461619743785
 30
0.0
 11
4494.2880871157540241
 21
460.2422461619743785
 31
0.0
  0
LINE
  5
1B7CE
  8
0
 10
4495.5269609848546679
 20
460.2422461619743785
 30
0.0
 11
4495.5737690136547826
 21
460.2422461619743785
 31
0.0
  0
LINE
  5
1B7CF
  8
0
 10
4495.5760834045549927
 20
460.2419701875745091
 30
0.0
 11
4495.5737690136547826
 21
460.2422461619743785
 31
0.0
  0
LINE
  5
1B7D0
  8
0
 10
4496.0735701679550402
 20
460.1216154729744972
 30
0.0
 11
4495.5760834045549927
 21
460.2419701875745091
 31
0.0
  0
LINE
  5
1B7D1
  8
0
 10
4494.5153240549543625
 20
466.6547258590745173
 30
0.0
 11
4494.5335083153549931
 21
466.6603406285743745
 31
0.0
  0
LINE
  5
1B7D2
  8
0
 10
4494.5346448316549868
 20
466.6522693973744254
 30
0.0
 11
4494.5471465106547839
 21
466.6561295514745211
 31
0.0
  0
LINE
  5
1B7D3
  8
0
 10
4493.7264217011543224
 20
459.9607500989744722
 30
0.0
 11
4493.7264217011543224
 21
460.1024823824744772
 31
0.0
  0
LINE
  5
1B7D4
  8
0
 10
4494.282524063353776
 20
460.2422461619743785
 30
0.0
 11
4494.282524063353776
 21
470.3167615378744131
 31
0.0
  0
LINE
  5
1B7D5
  8
0
 10
4494.3346894177548165
 20
466.6465078360744769
 30
0.0
 11
4494.3346894177548165
 21
466.6401912202744029
 31
0.0
  0
LINE
  5
1B7D6
  8
0
 10
4494.5153240549543625
 20
466.6717742987744941
 30
0.0
 11
4494.5153240549543625
 21
466.6547258590745173
 31
0.0
  0
LINE
  5
1B7D7
  8
0
 10
4494.5335083153549931
 20
466.6603406285743745
 30
0.0
 11
4494.5335083153549931
 21
466.6717742987744941
 31
0.0
  0
LINE
  5
1B7D8
  8
0
 10
4494.8504374491540148
 20
466.649462012674519
 30
0.0
 11
4494.8504374491540148
 21
466.6561295514745211
 31
0.0
  0
LINE
  5
1B7D9
  8
0
 10
4494.8701224885544434
 20
466.6561295514745211
 30
0.0
 11
4494.8701224885544434
 21
466.649462012674519
 31
0.0
  0
LINE
  5
1B7DA
  8
0
 10
4494.9449256381540181
 20
466.649462012674519
 30
0.0
 11
4494.9449256381540181
 21
466.6561295514745211
 31
0.0
  0
LINE
  5
1B7DB
  8
0
 10
4494.9646106775553562
 20
466.6561295514745211
 30
0.0
 11
4494.9646106775553562
 21
466.649462012674519
 31
0.0
  0
LINE
  5
1B7DC
  8
0
 10
4495.2815398113543779
 20
466.6717742987744941
 30
0.0
 11
4495.2815398113543779
 21
466.6603406285743745
 31
0.0
  0
LINE
  5
1B7DD
  8
0
 10
4495.2997240718550529
 20
466.6547258590745173
 30
0.0
 11
4495.2997240718550529
 21
466.6717742987744941
 31
0.0
  0
LINE
  5
1B7DE
  8
0
 10
4495.5325240633546855
 20
470.3167615378744131
 30
0.0
 11
4495.5325240633546855
 21
460.2422461619743785
 31
0.0
  0
LINE
  5
1B7DF
  8
0
 10
4496.0886264255550486
 20
459.9607500989744722
 30
0.0
 11
4496.0886264255550486
 21
460.1024823824744772
 31
0.0
  0
LINE
  5
1B7E0
  8
0
 10
4495.5226815436535617
 20
466.6047479877744877
 30
0.0
 11
4494.2923665830548998
 21
466.6047479877744877
 31
0.0
  0
LINE
  5
1B7E1
  8
0
 10
4494.4764217010551874
 20
466.6149247575743857
 30
0.0
 11
4495.338626425655093
 21
466.6149247575743857
 31
0.0
  0
LINE
  5
1B7E2
  8
0
 10
4494.4764217011543224
 20
466.6423794992745115
 30
0.0
 11
4495.3386264254550042
 21
466.6423794992745115
 31
0.0
  0
LINE
  5
1B7E3
  8
0
 10
4494.8504374491540148
 20
466.649462012674519
 30
0.0
 11
4494.8701224885544434
 21
466.649462012674519
 31
0.0
  0
LINE
  5
1B7E4
  8
0
 10
4494.9449256381540181
 20
466.649462012674519
 30
0.0
 11
4494.9646106775553562
 21
466.649462012674519
 31
0.0
  0
LINE
  5
1B7E5
  8
0
 10
4494.4744531972546611
 20
466.6522693973744254
 30
0.0
 11
4494.5346448316549868
 21
466.6522693973744254
 31
0.0
  0
LINE
  5
1B7E6
  8
0
 10
4495.2804032951544286
 20
466.6522693973744254
 30
0.0
 11
4495.3405949295547543
 21
466.6522693973744254
 31
0.0
  0
LINE
  5
1B7E7
  8
0
 10
4494.5153240549543625
 20
466.6547258590745173
 30
0.0
 11
4494.4744531972546611
 21
466.6547258590745173
 31
0.0
  0
LINE
  5
1B7E8
  8
0
 10
4495.2997240718550529
 20
466.6547258590745173
 30
0.0
 11
4495.3405949295547543
 21
466.6547258590745173
 31
0.0
  0
LINE
  5
1B7E9
  8
0
 10
4494.5471465106547839
 20
466.6561295514745211
 30
0.0
 11
4494.8504374491540148
 21
466.6561295514745211
 31
0.0
  0
LINE
  5
1B7EA
  8
0
 10
4494.8701224885544434
 20
466.6561295514745211
 30
0.0
 11
4494.9449256381540181
 21
466.6561295514745211
 31
0.0
  0
LINE
  5
1B7EB
  8
0
 10
4494.9646106775553562
 20
466.6561295514745211
 30
0.0
 11
4495.2679016160536776
 21
466.6561295514745211
 31
0.0
  0
LINE
  5
1B7EC
  8
0
 10
4494.5335083153549931
 20
466.6603406285743745
 30
0.0
 11
4495.2815398113543779
 21
466.6603406285743745
 31
0.0
  0
LINE
  5
1B7ED
  8
0
 10
4495.338626425655093
 20
466.6717742987744941
 30
0.0
 11
4494.4764217010551874
 21
466.6717742987744941
 31
0.0
  0
LINE
  5
1B7EE
  8
0
 10
4494.2923665830548998
 20
466.6819510685745058
 30
0.0
 11
4495.5226815436535617
 21
466.6819510685745058
 31
0.0
  0
LINE
  5
1B7EF
  8
0
 10
4495.2679016160536776
 20
466.6561295514745211
 30
0.0
 11
4495.2804032951544286
 21
466.6522693973744254
 31
0.0
  0
LINE
  5
1B7F0
  8
0
 10
4495.2815398113543779
 20
466.6603406285743745
 30
0.0
 11
4495.2997240718550529
 21
466.6547258590745173
 31
0.0
  0
LINE
  5
1B7F1
  8
0
 10
4494.2923665830548998
 20
470.3266040575745137
 30
0.0
 11
4495.5226815436535617
 21
470.3266040575745137
 31
0.0
  0
ARC
  5
1B7F2
  8
0
 10
4496.0689413862537549
 20
460.1024823824744772
 30
0.0
 40
0.0196850394
 50
0.0
 51
76.4000000001129678
  0
ARC
  5
1B7F3
  8
0
 10
4493.7461067405538415
 20
460.1024823824744772
 30
0.0
 40
0.0196850394
 50
103.5999999998870038
 51
180.0
  0
ARC
  5
1B7F4
  8
0
 10
4494.2923665830548998
 20
470.3167615378744131
 30
0.0
 40
0.0098425197
 50
90.0
 51
180.0
  0
ARC
  5
1B7F5
  8
0
 10
4495.5226815436535617
 20
470.3167615378744131
 30
0.0
 40
0.0098425197
 50
0.0
 51
90.0
  0
ARC
  5
1B7F6
  8
0
 10
4495.1489071067862824
 20
456.9107074119384038
 30
0.0
 40
3.4409535742221058
 50
94.0226052715486986
 51
104.4875142696330954
  0
ARC
  5
1B7F7
  8
0
 10
4494.6661411105933439
 20
456.9107081909451153
 30
0.0
 40
3.4409527907740078
 50
75.5124843678720197
 51
85.9773953245493345
  0
ARC
  5
1B7F8
  8
0
 10
4494.2908081673040215
 20
466.6622098790822974
 30
0.0
 40
0.0198026064500363
 50
85.4862976979350151
 51
114.729451767603905
  0
ARC
  5
1B7F9
  8
0
 10
4494.2908168117319292
 20
466.6245376682070969
 30
0.0
 40
0.0198502705970954
 50
245.3064369387894885
 51
274.4778135956464098
  0
ARC
  5
1B7FA
  8
0
 10
4495.5242180002569512
 20
466.6620866991897856
 30
0.0
 40
0.019923701210846
 50
65.3613791249765654
 51
94.4228714094738137
  0
ARC
  5
1B7FB
  8
0
 10
4495.5242399594053495
 20
466.6244891772665824
 30
0.0
 40
0.0198026064500967
 50
265.486297697987311
 51
294.7294517675471184
  0
ARC
  5
1B7FC
  8
0
 10
4494.3589920284339314
 20
466.6306336473721785
 30
0.0
 40
0.0290276894161731
 50
99.8126914416391315
 51
146.8478875999859952
  0
ARC
  5
1B7FD
  8
0
 10
4494.4658829466243333
 20
466.1711265472961259
 30
0.0
 40
0.5007586608390583
 50
88.794088289674491
 51
102.905119419936895
  0
ARC
  5
1B7FE
  8
0
 10
4494.3589920284339314
 20
466.6560654089767013
 30
0.0
 40
0.0290276894161731
 50
213.1521124000140048
 51
260.1873085583608827
  0
ARC
  5
1B7FF
  8
0
 10
4494.4658829466243333
 20
467.1155725090529245
 30
0.0
 40
0.5007586608390583
 50
257.0948805800630907
 51
271.2059117103254948
  0
LINE
  5
1B800
  8
0
 10
4495.480358708953645
 20
466.6465078360744769
 30
0.0
 11
4495.480358708953645
 21
466.6401912202744029
 31
0.0
  0
ARC
  5
1B801
  8
0
 10
4495.4560560982754396
 20
466.6306336473721785
 30
0.0
 40
0.0290276894161731
 50
33.1521124000139693
 51
80.1873085583608685
  0
ARC
  5
1B802
  8
0
 10
4495.3491651800850377
 20
466.1711265472961259
 30
0.0
 40
0.5007586608390583
 50
77.0948805800631192
 51
91.2059117103255232
  0
ARC
  5
1B803
  8
0
 10
4495.4560560982754396
 20
466.6560654089767013
 30
0.0
 40
0.0290276894161731
 50
279.8126914416391173
 51
326.8478875999861089
  0
ARC
  5
1B804
  8
0
 10
4495.3491651800850377
 20
467.1155725090529245
 30
0.0
 40
0.5007586608390583
 50
268.7940882896745052
 51
282.9051194199369093
  0
ARC
  5
1B805
  8
0
 10
4494.4599867143588199
 20
466.9232204024140174
 30
0.0
 40
0.2813213850158186
 50
249.0731497944472892
 51
273.3491653867400828
  0
ARC
  5
1B806
  8
0
 10
4495.3549012825624231
 20
466.9242561094649204
 30
0.0
 40
0.2823460542424608
 50
266.6955523118547831
 51
290.8821325894397205
  0
ARC
  5
1B807
  8
0
 10
4494.4638709659293454
 20
466.9596363465457785
 30
0.0
 40
0.3075490612288712
 50
253.872059834839888
 51
271.9718379031772884
  0
ARC
  5
1B808
  8
0
 10
4495.351092175273152
 20
466.9603207878128046
 30
0.0
 40
0.308230192094572
 50
268.048328110523812
 51
286.1077741913986756
  0
ARC
  5
1B809
  8
0
 10
4494.4643902902289483
 20
466.9038356267054155
 30
0.0
 40
0.2493129326745453
 50
252.5249103778427866
 51
272.3132324526948196
  0
ARC
  5
1B80A
  8
0
 10
4495.3506785560975914
 20
466.9036799424458763
 30
0.0
 40
0.2491582131931679
 50
267.6805618105502731
 51
287.4812955537046264
  0
LINE
  5
1B80B
  8
0
 10
4493.7414779588107194
 20
460.1216154729880827
 30
0.0
 11
4496.0735701678549958
 21
460.1216154729744972
 31
0.0
  0
ENDSEC
  0
EOF
