  0
SECTION
  2
HEADER
  9
$ACADVER
  1
AC1009
  9
$INSBASE
 10
3506.161411578616935
 20
150.7787205301972051
 30
0.0
  9
$EXTMIN
 10
3504.9803092163670044
 20
150.773678383373209
 30
0.0
  9
$EXTMAX
 10
3507.3425139408677751
 20
161.448011868897197
 30
0.0
  9
$LIMMIN
 10
0.0
 20
0.0
  9
$LIMMAX
 10
11.6929133858000007
 20
8.2677165353999982
  9
$ORTHOMODE
 70
     0
  9
$REGENMODE
 70
     1
  9
$FILLMODE
 70
     1
  9
$QTEXTMODE
 70
     0
  9
$MIRRTEXT
 70
     0
  9
$DRAGMODE
 70
     2
  9
$LTSCALE
 40
0.6431102362
  9
$OSMODE
 70
     7
  9
$ATTMODE
 70
     1
  9
$TEXTSIZE
 40
0.2
  9
$TRACEWID
 40
0.05
  9
$TEXTSTYLE
  7
STANDARD
  9
$CLAYER
  8
0
  9
$CELTYPE
  6
BYLAYER
  9
$CECOLOR
 62
   256
  9
$DIMSCALE
 40
1.0
  9
$DIMASZ
 40
0.1875
  9
$DIMEXO
 40
0.0625
  9
$DIMDLI
 40
0.4443307087
  9
$DIMRND
 40
0.0
  9
$DIMDLE
 40
0.0
  9
$DIMEXE
 40
0.125
  9
$DIMTP
 40
0.01
  9
$DIMTM
 40
0.01
  9
$DIMTXT
 40
2.0
  9
$DIMCEN
 40
0.1052362205
  9
$DIMTSZ
 40
0.0
  9
$DIMTOL
 70
     1
  9
$DIMLIM
 70
     0
  9
$DIMTIH
 70
     1
  9
$DIMTOH
 70
     1
  9
$DIMSE1
 70
     0
  9
$DIMSE2
 70
     0
  9
$DIMTAD
 70
     0
  9
$DIMZIN
 70
     0
  9
$DIMBLK
  1

  9
$DIMASO
 70
     1
  9
$DIMSHO
 70
     1
  9
$DIMPOST
  1
\X
  9
$DIMAPOST
  1

  9
$DIMALT
 70
     1
  9
$DIMALTD
 70
     2
  9
$DIMALTF
 40
25.3999999999999986
  9
$DIMLFAC
 40
1.0
  9
$DIMTOFL
 70
     0
  9
$DIMTVP
 40
0.0
  9
$DIMTIX
 70
     0
  9
$DIMSOXD
 70
     0
  9
$DIMSAH
 70
     0
  9
$DIMBLK1
  1

  9
$DIMBLK2
  1

  9
$DIMSTYLE
  2
STANDARD
  9
$DIMCLRD
 70
     0
  9
$DIMCLRE
 70
     0
  9
$DIMCLRT
 70
     0
  9
$DIMTFAC
 40
1.0
  9
$DIMGAP
 40
0.09
  9
$LUNITS
 70
     2
  9
$LUPREC
 70
     4
  9
$SKETCHINC
 40
0.1
  9
$FILLETRAD
 40
0.0
  9
$AUNITS
 70
     0
  9
$AUPREC
 70
     0
  9
$MENU
  1
.
  9
$ELEVATION
 40
0.0
  9
$PELEVATION
 40
0.0
  9
$THICKNESS
 40
0.0
  9
$LIMCHECK
 70
     0
  9
$BLIPMODE
 70
     0
  9
$CHAMFERA
 40
0.0
  9
$CHAMFERB
 40
0.0
  9
$SKPOLY
 70
     0
  9
$TDCREATE
 40
2458060.468368056230247
  9
$TDUPDATE
 40
2459590.6365972221828997
  9
$TDINDWG
 40
0.6874376156999999
  9
$TDUSRTIMER
 40
0.6874376156999999
  9
$USRTIMER
 70
     1
  9
$ANGBASE
 50
0.0
  9
$ANGDIR
 70
     0
  9
$PDMODE
 70
     0
  9
$PDSIZE
 40
0.3125
  9
$PLINEWID
 40
0.0
  9
$COORDS
 70
     1
  9
$SPLFRAME
 70
     0
  9
$SPLINETYPE
 70
     6
  9
$SPLINESEGS
 70
     8
  9
$ATTDIA
 70
     1
  9
$ATTREQ
 70
     1
  9
$HANDLING
 70
     1
  9
$HANDSEED
  5
C60D
  9
$SURFTAB1
 70
     6
  9
$SURFTAB2
 70
     6
  9
$SURFTYPE
 70
     6
  9
$SURFU
 70
     6
  9
$SURFV
 70
     6
  9
$UCSNAME
  2

  9
$UCSORG
 10
0.0
 20
0.0
 30
0.0
  9
$UCSXDIR
 10
1.0
 20
0.0
 30
0.0
  9
$UCSYDIR
 10
0.0
 20
1.0
 30
0.0
  9
$PUCSNAME
  2

  9
$PUCSORG
 10
0.0
 20
0.0
 30
0.0
  9
$PUCSXDIR
 10
1.0
 20
0.0
 30
0.0
  9
$PUCSYDIR
 10
0.0
 20
1.0
 30
0.0
  9
$USERI1
 70
     0
  9
$USERI2
 70
     0
  9
$USERI3
 70
     0
  9
$USERI4
 70
     0
  9
$USERI5
 70
     0
  9
$USERR1
 40
0.0
  9
$USERR2
 40
0.0
  9
$USERR3
 40
0.0
  9
$USERR4
 40
0.0
  9
$USERR5
 40
0.0
  9
$WORLDVIEW
 70
     1
  9
$SHADEDGE
 70
     3
  9
$SHADEDIF
 70
    70
  9
$TILEMODE
 70
     1
  9
$MAXACTVP
 70
    64
  9
$PLIMCHECK
 70
     0
  9
$PEXTMIN
 10
1.0000000000000000E+20
 20
1.0000000000000000E+20
 30
1.0000000000000000E+20
  9
$PEXTMAX
 10
-1.0000000000000000E+20
 20
-1.0000000000000000E+20
 30
-1.0000000000000000E+20
  9
$PLIMMIN
 10
0.0
 20
0.0
  9
$PLIMMAX
 10
12.0
 20
9.0
  9
$UNITMODE
 70
     0
  9
$VISRETAIN
 70
     1
  9
$PLINEGEN
 70
     0
  9
$PSLTSCALE
 70
     1
  0
ENDSEC
  0
SECTION
  2
TABLES
  0
TABLE
  2
VPORT
 70
     1
  0
VPORT
  2
*ACTIVE
 70
     0
 10
0.0
 20
0.0
 11
1.0
 21
1.0
 12
236.1336844241344011
 22
-36.9317421541382203
 13
0.0
 23
0.0
 14
1.0
 24
1.0
 15
0.0
 25
0.0
 16
0.0
 26
0.0
 36
116.782910842256598
 17
3270.0277271544828182
 27
193.0425872802734091
 37
0.0
 40
10.7526154904911699
 41
2.2831541218637992
 42
50.0
 43
0.0
 44
0.0
 50
0.0
 51
0.0
 71
     0
 72
   100
 73
     1
 74
     1
 75
     0
 76
     0
 77
     0
 78
     0
  0
ENDTAB
  0
TABLE
  2
LTYPE
 70
     2
  0
LTYPE
  2
CONTINUOUS
 70
     0
  3
Solid line
 72
    65
 73
     0
 40
0.0
  0
LTYPE
  2
PHANTOM2
 70
     0
  3
___ _ _ ___ _ _ ___ _ _ ___ _ _
 72
    65
 73
     6
 40
1.25
 49
0.625
 49
-0.125
 49
0.125
 49
-0.125
 49
0.125
 49
-0.125
  0
ENDTAB
  0
TABLE
  2
LAYER
 70
     2
  0
LAYER
  2
0
 70
     0
 62
   255
  6
CONTINUOUS
  0
LAYER
  2
DEFPOINTS
 70
     0
 62
     7
  6
CONTINUOUS
  0
ENDTAB
  0
TABLE
  2
STYLE
 70
     1
  0
STYLE
  2
STANDARD
 70
     0
 40
0.0
 41
0.8
 50
0.0
 71
     0
 42
0.2
  3
txt
  4

  0
ENDTAB
  0
TABLE
  2
VIEW
 70
     0
  0
ENDTAB
  0
TABLE
  2
UCS
 70
     0
  0
ENDTAB
  0
TABLE
  2
APPID
 70
    10
  0
APPID
  2
ACAD
 70
     0
  0
APPID
  2
ACAD_MLEADERVER
 70
     0
  0
APPID
  2
ACAD_EXEMPT_FROM_CAD_STANDARDS
 70
     0
  0
APPID
  2
ACAD_NAV_VCDISPLAY
 70
     0
  0
APPID
  2
ACAECLAYERSTANDARD
 70
     0
  0
APPID
  2
ACCMTRANSPARENCY
 70
     0
  0
APPID
  2
ACAD_DSTYLE_DIMJAG
 70
     0
  0
APPID
  2
ACAD_DSTYLE_DIMTALN
 70
     0
  0
APPID
  2
ACDBATTR
 70
     0
  0
APPID
  2
ACAD_PSEXT
 70
     0
  0
ENDTAB
  0
TABLE
  2
DIMSTYLE
 70
     1
  0
DIMSTYLE
  2
STANDARD
 70
     0
  3

  4

  5

  6

  7

 40
1.0
 41
0.1875
 42
0.0625
 43
0.38
 44
0.125
 45
0.0
 46
0.0
 47
0.01
 48
0.01
140
0.15625
141
0.09
142
0.0
143
25.3999999999999986
144
1.0
145
0.0
146
1.0
147
0.09
 71
     1
 72
     0
 73
     1
 74
     1
 75
     0
 76
     0
 77
     0
 78
     4
170
     0
171
     2
172
     0
173
     0
174
     0
175
     0
176
     0
177
     0
178
     0
  0
ENDTAB
  0
ENDSEC
  0
SECTION
  2
BLOCKS
  0
BLOCK
  8
0
  2
$MODEL_SPACE
 70
     0
 10
0.0
 20
0.0
 30
0.0
  3
$MODEL_SPACE
  1

  0
ENDBLK
  5
21
  8
0
  0
BLOCK
 67
     1
  8
0
  2
$PAPER_SPACE
 70
     0
 10
0.0
 20
0.0
 30
0.0
  3
$PAPER_SPACE
  1

  0
ENDBLK
  5
1D
 67
     1
  8
0
  0
ENDSEC
  0
SECTION
  2
ENTITIES
  0
LINE
  5
C092
  8
0
 10
3504.9901517360672187
 20
150.7787205301972051
 30
0.0
 11
3507.332671421167106
 21
150.7787205301972051
 31
0.0
  0
LINE
  5
C093
  8
0
 10
3505.62398937226817
 20
151.0883988476971922
 30
0.0
 11
3504.9954646335668258
 21
150.9397843395971961
 31
0.0
  0
LINE
  5
C094
  8
0
 10
3506.6535375628682232
 20
151.0936811601972067
 30
0.0
 11
3505.6692855943670111
 21
151.0936811601972067
 31
0.0
  0
LINE
  5
C095
  8
0
 10
3506.6988337849670643
 20
151.0883988476971922
 30
0.0
 11
3507.3273585236670442
 21
150.9397843395971961
 31
0.0
  0
LINE
  5
C096
  8
0
 10
3504.9803092163670044
 20
150.920627531497189
 30
0.0
 11
3504.9803092163670044
 21
150.7885630498971921
 31
0.0
  0
LINE
  5
C097
  8
0
 10
3505.6692855943670111
 20
151.1133661994971931
 30
0.0
 11
3505.6692855943670111
 21
160.955885884597194
 31
0.0
  0
LINE
  5
C098
  8
0
 10
3506.6535375628682232
 20
151.1133661994971931
 30
0.0
 11
3506.6535375628682232
 21
160.955885884597194
 31
0.0
  0
LINE
  5
C099
  8
0
 10
3507.3425139407681854
 20
150.920627531497189
 30
0.0
 11
3507.3425139407681854
 21
150.7885630498971921
 31
0.0
  0
ARC
  5
C09A
  8
0
 10
3506.1614115785669128
 20
160.955885884597194
 30
0.0
 40
0.4921259843
 50
0.0
 51
180.0
  0
ARC
  5
C09B
  8
0
 10
3506.6535375628682232
 20
150.8968307664972031
 30
0.0
 40
0.1968503937
 50
76.6967576673934133
 51
90.0
  0
ARC
  5
C09C
  8
0
 10
3505.6692855943670111
 20
150.8968307664972031
 30
0.0
 40
0.1968503937
 50
90.0
 51
103.3032423326066009
  0
ARC
  5
C09D
  8
0
 10
3507.3228289014668917
 20
150.920627531497189
 30
0.0
 40
0.0196850394
 50
0.0
 51
76.696757667901764
  0
ARC
  5
C09E
  8
0
 10
3504.9999942557669783
 20
150.920627531497189
 30
0.0
 40
0.0196850394
 50
103.3032423320981934
 51
180.0
  0
ARC
  5
C09F
  8
0
 10
3506.63385252363787
 20
151.1133661994265083
 30
0.0
 40
0.0196850392292904
 50
269.999999526292072
 51
0.0000002058092661
  0
ARC
  5
C0A0
  8
0
 10
3505.6889706335969095
 20
151.1133661994265083
 30
0.0
 40
0.0196850392292873
 50
179.9999997941874881
 51
270.0000005080224241
  0
ARC
  5
C0A1
  8
0
 10
3507.332671421167106
 20
150.7885630498971921
 30
0.0
 40
0.0098425197
 50
270.0
 51
0.0
  0
ARC
  5
C0A2
  8
0
 10
3504.9901517360672187
 20
150.7885630498971921
 30
0.0
 40
0.0098425197
 50
180.0
 51
270.0
  0
ARC
  5
C0A3
  8
0
 10
3506.1113605171831296
 20
156.0413039532760138
 30
0.0
 40
1.5358308513713881
 50
88.1324620344858829
 51
105.4424346524847067
  0
ARC
  5
C0A4
  8
0
 10
3506.1981336771427777
 20
155.8207913975628003
 30
0.0
 40
1.7559116696601711
 50
76.9304785809515153
 51
91.1983374236281037
  0
ARC
  5
C0A5
  8
0
 10
3506.5843225845192137
 20
157.4531522152990135
 30
0.0
 40
0.0788210641147654
 50
28.5826444927626291
 51
82.0651874494120221
  0
ARC
  5
C0A6
  8
0
 10
3505.7144018395752028
 20
157.4755914103683097
 30
0.0
 40
0.0476306015820527
 50
104.5762669794338962
 51
161.3001870494580032
  0
ARC
  5
C0A7
  8
0
 10
3505.7559272764201523
 20
157.5210089671340086
 30
0.0
 40
0.0917366091602734
 50
199.1851885558075139
 51
267.6683238690559961
  0
ARC
  5
C0A8
  8
0
 10
3506.1616198883289144
 20
159.5093703262334941
 30
0.0
 40
2.1199340286542601
 50
258.8644413202401893
 51
281.0985115085176176
  0
ARC
  5
C0A9
  8
0
 10
3506.5628192396688974
 20
157.5261976918390019
 30
0.0
 40
0.0973571128551739
 50
274.0526157259799902
 51
338.7187287044666846
  0
ARC
  5
C0AA
  8
0
 10
3506.1642673512669717
 20
159.3886036559848094
 30
0.0
 40
1.9826555767321019
 50
259.4278048014384126
 51
279.9265406993907277
  0
ARC
  5
C0AB
  8
0
 10
3506.1634048520868419
 20
155.4472879336362894
 30
0.0
 40
2.1011115928605828
 50
81.1810948738566935
 51
99.3766707708328738
  0
ARC
  5
C0AC
  8
0
 10
3506.4697354448130682
 20
157.3217660976725085
 30
0.0
 40
0.2024109730064864
 50
51.9545704558696784
 51
85.5244649074902981
  0
ARC
  5
C0AD
  8
0
 10
3506.4983075903078316
 20
157.5592878202434974
 30
0.0
 40
0.123900586023364
 50
273.5818678783176097
 51
320.9134328523346085
  0
ARC
  5
C0AE
  8
0
 10
3505.8385504843718081
 20
157.3495453100547934
 30
0.0
 40
0.1716713686419466
 50
95.8399820279509242
 51
129.9397033135369952
  0
ARC
  5
C0AF
  8
0
 10
3505.8109092213840086
 20
157.5410953416428868
 30
0.0
 40
0.1020230050852625
 50
215.9711699764922912
 51
264.1445667342032948
  0
ATTDEF
  5
C258
  8
DEFPOINTS
 10
3506.1622753710180405
 20
150.7770117167065109
 30
0.0
 40
0.001
  1
K-77967BR
  3

  2
MODELNUMBER
 70
     0
1001
ACDBATTR
1070
     0
1070
     1
  0
ATTDEF
  5
C259
  8
DEFPOINTS
 10
3506.1622753710180405
 20
150.7753450500399026
 30
0.0
 40
0.001
  1
COMPONENTS
  3

  2
TRADENAME
 70
     0
1001
ACDBATTR
1070
     0
1070
     1
  0
ATTDEF
  5
C25A
  8
DEFPOINTS
 10
3506.1622753710180405
 20
150.773678383373209
 30
0.0
 40
0.001
  1
BATHROOM SINK FAUCET
  3

  2
PRODUCT
 70
     0
1001
ACDBATTR
1070
     0
1070
     1
  0
ENDSEC
  0
EOF
