  0
SECTION
  2
HEADER
  9
$ACADVER
  1
AC1009
  9
$INSBASE
 10
28.0434257479623703
 20
4.5021665095508441
 30
0.0
  9
$EXTMIN
 10
27.0971471557106192
 20
4.5018432449025196
 30
-0.0000000000112498
  9
$EXTMAX
 10
28.9903821204533187
 20
11.5093548143202895
 30
0.0000000000002956
  9
$LIMMIN
 10
0.0
 20
0.0
  9
$LIMMAX
 10
11.6929133858000007
 20
8.2677165353999982
  9
$ORTHOMODE
 70
     0
  9
$REGENMODE
 70
     1
  9
$FILLMODE
 70
     1
  9
$QTEXTMODE
 70
     0
  9
$MIRRTEXT
 70
     0
  9
$DRAGMODE
 70
     2
  9
$LTSCALE
 40
0.6431102362
  9
$OSMODE
 70
     7
  9
$ATTMODE
 70
     1
  9
$TEXTSIZE
 40
0.2
  9
$TRACEWID
 40
0.05
  9
$TEXTSTYLE
  7
STANDARD
  9
$CLAYER
  8
0
  9
$CELTYPE
  6
BYLAYER
  9
$CECOLOR
 62
   256
  9
$DIMSCALE
 40
1.0
  9
$DIMASZ
 40
0.1875
  9
$DIMEXO
 40
0.0625
  9
$DIMDLI
 40
0.4443307087
  9
$DIMRND
 40
0.0
  9
$DIMDLE
 40
0.0
  9
$DIMEXE
 40
0.125
  9
$DIMTP
 40
0.01
  9
$DIMTM
 40
0.01
  9
$DIMTXT
 40
1.0
  9
$DIMCEN
 40
0.1052362205
  9
$DIMTSZ
 40
0.0
  9
$DIMTOL
 70
     1
  9
$DIMLIM
 70
     0
  9
$DIMTIH
 70
     1
  9
$DIMTOH
 70
     1
  9
$DIMSE1
 70
     0
  9
$DIMSE2
 70
     0
  9
$DIMTAD
 70
     0
  9
$DIMZIN
 70
     0
  9
$DIMBLK
  1

  9
$DIMASO
 70
     1
  9
$DIMSHO
 70
     1
  9
$DIMPOST
  1
\X
  9
$DIMAPOST
  1

  9
$DIMALT
 70
     1
  9
$DIMALTD
 70
     2
  9
$DIMALTF
 40
25.3999999999999986
  9
$DIMLFAC
 40
1.0
  9
$DIMTOFL
 70
     0
  9
$DIMTVP
 40
0.0
  9
$DIMTIX
 70
     0
  9
$DIMSOXD
 70
     0
  9
$DIMSAH
 70
     0
  9
$DIMBLK1
  1

  9
$DIMBLK2
  1

  9
$DIMSTYLE
  2
STANDARD
  9
$DIMCLRD
 70
     0
  9
$DIMCLRE
 70
     0
  9
$DIMCLRT
 70
     0
  9
$DIMTFAC
 40
1.0
  9
$DIMGAP
 40
0.09
  9
$LUNITS
 70
     2
  9
$LUPREC
 70
     4
  9
$SKETCHINC
 40
0.1
  9
$FILLETRAD
 40
0.0
  9
$AUNITS
 70
     0
  9
$AUPREC
 70
     0
  9
$MENU
  1
.
  9
$ELEVATION
 40
0.0
  9
$PELEVATION
 40
0.0
  9
$THICKNESS
 40
0.0
  9
$LIMCHECK
 70
     0
  9
$BLIPMODE
 70
     0
  9
$CHAMFERA
 40
0.0
  9
$CHAMFERB
 40
0.0
  9
$SKPOLY
 70
     0
  9
$TDCREATE
 40
2458171.5183333340100944
  9
$TDUPDATE
 40
2459601.4461921299807727
  9
$TDINDWG
 40
0.5073847338
  9
$TDUSRTIMER
 40
0.5073847338
  9
$USRTIMER
 70
     1
  9
$ANGBASE
 50
0.0
  9
$ANGDIR
 70
     0
  9
$PDMODE
 70
     0
  9
$PDSIZE
 40
0.3125
  9
$PLINEWID
 40
0.0
  9
$COORDS
 70
     1
  9
$SPLFRAME
 70
     0
  9
$SPLINETYPE
 70
     6
  9
$SPLINESEGS
 70
     8
  9
$ATTDIA
 70
     1
  9
$ATTREQ
 70
     1
  9
$HANDLING
 70
     1
  9
$HANDSEED
  5
FDD
  9
$SURFTAB1
 70
     6
  9
$SURFTAB2
 70
     6
  9
$SURFTYPE
 70
     6
  9
$SURFU
 70
     6
  9
$SURFV
 70
     6
  9
$UCSNAME
  2

  9
$UCSORG
 10
0.0
 20
0.0
 30
0.0
  9
$UCSXDIR
 10
1.0
 20
0.0
 30
0.0
  9
$UCSYDIR
 10
0.0
 20
1.0
 30
0.0
  9
$PUCSNAME
  2

  9
$PUCSORG
 10
0.0
 20
0.0
 30
0.0
  9
$PUCSXDIR
 10
1.0
 20
0.0
 30
0.0
  9
$PUCSYDIR
 10
0.0
 20
1.0
 30
0.0
  9
$USERI1
 70
     0
  9
$USERI2
 70
     0
  9
$USERI3
 70
     0
  9
$USERI4
 70
     0
  9
$USERI5
 70
     0
  9
$USERR1
 40
0.0
  9
$USERR2
 40
0.0
  9
$USERR3
 40
0.0
  9
$USERR4
 40
0.0
  9
$USERR5
 40
0.0
  9
$WORLDVIEW
 70
     1
  9
$SHADEDGE
 70
     3
  9
$SHADEDIF
 70
    70
  9
$TILEMODE
 70
     1
  9
$MAXACTVP
 70
    64
  9
$PLIMCHECK
 70
     0
  9
$PEXTMIN
 10
1.0000000000000000E+20
 20
1.0000000000000000E+20
 30
1.0000000000000000E+20
  9
$PEXTMAX
 10
-1.0000000000000000E+20
 20
-1.0000000000000000E+20
 30
-1.0000000000000000E+20
  9
$PLIMMIN
 10
0.0
 20
0.0
  9
$PLIMMAX
 10
12.0
 20
9.0
  9
$UNITMODE
 70
     0
  9
$VISRETAIN
 70
     1
  9
$PLINEGEN
 70
     0
  9
$PSLTSCALE
 70
     1
  0
ENDSEC
  0
SECTION
  2
TABLES
  0
TABLE
  2
VPORT
 70
     1
  0
VPORT
  2
*ACTIVE
 70
     0
 10
0.0
 20
0.0
 11
1.0
 21
1.0
 12
6.566489874180351
 22
3.7283826514759562
 13
0.0
 23
0.0
 14
1.0
 24
1.0
 15
0.0
 25
0.0
 16
-0.0000000000000036
 26
0.0
 36
9.3890093072850682
 17
21.4772747639016188
 27
4.2772163781354484
 37
0.0
 40
7.0576846832799482
 41
2.2831541218637978
 42
50.0
 43
0.0
 44
0.0
 50
0.0
 51
0.0
 71
     0
 72
   100
 73
     1
 74
     1
 75
     0
 76
     0
 77
     0
 78
     0
  0
ENDTAB
  0
TABLE
  2
LTYPE
 70
     1
  0
LTYPE
  2
CONTINUOUS
 70
     0
  3
Solid line
 72
    65
 73
     0
 40
0.0
  0
ENDTAB
  0
TABLE
  2
LAYER
 70
     2
  0
LAYER
  2
0
 70
     0
 62
   255
  6
CONTINUOUS
  0
LAYER
  2
DEFPOINTS
 70
     0
 62
     7
  6
CONTINUOUS
  0
ENDTAB
  0
TABLE
  2
STYLE
 70
     1
  0
STYLE
  2
STANDARD
 70
     0
 40
0.0
 41
0.8
 50
0.0
 71
     0
 42
0.2
  3
txt
  4

  0
ENDTAB
  0
TABLE
  2
VIEW
 70
     0
  0
ENDTAB
  0
TABLE
  2
UCS
 70
     0
  0
ENDTAB
  0
TABLE
  2
APPID
 70
    11
  0
APPID
  2
ACAD
 70
     0
  0
APPID
  2
ACADANNOTATIVE
 70
     0
  0
APPID
  2
ACAD_MLEADERVER
 70
     0
  0
APPID
  2
ACAD_EXEMPT_FROM_CAD_STANDARDS
 70
     0
  0
APPID
  2
ACAD_DSTYLE_DIMJAG
 70
     0
  0
APPID
  2
ACAD_DSTYLE_DIMTALN
 70
     0
  0
APPID
  2
ACAD_NAV_VCDISPLAY
 70
     0
  0
APPID
  2
ACAECLAYERSTANDARD
 70
     0
  0
APPID
  2
ACCMTRANSPARENCY
 70
     0
  0
APPID
  2
DCO15
 70
     0
  0
APPID
  2
ACDBATTR
 70
     0
  0
ENDTAB
  0
TABLE
  2
DIMSTYLE
 70
     1
  0
DIMSTYLE
  2
STANDARD
 70
     0
  3

  4

  5

  6

  7

 40
1.0
 41
0.1875
 42
0.0625
 43
0.38
 44
0.125
 45
0.0
 46
0.0
 47
0.01
 48
0.01
140
0.15625
141
0.09
142
0.0
143
25.3999999999999986
144
1.0
145
0.0
146
1.0
147
0.09
 71
     1
 72
     0
 73
     1
 74
     1
 75
     0
 76
     0
 77
     0
 78
     4
170
     0
171
     2
172
     0
173
     0
174
     0
175
     0
176
     0
177
     0
178
     0
  0
ENDTAB
  0
ENDSEC
  0
SECTION
  2
BLOCKS
  0
BLOCK
  8
0
  2
$MODEL_SPACE
 70
     0
 10
0.0
 20
0.0
 30
0.0
  3
$MODEL_SPACE
  1

  0
ENDBLK
  5
929
  8
0
  0
BLOCK
 67
     1
  8
0
  2
$PAPER_SPACE
 70
     0
 10
0.0
 20
0.0
 30
0.0
  3
$PAPER_SPACE
  1

  0
ENDBLK
  5
925
 67
     1
  8
0
  0
ENDSEC
  0
SECTION
  2
ENTITIES
  0
ATTDEF
  5
765
  8
DEFPOINTS
 10
28.0434618149438286
 20
4.5055418934444802
 30
0.0
 40
0.001
  1
K-77958BR-4AND
  3

  2
MODELNUMBER
 70
     0
1001
ACDBATTR
1070
     0
1070
     1
  0
ATTDEF
  5
766
  8
DEFPOINTS
 10
28.0434618149438286
 20
4.5038752267778142
 30
0.0
 40
0.001
  1
COMPONENTS
  3

  2
TRADENAME
 70
     0
1001
ACDBATTR
1070
     0
1070
     1
  0
ATTDEF
  5
767
  8
DEFPOINTS
 10
28.0434618149438286
 20
4.5022085601111357
 30
0.0
 40
0.001
  1
BATHROOM SINK FAUCET
  3

  2
PRODUCT
 70
     0
1001
ACDBATTR
1070
     0
1070
     1
  0
LINE
  5
CA6
  8
0
 10
27.0985443796623713
 20
4.5021665095508441
 30
0.0
 11
28.98830711626238
 21
4.5021665095508441
 31
0.0
  0
LINE
  5
CA7
  8
0
 10
27.2189851412623689
 20
4.6872058796508442
 30
0.0
 11
27.2143891126623707
 21
4.686661980450844
 31
0.0
  0
LINE
  5
CA8
  8
0
 10
27.2189851412623689
 20
4.6872058796508442
 30
0.0
 11
28.8678663546623788
 21
4.6872058796508442
 31
0.0
  0
LINE
  5
CA9
  8
0
 10
27.2143891126623707
 20
4.686661980450844
 30
0.0
 11
27.1060892087623699
 21
4.6606614739508414
 31
0.0
  0
LINE
  5
CAA
  8
0
 10
27.0985443796623713
 20
4.651090903850843
 30
0.0
 11
27.0985443796623713
 21
4.5021665095508441
 31
0.0
  0
LINE
  5
CAB
  8
0
 10
27.2265039580622492
 20
11.4895680843508394
 30
0.0
 11
27.2265039580622492
 21
11.2041350135508395
 31
0.0
  0
LINE
  5
CAC
  8
0
 10
27.2265039580622492
 20
11.0966546985508394
 30
0.0
 11
27.2265039580622492
 21
4.7068909190508412
 31
0.0
  0
LINE
  5
CAD
  8
0
 10
27.2461821749623709
 20
11.1163397379508506
 30
0.0
 11
27.2461821749623709
 21
11.1348303820508292
 31
0.0
  0
LINE
  5
CAE
  8
0
 10
27.5513002852623714
 20
8.1649039978508355
 30
0.0
 11
27.5513002852623714
 21
9.0297255646508354
 31
0.0
  0
LINE
  5
CAF
  8
0
 10
27.2461821749623709
 20
11.1163397379508506
 30
0.0
 11
28.8406693209623803
 21
11.1163397379508506
 31
0.0
  0
LINE
  5
CB0
  8
0
 10
27.2363396552623698
 20
11.1942924938508508
 30
0.0
 11
28.8505128836623612
 21
11.1942924938508508
 31
0.0
  0
LINE
  5
CB1
  8
0
 10
27.2461821749623709
 20
11.5092531237508506
 30
0.0
 11
28.8406703639623707
 21
11.5092531237508506
 31
0.0
  0
ARC
  5
CB2
  8
0
 10
27.246177352744219
 20
4.7068792771863919
 30
0.0
 40
0.0196733981265474
 50
179.9660948386660948
 51
270.0140439769785985
  0
ARC
  5
CB3
  8
0
 10
27.1083868993623689
 20
4.651090903850843
 30
0.0
 40
0.0098425197
 50
103.5000000000000995
 51
180.0
  0
ARC
  5
CB4
  8
0
 10
27.246177352744219
 20
11.4895797262152808
 30
0.0
 40
0.019673398126546
 50
89.9859560230161861
 51
180.0339051613374011
  0
ARC
  5
CB5
  8
0
 10
27.246177352744219
 20
11.0966663404152897
 30
0.0
 40
0.0196733981265443
 50
89.9859560230123208
 51
180.0339051613426022
  0
ARC
  5
CB6
  8
0
 10
27.2363348350610188
 20
11.2041233765553603
 30
0.0
 40
0.0098308838862311
 50
179.9321779312838032
 51
270.0280928152517959
  0
ARC
  5
CB7
  8
0
 10
27.2540561581602887
 20
11.1348303917480305
 30
0.0
 40
0.0078739830979283
 50
113.7412614081630977
 51
180.0000705625267017
  0
ARC
  5
CB8
  8
0
 10
28.0434408027623689
 20
9.3400895536508362
 30
0.0
 40
1.9685429487999979
 50
109.624073322421296
 51
113.7414340248000997
  0
ARC
  5
CB9
  8
0
 10
28.0434257479123694
 20
9.0297260862008262
 30
0.0
 40
0.4921254627502806
 50
359.9999392784649785
 51
180.0000607215349078
  0
ARC
  5
CBA
  8
0
 10
28.0434257479623703
 20
8.4392948728222947
 30
0.0
 40
0.6281621281714515
 50
233.4582149081547868
 51
306.5417850918457248
  0
ARC
  5
CBB
  8
0
 10
27.8548991295519883
 20
8.1751822935126341
 30
0.0
 40
0.3037727795831978
 50
181.9389998909063024
 51
232.3663797636984043
  0
ARC
  5
CBC
  8
0
 10
28.0434257479623703
 20
7.8789214046253511
 30
0.0
 40
0.6339890660254826
 50
53.5687951818983734
 51
126.4312048181019037
  0
ARC
  5
CBD
  8
0
 10
27.847104115688289
 20
8.1541671115382162
 30
0.0
 40
0.2959986263858951
 50
127.4962843048568004
 51
177.9212293551208006
  0
ARC
  5
CBE
  8
0
 10
28.0434257479623703
 20
8.3809582618829346
 30
0.0
 40
0.5292799033377537
 50
223.3079817949397921
 51
316.6920182050592985
  0
ARC
  5
CBF
  8
0
 10
27.8405794704046414
 20
8.1583519210637583
 30
0.0
 40
0.2301204035863433
 50
132.7674061265489911
 51
217.6095341581444131
  0
ARC
  5
CC0
  8
0
 10
28.0470585175106599
 20
8.5595637215503366
 30
0.0
 40
0.5038734786737324
 50
215.59579249623701
 51
323.5704711466901244
  0
CIRCLE
  5
CC1
  8
0
 10
28.0434262694646286
 20
11.3517728088008507
 30
0.0
 40
0.0984251969
  0
ARC
  5
CC2
  8
0
 10
28.0457357034855193
 20
7.8818633152692543
 30
0.0
 40
0.578851153086784
 50
104.179317733457907
 51
118.1201186872090005
  0
ARC
  5
CC3
  8
0
 10
27.9157249099552196
 20
8.4286905325941461
 30
0.0
 40
0.1979149621481823
 50
198.6200437585063128
 51
225.6047724410582873
  0
ARC
  5
CC4
  8
0
 10
27.7656775018693303
 20
8.2890485010304964
 30
0.0
 40
0.0117204285614226
 50
295.986019839056496
 51
351.2926123962596989
  0
LINE
  5
CC5
  8
0
 10
27.7708128290700884
 20
8.2785129962867963
 30
0.0
 11
27.7434002606701
 21
8.2649396310867971
 31
0.0
  0
LINE
  5
CC6
  8
0
 10
27.7434002606701
 20
8.2649396310867971
 30
0.0
 11
27.7434002606701
 21
8.2398861678867981
 31
0.0
  0
ARC
  5
CC7
  8
0
 10
27.7449883460039608
 20
8.2398382407907782
 30
0.0
 40
0.0015888083692449
 50
178.2713856441646101
 51
284.3295644868998124
  0
ARC
  5
CC8
  8
0
 10
27.7427468210795602
 20
8.2486131733416137
 30
0.0
 40
0.0106455117020579
 50
284.3295644868990735
 51
291.3661724447416077
  0
LINE
  5
CC9
  8
0
 10
27.7466252686701011
 20
8.2386993161867963
 30
0.0
 11
27.7740378370701002
 21
8.2522726814868061
 31
0.0
  0
ARC
  5
CCA
  8
0
 10
27.7711040205539312
 20
8.2578099975267563
 30
0.0
 40
0.0062665100555931
 50
297.9158262448439132
 51
349.362804517698919
  0
LINE
  5
CCB
  8
0
 10
27.7772628451700996
 20
8.2566532660867971
 30
0.0
 11
27.7772628451700712
 21
8.2872741655866484
 31
0.0
  0
ARC
  5
CCC
  8
0
 10
28.0034115155043715
 20
8.5099761535420981
 30
0.0
 40
0.3754080223258249
 50
226.3096858331545889
 51
243.1450067955352949
  0
ARC
  5
CCD
  8
0
 10
27.8341067906777297
 20
8.1768201572865884
 30
0.0
 40
0.0017873120321981
 50
260.9914474027364122
 51
325.1704392115898941
  0
LINE
  5
CCE
  8
0
 10
27.8355739140700997
 20
8.1757993569867971
 30
0.0
 11
27.8547684011701016
 21
8.1951841314868084
 31
0.0
  0
ARC
  5
CCF
  8
0
 10
27.8486451535613107
 20
8.2009501055296141
 30
0.0
 40
0.0084107441966158
 50
316.7212320323070003
 51
355.2143475891983257
  0
LINE
  5
CD0
  8
0
 10
27.8570265760700906
 20
8.2002484113867986
 30
0.0
 11
27.8570265760700906
 21
8.2308693108868063
 31
0.0
  0
ARC
  5
CD1
  8
0
 10
28.0493418209406897
 20
8.6466746314062668
 30
0.0
 40
0.4581257665553576
 50
245.1788588473849018
 51
262.1693889963709125
  0
LINE
  5
CD2
  8
0
 10
27.9869245341701003
 20
8.1928207999867961
 30
0.0
 11
27.9869245341701003
 21
8.1621999004867973
 31
0.0
  0
ARC
  5
CD3
  8
0
 10
27.9594911673266502
 20
8.1627891380353184
 30
0.0
 40
0.027439694190281
 50
347.123998085257881
 51
358.7695409559946143
  0
LINE
  5
CD4
  8
0
 10
27.986240879870099
 20
8.1566744265867968
 30
0.0
 11
27.9804298188700997
 21
8.1333695023867953
 31
0.0
  0
ARC
  5
CD5
  8
0
 10
27.9762100471049884
 20
8.1345328658278664
 30
0.0
 40
0.0043772009601569
 50
328.5118996508131772
 51
344.5868169423367249
  0
LINE
  5
CD6
  8
0
 10
27.979942699370099
 20
8.1322465597867968
 30
0.0
 11
27.9797461645700913
 21
8.1584649280867971
 31
0.0
  0
LINE
  5
CD7
  8
0
 10
27.9797461645700913
 20
8.1584649280867971
 30
0.0
 11
27.9855572256700995
 21
8.1817698521867968
 31
0.0
  0
ARC
  5
CD8
  8
0
 10
27.9314267270393692
 20
8.194077355873798
 30
0.0
 40
0.0555120304890485
 50
347.1905832071416853
 51
358.7029568553946888
  0
ARC
  5
CD9
  8
0
 10
28.0421917290430613
 20
8.6412809888633362
 30
0.0
 40
0.4868375468943599
 50
247.0702140794643071
 51
262.6304954204663886
  0
ARC
  5
CDA
  8
0
 10
28.0434257479623703
 20
8.7087240781014401
 30
0.0
 40
0.5799624354911069
 50
263.7157762983596854
 51
276.2842237016402009
  0
ARC
  5
CDB
  8
0
 10
28.0434257479623703
 20
8.6207935920680967
 30
0.0
 40
0.4648451062528217
 50
262.9935215014181722
 51
277.0064784985814867
  0
ARC
  5
CDC
  8
0
 10
27.9624785199563597
 20
8.4469823863051765
 30
0.0
 40
0.2206101146256812
 50
197.3900969873332087
 51
241.7433753665825122
  0
ARC
  5
CDD
  8
0
 10
27.9871388827828689
 20
8.4680260310299182
 30
0.0
 40
0.3004707882294283
 50
225.396798162069814
 51
244.1919884369941087
  0
ARC
  5
CDE
  8
0
 10
27.9289196746819606
 20
8.4455775719608468
 30
0.0
 40
0.2589353561384097
 50
204.8151643864007099
 51
224.2361993094258139
  0
ARC
  5
CDF
  8
0
 10
28.0394657121300703
 20
8.5800024488275675
 30
0.0
 40
0.3541624234839774
 50
240.0719986741765126
 51
255.3482615834024898
  0
ARC
  5
CE0
  8
0
 10
27.9577869880072782
 20
8.438119298516316
 30
0.0
 40
0.190448519625535
 50
193.8939634791630908
 51
240.0719986741765126
  0
LINE
  5
CE1
  8
0
 10
28.0384047493700912
 20
8.2614073356874531
 30
0.0
 11
28.0179323083700993
 21
8.2530489957874664
 31
0.0
  0
LINE
  5
CE2
  8
0
 10
28.0179323083700993
 20
8.2530489957874664
 30
0.0
 11
27.9974598674700985
 21
8.2614073356874531
 31
0.0
  0
LINE
  5
CE3
  8
0
 10
27.9974598674700985
 20
8.2614073356874531
 30
0.0
 11
27.9974598674700985
 21
8.2768268342874691
 31
0.0
  0
LINE
  5
CE4
  8
0
 10
27.9974598674700985
 20
8.2768268342874691
 30
0.0
 11
28.0179328497733593
 21
8.2851849530472652
 31
0.0
  0
LINE
  5
CE5
  8
0
 10
28.0179328497733593
 20
8.2851849530472652
 30
0.0
 11
28.0383733788501388
 21
8.2768396420412387
 31
0.0
  0
LINE
  5
CE6
  8
0
 10
28.0383733788501388
 20
8.2768396420412387
 30
0.0
 11
28.0384047493700912
 21
8.2614073356874531
 31
0.0
  0
LINE
  5
CE7
  8
0
 10
28.0384047493700912
 20
8.3236126725874549
 30
0.0
 11
28.0179323083700993
 21
8.3152543326874557
 31
0.0
  0
LINE
  5
CE8
  8
0
 10
28.0179323083700993
 20
8.3152543326874557
 30
0.0
 11
27.9974598674700914
 21
8.3236126725874549
 31
0.0
  0
LINE
  5
CE9
  8
0
 10
27.9974598674700914
 20
8.3236126725874549
 30
0.0
 11
27.9974598674700914
 21
8.3390321711874691
 31
0.0
  0
LINE
  5
CEA
  8
0
 10
27.9974598674700914
 20
8.3390321711874691
 30
0.0
 11
28.0179328497733593
 21
8.3473902899472652
 31
0.0
  0
LINE
  5
CEB
  8
0
 10
28.0179328497733593
 20
8.3473902899472652
 30
0.0
 11
28.0383733788501388
 21
8.3390449789412386
 31
0.0
  0
LINE
  5
CEC
  8
0
 10
28.0383733788501388
 20
8.3390449789412386
 30
0.0
 11
28.0384047493700912
 21
8.3236126725874549
 31
0.0
  0
LINE
  5
CED
  8
0
 10
28.0384047493700912
 20
8.3858180094874548
 30
0.0
 11
28.0179323083700993
 21
8.3774596695874664
 31
0.0
  0
LINE
  5
CEE
  8
0
 10
28.0179323083700993
 20
8.3774596695874664
 30
0.0
 11
27.9974598674700914
 21
8.3858180094874548
 31
0.0
  0
LINE
  5
CEF
  8
0
 10
27.9974598674700914
 20
8.3858180094874548
 30
0.0
 11
27.9974598674700914
 21
8.4012375080874691
 31
0.0
  0
LINE
  5
CF0
  8
0
 10
27.9974598674700914
 20
8.4012375080874691
 30
0.0
 11
28.0179328497733593
 21
8.4095956268472651
 31
0.0
  0
LINE
  5
CF1
  8
0
 10
28.0179328497733593
 20
8.4095956268472651
 30
0.0
 11
28.0383733788501388
 21
8.4012503158412386
 31
0.0
  0
LINE
  5
CF2
  8
0
 10
28.0383733788501388
 20
8.4012503158412386
 30
0.0
 11
28.0384047493700912
 21
8.3858180094874548
 31
0.0
  0
LINE
  5
CF3
  8
0
 10
28.0130110485668418
 20
8.4169206779276564
 30
0.0
 11
27.9925386075668392
 21
8.4085623380276662
 31
0.0
  0
LINE
  5
CF4
  8
0
 10
27.9925386075668392
 20
8.4085623380276662
 30
0.0
 11
27.9720661666668313
 21
8.4169206779276564
 31
0.0
  0
LINE
  5
CF5
  8
0
 10
27.9720661666668313
 20
8.4169206779276564
 30
0.0
 11
27.9720661666668313
 21
8.4323401765276671
 31
0.0
  0
LINE
  5
CF6
  8
0
 10
27.9720661666668313
 20
8.4323401765276671
 30
0.0
 11
27.9925391489700992
 21
8.4406982952874685
 31
0.0
  0
LINE
  5
CF7
  8
0
 10
27.9925391489700992
 20
8.4406982952874685
 30
0.0
 11
28.0129796780468787
 21
8.4323529842814366
 31
0.0
  0
LINE
  5
CF8
  8
0
 10
28.0129796780468787
 20
8.4323529842814366
 30
0.0
 11
28.0130110485668418
 21
8.4169206779276564
 31
0.0
  0
LINE
  5
CF9
  8
0
 10
28.0130110485668418
 20
8.3547153410276565
 30
0.0
 11
27.9925386075668392
 21
8.3463570011276538
 31
0.0
  0
LINE
  5
CFA
  8
0
 10
27.9925386075668392
 20
8.3463570011276538
 30
0.0
 11
27.9720661666668313
 21
8.3547153410276565
 31
0.0
  0
LINE
  5
CFB
  8
0
 10
27.9720661666668313
 20
8.3547153410276565
 30
0.0
 11
27.9720661666668313
 21
8.3701348396276671
 31
0.0
  0
LINE
  5
CFC
  8
0
 10
27.9720661666668313
 20
8.3701348396276671
 30
0.0
 11
27.9925391489700992
 21
8.3784929583874685
 31
0.0
  0
LINE
  5
CFD
  8
0
 10
27.9925391489700992
 20
8.3784929583874685
 30
0.0
 11
28.0129796780468787
 21
8.3701476473814367
 31
0.0
  0
LINE
  5
CFE
  8
0
 10
28.0129796780468787
 20
8.3701476473814367
 30
0.0
 11
28.0130110485668418
 21
8.3547153410276565
 31
0.0
  0
LINE
  5
CFF
  8
0
 10
28.0130110485668418
 20
8.2925100042276583
 30
0.0
 11
27.9925386075668392
 21
8.2841516643276663
 31
0.0
  0
LINE
  5
D00
  8
0
 10
27.9925386075668392
 20
8.2841516643276663
 30
0.0
 11
27.9720661666668313
 21
8.2925100042276583
 31
0.0
  0
LINE
  5
D01
  8
0
 10
27.9720661666668313
 20
8.2925100042276583
 30
0.0
 11
27.9720661666668313
 21
8.3079295028276654
 31
0.0
  0
LINE
  5
D02
  8
0
 10
27.9720661666668313
 20
8.3079295028276654
 30
0.0
 11
27.9925391489700992
 21
8.3162876215874668
 31
0.0
  0
LINE
  5
D03
  8
0
 10
27.9925391489700992
 20
8.3162876215874668
 30
0.0
 11
28.0129796780468787
 21
8.3079423105814385
 31
0.0
  0
LINE
  5
D04
  8
0
 10
28.0129796780468787
 20
8.3079423105814385
 30
0.0
 11
28.0130110485668418
 21
8.2925100042276583
 31
0.0
  0
LINE
  5
D05
  8
0
 10
27.9876168064668498
 20
8.2614073356874531
 30
0.0
 11
27.9671443654668295
 21
8.2530489957874664
 31
0.0
  0
LINE
  5
D06
  8
0
 10
27.9671443654668295
 20
8.2530489957874664
 30
0.0
 11
27.9466719245668394
 21
8.2614073356874531
 31
0.0
  0
LINE
  5
D07
  8
0
 10
27.9466719245668394
 20
8.2614073356874531
 30
0.0
 11
27.9466719245668394
 21
8.2768268342874691
 31
0.0
  0
LINE
  5
D08
  8
0
 10
27.9466719245668394
 20
8.2768268342874691
 30
0.0
 11
27.9671449068700895
 21
8.2851849530472652
 31
0.0
  0
LINE
  5
D09
  8
0
 10
27.9671449068700895
 20
8.2851849530472652
 30
0.0
 11
27.9875854359468796
 21
8.2768396420412387
 31
0.0
  0
LINE
  5
D0A
  8
0
 10
27.9875854359468796
 20
8.2768396420412387
 30
0.0
 11
27.9876168064668498
 21
8.2614073356874531
 31
0.0
  0
LINE
  5
D0B
  8
0
 10
27.9876173477668289
 20
8.3236126726276538
 30
0.0
 11
27.9671449067668405
 21
8.3152543327276653
 31
0.0
  0
LINE
  5
D0C
  8
0
 10
27.9671449067668405
 20
8.3152543327276653
 30
0.0
 11
27.9466724658668397
 21
8.3236126726276538
 31
0.0
  0
LINE
  5
D0D
  8
0
 10
27.9466724658668397
 20
8.3236126726276538
 30
0.0
 11
27.9466724658668397
 21
8.3390321712276645
 31
0.0
  0
LINE
  5
D0E
  8
0
 10
27.9466724658668397
 20
8.3390321712276645
 30
0.0
 11
27.9671454481700898
 21
8.3473902899874695
 31
0.0
  0
LINE
  5
D0F
  8
0
 10
27.9671454481700898
 20
8.3473902899874695
 30
0.0
 11
27.98758597724688
 21
8.339044978981434
 31
0.0
  0
LINE
  5
D10
  8
0
 10
27.98758597724688
 20
8.339044978981434
 30
0.0
 11
27.9876173477668289
 21
8.3236126726276538
 31
0.0
  0
LINE
  5
D11
  8
0
 10
27.9876173477668289
 20
8.3858180095276538
 30
0.0
 11
27.9671449067668405
 21
8.3774596696276582
 31
0.0
  0
LINE
  5
D12
  8
0
 10
27.9671449067668405
 20
8.3774596696276582
 30
0.0
 11
27.9466724658668397
 21
8.3858180095276538
 31
0.0
  0
LINE
  5
D13
  8
0
 10
27.9466724658668397
 20
8.3858180095276538
 30
0.0
 11
27.9466724658668397
 21
8.4012375081276645
 31
0.0
  0
LINE
  5
D14
  8
0
 10
27.9466724658668397
 20
8.4012375081276645
 30
0.0
 11
27.9671454481700898
 21
8.4095956268874694
 31
0.0
  0
LINE
  5
D15
  8
0
 10
27.9671454481700898
 20
8.4095956268874694
 30
0.0
 11
27.98758597724688
 21
8.401250315881434
 31
0.0
  0
LINE
  5
D16
  8
0
 10
27.98758597724688
 20
8.401250315881434
 30
0.0
 11
27.9876173477668289
 21
8.3858180095276538
 31
0.0
  0
LINE
  5
D17
  8
0
 10
27.9622236469668408
 20
8.4169206779276564
 30
0.0
 11
27.9417512059668383
 21
8.4085623380276662
 31
0.0
  0
LINE
  5
D18
  8
0
 10
27.9417512059668383
 20
8.4085623380276662
 30
0.0
 11
27.921278765066841
 21
8.4169206779276564
 31
0.0
  0
LINE
  5
D19
  8
0
 10
27.921278765066841
 20
8.4169206779276564
 30
0.0
 11
27.921278765066841
 21
8.4323401765276671
 31
0.0
  0
LINE
  5
D1A
  8
0
 10
27.921278765066841
 20
8.4323401765276671
 30
0.0
 11
27.9417517473700983
 21
8.4406982952874685
 31
0.0
  0
LINE
  5
D1B
  8
0
 10
27.9417517473700983
 20
8.4406982952874685
 30
0.0
 11
27.9621922764468813
 21
8.4323529842814366
 31
0.0
  0
LINE
  5
D1C
  8
0
 10
27.9621922764468813
 20
8.4323529842814366
 30
0.0
 11
27.9622236469668408
 21
8.4169206779276564
 31
0.0
  0
LINE
  5
D1D
  8
0
 10
27.9622236469668408
 20
8.3547153410276565
 30
0.0
 11
27.9417512059668383
 21
8.3463570011276538
 31
0.0
  0
LINE
  5
D1E
  8
0
 10
27.9417512059668383
 20
8.3463570011276538
 30
0.0
 11
27.921278765066841
 21
8.3547153410276565
 31
0.0
  0
LINE
  5
D1F
  8
0
 10
27.921278765066841
 20
8.3547153410276565
 30
0.0
 11
27.921278765066841
 21
8.3701348396276671
 31
0.0
  0
LINE
  5
D20
  8
0
 10
27.921278765066841
 20
8.3701348396276671
 30
0.0
 11
27.9417517473700983
 21
8.3784929583874685
 31
0.0
  0
LINE
  5
D21
  8
0
 10
27.9417517473700983
 20
8.3784929583874685
 30
0.0
 11
27.9621922764468813
 21
8.3701476473814367
 31
0.0
  0
LINE
  5
D22
  8
0
 10
27.9621922764468813
 20
8.3701476473814367
 30
0.0
 11
27.9622236469668408
 21
8.3547153410276565
 31
0.0
  0
LINE
  5
D23
  8
0
 10
27.9622236469668408
 20
8.2925100042276583
 30
0.0
 11
27.9417512059668383
 21
8.2841516643276663
 31
0.0
  0
LINE
  5
D24
  8
0
 10
27.9417512059668383
 20
8.2841516643276663
 30
0.0
 11
27.921278765066841
 21
8.2925100042276583
 31
0.0
  0
LINE
  5
D25
  8
0
 10
27.921278765066841
 20
8.2925100042276583
 30
0.0
 11
27.921278765066841
 21
8.3079295028276654
 31
0.0
  0
LINE
  5
D26
  8
0
 10
27.921278765066841
 20
8.3079295028276654
 30
0.0
 11
27.9417517473700983
 21
8.3162876215874668
 31
0.0
  0
LINE
  5
D27
  8
0
 10
27.9417517473700983
 20
8.3162876215874668
 30
0.0
 11
27.9621922764468813
 21
8.3079423105814385
 31
0.0
  0
LINE
  5
D28
  8
0
 10
27.9621922764468813
 20
8.3079423105814385
 30
0.0
 11
27.9622236469668408
 21
8.2925100042276583
 31
0.0
  0
LINE
  5
D29
  8
0
 10
27.9368293824668399
 20
8.2614052646276583
 30
0.0
 11
27.9163569414668409
 21
8.2530469247276557
 31
0.0
  0
LINE
  5
D2A
  8
0
 10
27.9163569414668409
 20
8.2530469247276557
 30
0.0
 11
27.8958845005668401
 21
8.2614052646276583
 31
0.0
  0
LINE
  5
D2B
  8
0
 10
27.8958845005668401
 20
8.2614052646276583
 30
0.0
 11
27.8958845005668401
 21
8.2768247632276655
 31
0.0
  0
LINE
  5
D2C
  8
0
 10
27.8958845005668401
 20
8.2768247632276655
 30
0.0
 11
27.9163574828701009
 21
8.2851828819874669
 31
0.0
  0
LINE
  5
D2D
  8
0
 10
27.9163574828701009
 20
8.2851828819874669
 30
0.0
 11
27.9367980119468804
 21
8.2768375709814386
 31
0.0
  0
LINE
  5
D2E
  8
0
 10
27.9367980119468804
 20
8.2768375709814386
 30
0.0
 11
27.9368293824668399
 21
8.2614052646276583
 31
0.0
  0
LINE
  5
D2F
  8
0
 10
27.9368299461668492
 20
8.3236126726276538
 30
0.0
 11
27.9163575051668289
 21
8.3152543327276653
 31
0.0
  0
LINE
  5
D30
  8
0
 10
27.9163575051668289
 20
8.3152543327276653
 30
0.0
 11
27.8958850642668388
 21
8.3236126726276538
 31
0.0
  0
LINE
  5
D31
  8
0
 10
27.8958850642668388
 20
8.3236126726276538
 30
0.0
 11
27.8958850642668388
 21
8.3390321712276645
 31
0.0
  0
LINE
  5
D32
  8
0
 10
27.8958850642668388
 20
8.3390321712276645
 30
0.0
 11
27.9163580465700889
 21
8.3473902899874695
 31
0.0
  0
LINE
  5
D33
  8
0
 10
27.9163580465700889
 20
8.3473902899874695
 30
0.0
 11
27.9367985756468791
 21
8.339044978981434
 31
0.0
  0
LINE
  5
D34
  8
0
 10
27.9367985756468791
 20
8.339044978981434
 30
0.0
 11
27.9368299461668492
 21
8.3236126726276538
 31
0.0
  0
LINE
  5
D35
  8
0
 10
27.9368294048668311
 20
8.3858182305276543
 30
0.0
 11
27.9163569638668498
 21
8.3774598906276658
 31
0.0
  0
LINE
  5
D36
  8
0
 10
27.9163569638668498
 20
8.3774598906276658
 30
0.0
 11
27.8958845229668384
 21
8.3858182305276543
 31
0.0
  0
LINE
  5
D37
  8
0
 10
27.8958845229668384
 20
8.3858182305276543
 30
0.0
 11
27.8958845229668384
 21
8.4012377291276632
 31
0.0
  0
LINE
  5
D38
  8
0
 10
27.8958845229668384
 20
8.4012377291276632
 30
0.0
 11
27.9163575052700885
 21
8.4095958478874664
 31
0.0
  0
LINE
  5
D39
  8
0
 10
27.9163575052700885
 20
8.4095958478874664
 30
0.0
 11
27.9367980343468894
 21
8.4012505368814381
 31
0.0
  0
LINE
  5
D3A
  8
0
 10
27.9367980343468894
 20
8.4012505368814381
 30
0.0
 11
27.9368294048668311
 21
8.3858182305276543
 31
0.0
  0
LINE
  5
D3B
  8
0
 10
27.9114362453668399
 20
8.4169206779276564
 30
0.0
 11
27.8909638043668409
 21
8.4085623380276662
 31
0.0
  0
LINE
  5
D3C
  8
0
 10
27.8909638043668409
 20
8.4085623380276662
 30
0.0
 11
27.8704913634668294
 21
8.4169206779276564
 31
0.0
  0
LINE
  5
D3D
  8
0
 10
27.8704913634668294
 20
8.4169206779276564
 30
0.0
 11
27.8704913634668294
 21
8.4323401765276671
 31
0.0
  0
LINE
  5
D3E
  8
0
 10
27.8704913634668294
 20
8.4323401765276671
 30
0.0
 11
27.8823145099613292
 21
8.4371669897907076
 31
0.0
  0
LINE
  5
D3F
  8
0
 10
27.8925114272754193
 20
8.4400666640676931
 30
0.0
 11
27.9114048748468804
 21
8.4323529842814366
 31
0.0
  0
LINE
  5
D40
  8
0
 10
27.9114048748468804
 20
8.4323529842814366
 30
0.0
 11
27.9114362453668399
 21
8.4169206779276564
 31
0.0
  0
LINE
  5
D41
  8
0
 10
27.9114362453668399
 20
8.3547153410276565
 30
0.0
 11
27.8909638043668409
 21
8.3463570011276538
 31
0.0
  0
LINE
  5
D42
  8
0
 10
27.8909638043668409
 20
8.3463570011276538
 30
0.0
 11
27.8704913634668294
 21
8.3547153410276565
 31
0.0
  0
LINE
  5
D43
  8
0
 10
27.8704913634668294
 20
8.3547153410276565
 30
0.0
 11
27.8704913634668294
 21
8.3701348396276671
 31
0.0
  0
LINE
  5
D44
  8
0
 10
27.8704913634668294
 20
8.3701348396276671
 30
0.0
 11
27.8909643457700902
 21
8.3784929583874685
 31
0.0
  0
LINE
  5
D45
  8
0
 10
27.8909643457700902
 20
8.3784929583874685
 30
0.0
 11
27.9114048748468804
 21
8.3701476473814367
 31
0.0
  0
LINE
  5
D46
  8
0
 10
27.9114048748468804
 20
8.3701476473814367
 30
0.0
 11
27.9114362453668399
 21
8.3547153410276565
 31
0.0
  0
LINE
  5
D47
  8
0
 10
27.9114362453668399
 20
8.2925100042276583
 30
0.0
 11
27.8909638043668409
 21
8.2841516643276663
 31
0.0
  0
LINE
  5
D48
  8
0
 10
27.8909638043668409
 20
8.2841516643276663
 30
0.0
 11
27.8704913634668294
 21
8.2925100042276583
 31
0.0
  0
LINE
  5
D49
  8
0
 10
27.8704913634668294
 20
8.2925100042276583
 30
0.0
 11
27.8704913634668294
 21
8.3079295028276654
 31
0.0
  0
LINE
  5
D4A
  8
0
 10
27.8704913634668294
 20
8.3079295028276654
 30
0.0
 11
27.8909643457700902
 21
8.3162876215874668
 31
0.0
  0
LINE
  5
D4B
  8
0
 10
27.8909643457700902
 20
8.3162876215874668
 30
0.0
 11
27.9114048748468804
 21
8.3079423105814385
 31
0.0
  0
LINE
  5
D4C
  8
0
 10
27.9114048748468804
 20
8.3079423105814385
 30
0.0
 11
27.9114362453668399
 21
8.2925100042276583
 31
0.0
  0
LINE
  5
D4D
  8
0
 10
27.8860425446701008
 20
8.3236126725874549
 30
0.0
 11
27.8655701036700911
 21
8.3152543326874557
 31
0.0
  0
LINE
  5
D4E
  8
0
 10
27.8655701036700911
 20
8.3152543326874557
 30
0.0
 11
27.8450976627700904
 21
8.3236126725874549
 31
0.0
  0
LINE
  5
D4F
  8
0
 10
27.8450976627700904
 20
8.3236126725874549
 30
0.0
 11
27.8450976627700904
 21
8.3390321711874691
 31
0.0
  0
LINE
  5
D50
  8
0
 10
27.8450976627700904
 20
8.3390321711874691
 30
0.0
 11
27.8655706450733511
 21
8.3473902899472652
 31
0.0
  0
LINE
  5
D51
  8
0
 10
27.8655706450733511
 20
8.3473902899472652
 30
0.0
 11
27.8860111741501413
 21
8.3390449789412386
 31
0.0
  0
LINE
  5
D52
  8
0
 10
27.8860111741501413
 20
8.3390449789412386
 30
0.0
 11
27.8860425446701008
 21
8.3236126725874549
 31
0.0
  0
LINE
  5
D53
  8
0
 10
27.8860420032668408
 20
8.3858182305276543
 30
0.0
 11
27.8655695622668311
 21
8.3774598906276658
 31
0.0
  0
LINE
  5
D54
  8
0
 10
27.8655695622668311
 20
8.3774598906276658
 30
0.0
 11
27.8450971213668197
 21
8.3858182305276543
 31
0.0
  0
LINE
  5
D55
  8
0
 10
27.8450971213668197
 20
8.3858182305276543
 30
0.0
 11
27.8450971213668197
 21
8.4012377291276632
 31
0.0
  0
LINE
  5
D56
  8
0
 10
27.8450971213668197
 20
8.4012377291276632
 30
0.0
 11
27.8655701036700911
 21
8.4095958478874664
 31
0.0
  0
LINE
  5
D57
  8
0
 10
27.8655701036700911
 20
8.4095958478874664
 30
0.0
 11
27.8860106327468813
 21
8.4012505368814381
 31
0.0
  0
LINE
  5
D58
  8
0
 10
27.8860106327468813
 20
8.4012505368814381
 30
0.0
 11
27.8860420032668408
 21
8.3858182305276543
 31
0.0
  0
LINE
  5
D59
  8
0
 10
27.8606488438700914
 20
8.3547153409874522
 30
0.0
 11
27.8401764028700995
 21
8.346357001087469
 31
0.0
  0
LINE
  5
D5A
  8
0
 10
27.8401764028700995
 20
8.346357001087469
 30
0.0
 11
27.8197039619700917
 21
8.3547153409874522
 31
0.0
  0
LINE
  5
D5B
  8
0
 10
27.8197039619700917
 20
8.3547153409874522
 30
0.0
 11
27.8197039619700917
 21
8.3701348395874682
 31
0.0
  0
LINE
  5
D5C
  8
0
 10
27.8197039619700917
 20
8.3701348395874682
 30
0.0
 11
27.8401769442733595
 21
8.378492958347266
 31
0.0
  0
LINE
  5
D5D
  8
0
 10
27.8401769442733595
 20
8.378492958347266
 30
0.0
 11
27.8606174733501391
 21
8.3701476473412342
 31
0.0
  0
LINE
  5
D5E
  8
0
 10
27.8606174733501391
 20
8.3701476473412342
 30
0.0
 11
27.8606488438700914
 21
8.3547153409874522
 31
0.0
  0
LINE
  5
D5F
  8
0
 10
27.8606482801668207
 20
8.2925079333276557
 30
0.0
 11
27.8437308303918307
 21
8.2856009994910593
 31
0.0
  0
LINE
  5
D60
  8
0
 10
27.8197033982668387
 20
8.3069569530357903
 30
0.0
 11
27.8197033982668387
 21
8.3079274319276557
 31
0.0
  0
LINE
  5
D61
  8
0
 10
27.8197033982668387
 20
8.3079274319276557
 30
0.0
 11
27.8401763805700995
 21
8.3162855506874678
 31
0.0
  0
LINE
  5
D62
  8
0
 10
27.8401763805700995
 20
8.3162855506874678
 30
0.0
 11
27.860616909646879
 21
8.3079402396814341
 31
0.0
  0
LINE
  5
D63
  8
0
 10
27.860616909646879
 20
8.3079402396814341
 30
0.0
 11
27.8606482801668207
 21
8.2925079333276557
 31
0.0
  0
LINE
  5
D64
  8
0
 10
27.8343156877668285
 20
8.3232295606276558
 30
0.0
 11
27.8138432467668295
 21
8.3148712207276567
 31
0.0
  0
LINE
  5
D65
  8
0
 10
27.8138432467668295
 20
8.3148712207276567
 30
0.0
 11
27.8119392667811915
 21
8.3156485638867146
 31
0.0
  0
LINE
  5
D66
  8
0
 10
27.7949788722404101
 20
8.3393055541889183
 30
0.0
 11
27.8138437881700895
 21
8.3470071779874662
 31
0.0
  0
LINE
  5
D67
  8
0
 10
27.8138437881700895
 20
8.3470071779874662
 30
0.0
 11
27.8342843172468797
 21
8.3386618669814396
 31
0.0
  0
LINE
  5
D68
  8
0
 10
27.8342843172468797
 20
8.3386618669814396
 30
0.0
 11
27.8343156877668285
 21
8.3232295606276558
 31
0.0
  0
LINE
  5
D69
  8
0
 10
27.8098608785668411
 20
8.3547132699276538
 30
0.0
 11
27.7906269334112501
 21
8.3468605741388053
 31
0.0
  0
LINE
  5
D6A
  8
0
 10
27.778448031847649
 20
8.3740242329407941
 30
0.0
 11
27.7893889789700914
 21
8.3784908872874695
 31
0.0
  0
LINE
  5
D6B
  8
0
 10
27.7893889789700914
 20
8.3784908872874695
 30
0.0
 11
27.8098295080468816
 21
8.3701455762814341
 31
0.0
  0
LINE
  5
D6C
  8
0
 10
27.8098295080468816
 20
8.3701455762814341
 30
0.0
 11
27.8098608785668411
 21
8.3547132699276538
 31
0.0
  0
LINE
  5
D6D
  8
0
 10
27.8352551430700998
 20
8.3858180094874548
 30
0.0
 11
27.8147827020701008
 21
8.3774596695874664
 31
0.0
  0
LINE
  5
D6E
  8
0
 10
27.8147827020701008
 20
8.3774596695874664
 30
0.0
 11
27.7943102611701001
 21
8.3858180094874548
 31
0.0
  0
LINE
  5
D6F
  8
0
 10
27.7943102611701001
 20
8.3858180094874548
 30
0.0
 11
27.7943102611701001
 21
8.4012375080874691
 31
0.0
  0
LINE
  5
D70
  8
0
 10
27.7943102611701001
 20
8.4012375080874691
 30
0.0
 11
27.8147832434733608
 21
8.4095956268472651
 31
0.0
  0
LINE
  5
D71
  8
0
 10
27.8147832434733608
 20
8.4095956268472651
 30
0.0
 11
27.8352237725501404
 21
8.4012503158412386
 31
0.0
  0
LINE
  5
D72
  8
0
 10
27.8352237725501404
 20
8.4012503158412386
 30
0.0
 11
27.8352551430700998
 21
8.3858180094874548
 31
0.0
  0
LINE
  5
D73
  8
0
 10
27.8860400287168311
 20
8.2615638053776657
 30
0.0
 11
27.8851799579046009
 21
8.2612126618971757
 31
0.0
  0
LINE
  5
D74
  8
0
 10
27.8519546664198394
 20
8.2797837108078944
 30
0.0
 11
27.8655681291200885
 21
8.2853414227374671
 31
0.0
  0
LINE
  5
D75
  8
0
 10
27.8655681291200885
 20
8.2853414227374671
 30
0.0
 11
27.8860086581968893
 21
8.2769961117314352
 31
0.0
  0
LINE
  5
D76
  8
0
 10
27.8860086581968893
 20
8.2769961117314352
 30
0.0
 11
27.8860400287168311
 21
8.2615638053776657
 31
0.0
  0
LINE
  5
D77
  8
0
 10
27.9218298741838709
 20
8.2459473158947816
 30
0.0
 11
27.9417511836700996
 21
8.2540802135874678
 31
0.0
  0
LINE
  5
D78
  8
0
 10
27.9417511836700996
 20
8.2540802135874678
 30
0.0
 11
27.9621917127468791
 21
8.2457349025814342
 31
0.0
  0
LINE
  5
D79
  8
0
 10
27.9621917127468791
 20
8.2457349025814342
 30
0.0
 11
27.9622146152544886
 21
8.2344683212677712
 31
0.0
  0
LINE
  5
D7A
  8
0
 10
28.0130104849767712
 20
8.2303116181642295
 30
0.0
 11
28.0062883914922303
 21
8.2275671705342006
 31
0.0
  0
LINE
  5
D7B
  8
0
 10
27.9720656030767714
 20
8.2324668213160095
 30
0.0
 11
27.9720656030767714
 21
8.2457311167642295
 31
0.0
  0
LINE
  5
D7C
  8
0
 10
27.9720656030767714
 20
8.2457311167642295
 30
0.0
 11
27.9925385853800393
 21
8.2540892355240274
 31
0.0
  0
LINE
  5
D7D
  8
0
 10
27.9925385853800393
 20
8.2540892355240274
 30
0.0
 11
28.0129791144568117
 21
8.2457439245180062
 31
0.0
  0
LINE
  5
D7E
  8
0
 10
28.0129791144568117
 20
8.2457439245180062
 30
0.0
 11
28.0130104849767712
 21
8.2303116181642295
 31
0.0
  0
LINE
  5
D7F
  8
0
 10
28.0336670937018191
 20
8.2258874982361405
 30
0.0
 11
28.02285300456683
 21
8.2303025962276664
 31
0.0
  0
LINE
  5
D80
  8
0
 10
28.02285300456683
 20
8.2303025962276664
 30
0.0
 11
28.02285300456683
 21
8.2457220948276664
 31
0.0
  0
LINE
  5
D81
  8
0
 10
28.02285300456683
 20
8.2457220948276664
 30
0.0
 11
28.0433259868700908
 21
8.2540802135874678
 31
0.0
  0
LINE
  5
D82
  8
0
 10
28.0433260091700909
 20
8.2841516642874673
 30
0.0
 11
28.0228535682700901
 21
8.2925100041874664
 31
0.0
  0
LINE
  5
D83
  8
0
 10
28.0228535682700901
 20
8.2925100041874664
 30
0.0
 11
28.0228535682700901
 21
8.3079295027874664
 31
0.0
  0
LINE
  5
D84
  8
0
 10
28.0228535682700901
 20
8.3079295027874664
 30
0.0
 11
28.0433265505733509
 21
8.3162876215472679
 31
0.0
  0
LINE
  5
D85
  8
0
 10
28.0433254677668309
 20
8.3463572221276543
 30
0.0
 11
28.0228530268668301
 21
8.3547155620276552
 31
0.0
  0
LINE
  5
D86
  8
0
 10
28.0228530268668301
 20
8.3547155620276552
 30
0.0
 11
28.0228530268668301
 21
8.3701350606276534
 31
0.0
  0
LINE
  5
D87
  8
0
 10
28.0228530268668301
 20
8.3701350606276534
 30
0.0
 11
28.0433260091700909
 21
8.3784931793874549
 31
0.0
  0
LINE
  5
D88
  8
0
 10
28.0433254677668309
 20
8.4103985250276558
 30
0.0
 11
28.0228530268668408
 21
8.4187568649276532
 31
0.0
  0
LINE
  5
D89
  8
0
 10
28.0228530268668408
 20
8.4187568649276532
 30
0.0
 11
28.0228530268668408
 21
8.4341763635276532
 31
0.0
  0
LINE
  5
D8A
  8
0
 10
28.0228530268668408
 20
8.4341763635276532
 30
0.0
 11
28.0433260091701015
 21
8.4425344822874564
 31
0.0
  0
LINE
  5
D8B
  8
0
 10
28.0384047493700912
 20
8.4481720843688883
 30
0.0
 11
28.0179323083700993
 21
8.4398137444688963
 31
0.0
  0
LINE
  5
D8C
  8
0
 10
28.0179323083700993
 20
8.4398137444688963
 30
0.0
 11
27.9974598674700985
 21
8.4481720843688883
 31
0.0
  0
LINE
  5
D8D
  8
0
 10
27.9974598674700985
 20
8.4481720843688883
 30
0.0
 11
27.9974598674700985
 21
8.4588217638755516
 31
0.0
  0
LINE
  5
D8E
  8
0
 10
28.0383793097852099
 20
8.4606867467993538
 30
0.0
 11
28.0384047493700912
 21
8.4481720843688883
 31
0.0
  0
LINE
  5
D8F
  8
0
 10
27.9876905236540701
 20
8.4479398326223052
 30
0.0
 11
27.9672180826540604
 21
8.4395814927223078
 31
0.0
  0
LINE
  5
D90
  8
0
 10
27.9672180826540604
 20
8.4395814927223078
 30
0.0
 11
27.9467456417540703
 21
8.4479398326223052
 31
0.0
  0
LINE
  5
D91
  8
0
 10
27.9467456417540703
 20
8.4479398326223052
 30
0.0
 11
27.9467456417540703
 21
8.45230964746181
 31
0.0
  0
LINE
  5
D92
  8
0
 10
27.987670216114001
 20
8.4579298544654478
 30
0.0
 11
27.9876905236540701
 21
8.4479398326223052
 31
0.0
  0
LINE
  5
D93
  8
0
 10
27.93649658309781
 20
8.4483386240167722
 30
0.0
 11
27.916024142097811
 21
8.4399802841167748
 31
0.0
  0
LINE
  5
D94
  8
0
 10
27.916024142097811
 20
8.4399802841167748
 30
0.0
 11
27.9067104096650702
 21
8.4437828273401632
 31
0.0
  0
LINE
  5
D95
  8
0
 10
27.9364923602605906
 20
8.4504159921200355
 30
0.0
 11
27.93649658309781
 21
8.4483386240167722
 31
0.0
  0
LINE
  5
D96
  8
0
 10
27.8605121899665313
 20
8.4170585260766462
 30
0.0
 11
27.8400397489665288
 21
8.4087001861766453
 31
0.0
  0
LINE
  5
D97
  8
0
 10
27.8400397489665288
 20
8.4087001861766453
 30
0.0
 11
27.8224085099450988
 21
8.415898540750927
 31
0.0
  0
LINE
  5
D98
  8
0
 10
27.8604853319409393
 20
8.4302709713723551
 30
0.0
 11
27.8605121899665313
 21
8.4170585260766462
 31
0.0
  0
LINE
  5
D99
  8
0
 10
27.7843136067062417
 20
8.3857887201948067
 30
0.0
 11
27.7757096425503285
 21
8.3822759560401856
 31
0.0
  0
LINE
  5
D9A
  8
0
 10
27.7842881602402194
 20
8.3983067677022341
 30
0.0
 11
27.7843136067062417
 21
8.3857887201948067
 31
0.0
  0
ARC
  5
D9B
  8
0
 10
27.9120052994912413
 20
8.1102833822219171
 30
0.0
 40
0.3145316642097802
 50
116.2461104941941983
 51
136.3757244628338867
  0
LINE
  5
D9C
  8
0
 10
28.8678663546623788
 20
4.6872058796508442
 30
0.0
 11
28.8724623832623806
 21
4.686661980450844
 31
0.0
  0
LINE
  5
D9D
  8
0
 10
28.8724623832623806
 20
4.686661980450844
 30
0.0
 11
28.9807622871623813
 21
4.6606614739508414
 31
0.0
  0
LINE
  5
D9E
  8
0
 10
28.98830711626238
 20
4.651090903850843
 30
0.0
 11
28.98830711626238
 21
4.5021665095508441
 31
0.0
  0
LINE
  5
D9F
  8
0
 10
28.8603475378624985
 20
11.4895680843508394
 30
0.0
 11
28.8603475378624985
 21
11.2041350135508395
 31
0.0
  0
LINE
  5
DA0
  8
0
 10
28.8603475378624985
 20
11.0966546985508394
 30
0.0
 11
28.8603475378624985
 21
4.7068909190508412
 31
0.0
  0
LINE
  5
DA1
  8
0
 10
28.8406693209623803
 20
11.1163397379508506
 30
0.0
 11
28.8406693209623803
 21
11.1348303820508292
 31
0.0
  0
LINE
  5
DA2
  8
0
 10
28.5355512106623799
 20
8.1649039978508355
 30
0.0
 11
28.5355512106623799
 21
9.0297255646508354
 31
0.0
  0
ARC
  5
DA3
  8
0
 10
28.8406741431805287
 20
4.7068792771863919
 30
0.0
 40
0.0196733981265474
 50
269.9859560230215152
 51
0.0339051613339424
  0
ARC
  5
DA4
  8
0
 10
28.9784645965623788
 20
4.651090903850843
 30
0.0
 40
0.0098425197
 50
0.0
 51
76.4999999999999289
  0
ARC
  5
DA5
  8
0
 10
28.8406741435694691
 20
11.4895797263762205
 30
0.0
 40
0.0196733977376951
 50
359.9660943693003787
 51
90.011007531057075
  0
ARC
  5
DA6
  8
0
 10
28.8406741431805287
 20
11.0966663404152897
 30
0.0
 40
0.0196733981265443
 50
359.9660948386572841
 51
90.0140439769876792
  0
ARC
  5
DA7
  8
0
 10
28.8505166616412509
 20
11.2041233762339996
 30
0.0
 40
0.0098308831090844
 50
269.9779814032060017
 51
0.0678239470406593
  0
ARC
  5
DA8
  8
0
 10
28.832795337764459
 20
11.1348303917480305
 30
0.0
 40
0.0078739830979283
 50
359.9999294374732131
 51
66.2587385918368739
  0
ARC
  5
DA9
  8
0
 10
28.0434106931623788
 20
9.3400895536508362
 30
0.0
 40
1.9685429487999979
 50
66.2585659751999145
 51
70.3759266775786472
  0
ARC
  5
DAA
  8
0
 10
28.2319523663727594
 20
8.1751822935126341
 30
0.0
 40
0.3037727795831978
 50
307.6336202363016241
 51
358.0610001090936976
  0
ARC
  5
DAB
  8
0
 10
28.2397473802364516
 20
8.1541671115382162
 30
0.0
 40
0.2959986263858951
 50
2.078770644879159
 51
52.5037156951431285
  0
ARC
  5
DAC
  8
0
 10
28.2462720255201098
 20
8.1583519210637583
 30
0.0
 40
0.2301204035863433
 50
322.3904658418555869
 51
47.2325938734510018
  0
ARC
  5
DAD
  8
0
 10
28.0411157924392285
 20
7.8818633152692543
 30
0.0
 40
0.578851153086784
 50
61.8798813127909426
 51
75.8206822665420503
  0
ARC
  5
DAE
  8
0
 10
28.1711265859695317
 20
8.4286905325941461
 30
0.0
 40
0.1979149621481823
 50
314.3952275589418264
 51
341.3799562414935735
  0
ARC
  5
DAF
  8
0
 10
28.321173994055421
 20
8.2890485010304964
 30
0.0
 40
0.0117204285614226
 50
188.7073876037403011
 51
244.013980160943504
  0
LINE
  5
DB0
  8
0
 10
28.3160386668546593
 20
8.2785129962867963
 30
0.0
 11
28.3434512352546513
 21
8.2649396310867971
 31
0.0
  0
LINE
  5
DB1
  8
0
 10
28.3434512352546513
 20
8.2649396310867971
 30
0.0
 11
28.3434512352546513
 21
8.2398861678867981
 31
0.0
  0
ARC
  5
DB2
  8
0
 10
28.3418631499207905
 20
8.2398382407907782
 30
0.0
 40
0.0015888083692449
 50
255.6704355131003013
 51
1.728614355835377
  0
ARC
  5
DB3
  8
0
 10
28.344104674845191
 20
8.2486131733416137
 30
0.0
 40
0.0106455117020579
 50
248.6338275552583923
 51
255.6704355131008981
  0
LINE
  5
DB4
  8
0
 10
28.3402262272546501
 20
8.2386993161867963
 30
0.0
 11
28.3128136588546511
 21
8.2522726814868061
 31
0.0
  0
ARC
  5
DB5
  8
0
 10
28.31574747537082
 20
8.2578099975267563
 30
0.0
 40
0.0062665100555931
 50
190.6371954823011095
 51
242.0841737551560868
  0
LINE
  5
DB6
  8
0
 10
28.309588650754641
 20
8.2566532660867971
 30
0.0
 11
28.3095886507546801
 21
8.2872741655866484
 31
0.0
  0
ARC
  5
DB7
  8
0
 10
28.0834399804203692
 20
8.5099761535420981
 30
0.0
 40
0.3754080223258249
 50
296.8549932044646198
 51
313.6903141668453827
  0
ARC
  5
DB8
  8
0
 10
28.2527447052470109
 20
8.1768201572865884
 30
0.0
 40
0.0017873120321981
 50
214.8295607884101912
 51
279.0085525972635878
  0
LINE
  5
DB9
  8
0
 10
28.2512775818546515
 20
8.1757993569867971
 30
0.0
 11
28.2320830947546497
 21
8.1951841314868084
 31
0.0
  0
ARC
  5
DBA
  8
0
 10
28.2382063423634406
 20
8.2009501055296141
 30
0.0
 40
0.0084107441966158
 50
184.785652410801589
 51
223.2787679676929997
  0
LINE
  5
DBB
  8
0
 10
28.2298249198546607
 20
8.2002484113867986
 30
0.0
 11
28.2298249198546607
 21
8.2308693108868063
 31
0.0
  0
ARC
  5
DBC
  8
0
 10
28.0375096749840615
 20
8.6466746314062668
 30
0.0
 40
0.4581257665553576
 50
277.8306110036289738
 51
294.8211411526150982
  0
LINE
  5
DBD
  8
0
 10
28.099926961754651
 20
8.1928207999867961
 30
0.0
 11
28.099926961754651
 21
8.1621999004867973
 31
0.0
  0
ARC
  5
DBE
  8
0
 10
28.1273603285981011
 20
8.1627891380353184
 30
0.0
 40
0.027439694190281
 50
181.2304590440054142
 51
192.8760019147420905
  0
LINE
  5
DBF
  8
0
 10
28.1006106160546487
 20
8.1566744265867968
 30
0.0
 11
28.1064216770546516
 21
8.1333695023867953
 31
0.0
  0
ARC
  5
DC0
  8
0
 10
28.1106414488197487
 20
8.1345328658278664
 30
0.0
 40
0.0043772009601569
 50
195.4131830576631899
 51
211.4881003491867943
  0
LINE
  5
DC1
  8
0
 10
28.1069087965546487
 20
8.1322465597867968
 30
0.0
 11
28.1071053313546599
 21
8.1584649280867971
 31
0.0
  0
LINE
  5
DC2
  8
0
 10
28.1071053313546599
 20
8.1584649280867971
 30
0.0
 11
28.1012942702546518
 21
8.1817698521867968
 31
0.0
  0
ARC
  5
DC3
  8
0
 10
28.1554247688853785
 20
8.194077355873798
 30
0.0
 40
0.0555120304890485
 50
181.2970431446053112
 51
192.8094167928582863
  0
ARC
  5
DC4
  8
0
 10
28.0446597668816899
 20
8.6412809888633362
 30
0.0
 40
0.4868375468943599
 50
277.3695045795336114
 51
292.9297859205356076
  0
ARC
  5
DC5
  8
0
 10
28.1243729759683916
 20
8.4469823863051765
 30
0.0
 40
0.2206101146256812
 50
298.256624633417573
 51
342.6099030126667913
  0
ARC
  5
DC6
  8
0
 10
28.0997126131418788
 20
8.4680260310299182
 30
0.0
 40
0.3004707882294283
 50
295.8080115630058913
 51
314.6032018379302144
  0
ARC
  5
DC7
  8
0
 10
28.1579318212427907
 20
8.4455775719608468
 30
0.0
 40
0.2589353561384097
 50
315.7638006905742145
 51
335.1848356135993185
  0
ARC
  5
DC8
  8
0
 10
28.0473857837946809
 20
8.5800024488275675
 30
0.0
 40
0.3541624234839774
 50
284.6517384166033935
 51
299.9280013258235158
  0
ARC
  5
DC9
  8
0
 10
28.1290645079174695
 20
8.438119298516316
 30
0.0
 40
0.190448519625535
 50
299.9280013258235158
 51
346.1060365208368239
  0
LINE
  5
DCA
  8
0
 10
28.0484467465546601
 20
8.2614073356874531
 30
0.0
 11
28.0689191875546484
 21
8.2530489957874664
 31
0.0
  0
LINE
  5
DCB
  8
0
 10
28.0689191875546484
 20
8.2530489957874664
 30
0.0
 11
28.0893916284546492
 21
8.2614073356874531
 31
0.0
  0
LINE
  5
DCC
  8
0
 10
28.0893916284546492
 20
8.2614073356874531
 30
0.0
 11
28.0893916284546492
 21
8.2768268342874691
 31
0.0
  0
LINE
  5
DCD
  8
0
 10
28.0893916284546492
 20
8.2768268342874691
 30
0.0
 11
28.0689186461513884
 21
8.2851849530472652
 31
0.0
  0
LINE
  5
DCE
  8
0
 10
28.0689186461513884
 20
8.2851849530472652
 30
0.0
 11
28.0484781170746089
 21
8.2768396420412387
 31
0.0
  0
LINE
  5
DCF
  8
0
 10
28.0484781170746089
 20
8.2768396420412387
 30
0.0
 11
28.0484467465546601
 21
8.2614073356874531
 31
0.0
  0
LINE
  5
DD0
  8
0
 10
28.0484467465546601
 20
8.3236126725874549
 30
0.0
 11
28.0689191875546484
 21
8.3152543326874557
 31
0.0
  0
LINE
  5
DD1
  8
0
 10
28.0689191875546484
 20
8.3152543326874557
 30
0.0
 11
28.0893916284546492
 21
8.3236126725874549
 31
0.0
  0
LINE
  5
DD2
  8
0
 10
28.0893916284546492
 20
8.3236126725874549
 30
0.0
 11
28.0893916284546492
 21
8.3390321711874691
 31
0.0
  0
LINE
  5
DD3
  8
0
 10
28.0893916284546492
 20
8.3390321711874691
 30
0.0
 11
28.0689186461513884
 21
8.3473902899472652
 31
0.0
  0
LINE
  5
DD4
  8
0
 10
28.0689186461513884
 20
8.3473902899472652
 30
0.0
 11
28.0484781170746089
 21
8.3390449789412386
 31
0.0
  0
LINE
  5
DD5
  8
0
 10
28.0484781170746089
 20
8.3390449789412386
 30
0.0
 11
28.0484467465546601
 21
8.3236126725874549
 31
0.0
  0
LINE
  5
DD6
  8
0
 10
28.0484467465546601
 20
8.3858180094874548
 30
0.0
 11
28.0689191875546484
 21
8.3774596695874664
 31
0.0
  0
LINE
  5
DD7
  8
0
 10
28.0689191875546484
 20
8.3774596695874664
 30
0.0
 11
28.0893916284546492
 21
8.3858180094874548
 31
0.0
  0
LINE
  5
DD8
  8
0
 10
28.0893916284546492
 20
8.3858180094874548
 30
0.0
 11
28.0893916284546492
 21
8.4012375080874691
 31
0.0
  0
LINE
  5
DD9
  8
0
 10
28.0893916284546492
 20
8.4012375080874691
 30
0.0
 11
28.0689186461513884
 21
8.4095956268472651
 31
0.0
  0
LINE
  5
DDA
  8
0
 10
28.0689186461513884
 20
8.4095956268472651
 30
0.0
 11
28.0484781170746089
 21
8.4012503158412386
 31
0.0
  0
LINE
  5
DDB
  8
0
 10
28.0484781170746089
 20
8.4012503158412386
 30
0.0
 11
28.0484467465546601
 21
8.3858180094874548
 31
0.0
  0
LINE
  5
DDC
  8
0
 10
28.0738404473579095
 20
8.4169206779276564
 30
0.0
 11
28.0943128883579014
 21
8.4085623380276662
 31
0.0
  0
LINE
  5
DDD
  8
0
 10
28.0943128883579014
 20
8.4085623380276662
 30
0.0
 11
28.11478532925792
 21
8.4169206779276564
 31
0.0
  0
LINE
  5
DDE
  8
0
 10
28.11478532925792
 20
8.4169206779276564
 30
0.0
 11
28.11478532925792
 21
8.4323401765276671
 31
0.0
  0
LINE
  5
DDF
  8
0
 10
28.11478532925792
 20
8.4323401765276671
 30
0.0
 11
28.0943123469546485
 21
8.4406982952874685
 31
0.0
  0
LINE
  5
DE0
  8
0
 10
28.0943123469546485
 20
8.4406982952874685
 30
0.0
 11
28.0738718178778583
 21
8.4323529842814366
 31
0.0
  0
LINE
  5
DE1
  8
0
 10
28.0738718178778583
 20
8.4323529842814366
 30
0.0
 11
28.0738404473579095
 21
8.4169206779276564
 31
0.0
  0
LINE
  5
DE2
  8
0
 10
28.0738404473579095
 20
8.3547153410276565
 30
0.0
 11
28.0943128883579014
 21
8.3463570011276538
 31
0.0
  0
LINE
  5
DE3
  8
0
 10
28.0943128883579014
 20
8.3463570011276538
 30
0.0
 11
28.11478532925792
 21
8.3547153410276565
 31
0.0
  0
LINE
  5
DE4
  8
0
 10
28.11478532925792
 20
8.3547153410276565
 30
0.0
 11
28.11478532925792
 21
8.3701348396276671
 31
0.0
  0
LINE
  5
DE5
  8
0
 10
28.11478532925792
 20
8.3701348396276671
 30
0.0
 11
28.0943123469546485
 21
8.3784929583874685
 31
0.0
  0
LINE
  5
DE6
  8
0
 10
28.0943123469546485
 20
8.3784929583874685
 30
0.0
 11
28.0738718178778583
 21
8.3701476473814367
 31
0.0
  0
LINE
  5
DE7
  8
0
 10
28.0738718178778583
 20
8.3701476473814367
 30
0.0
 11
28.0738404473579095
 21
8.3547153410276565
 31
0.0
  0
LINE
  5
DE8
  8
0
 10
28.0738404473579095
 20
8.2925100042276583
 30
0.0
 11
28.0943128883579014
 21
8.2841516643276663
 31
0.0
  0
LINE
  5
DE9
  8
0
 10
28.0943128883579014
 20
8.2841516643276663
 30
0.0
 11
28.11478532925792
 21
8.2925100042276583
 31
0.0
  0
LINE
  5
DEA
  8
0
 10
28.11478532925792
 20
8.2925100042276583
 30
0.0
 11
28.11478532925792
 21
8.3079295028276654
 31
0.0
  0
LINE
  5
DEB
  8
0
 10
28.11478532925792
 20
8.3079295028276654
 30
0.0
 11
28.0943123469546485
 21
8.3162876215874668
 31
0.0
  0
LINE
  5
DEC
  8
0
 10
28.0943123469546485
 20
8.3162876215874668
 30
0.0
 11
28.0738718178778583
 21
8.3079423105814385
 31
0.0
  0
LINE
  5
DED
  8
0
 10
28.0738718178778583
 20
8.3079423105814385
 30
0.0
 11
28.0738404473579095
 21
8.2925100042276583
 31
0.0
  0
LINE
  5
DEE
  8
0
 10
28.0992346894579015
 20
8.2614073356874531
 30
0.0
 11
28.1197071304579183
 21
8.2530489957874664
 31
0.0
  0
LINE
  5
DEF
  8
0
 10
28.1197071304579183
 20
8.2530489957874664
 30
0.0
 11
28.1401795713579013
 21
8.2614073356874531
 31
0.0
  0
LINE
  5
DF0
  8
0
 10
28.1401795713579013
 20
8.2614073356874531
 30
0.0
 11
28.1401795713579013
 21
8.2768268342874691
 31
0.0
  0
LINE
  5
DF1
  8
0
 10
28.1401795713579013
 20
8.2768268342874691
 30
0.0
 11
28.1197065890546583
 21
8.2851849530472652
 31
0.0
  0
LINE
  5
DF2
  8
0
 10
28.1197065890546583
 20
8.2851849530472652
 30
0.0
 11
28.099266059977861
 21
8.2768396420412387
 31
0.0
  0
LINE
  5
DF3
  8
0
 10
28.099266059977861
 20
8.2768396420412387
 30
0.0
 11
28.0992346894579015
 21
8.2614073356874531
 31
0.0
  0
LINE
  5
DF4
  8
0
 10
28.0992341481579189
 20
8.3236126726276538
 30
0.0
 11
28.1197065891579108
 21
8.3152543327276653
 31
0.0
  0
LINE
  5
DF5
  8
0
 10
28.1197065891579108
 20
8.3152543327276653
 30
0.0
 11
28.1401790300579009
 21
8.3236126726276538
 31
0.0
  0
LINE
  5
DF6
  8
0
 10
28.1401790300579009
 20
8.3236126726276538
 30
0.0
 11
28.1401790300579009
 21
8.3390321712276645
 31
0.0
  0
LINE
  5
DF7
  8
0
 10
28.1401790300579009
 20
8.3390321712276645
 30
0.0
 11
28.1197060477546614
 21
8.3473902899874695
 31
0.0
  0
LINE
  5
DF8
  8
0
 10
28.1197060477546614
 20
8.3473902899874695
 30
0.0
 11
28.0992655186778606
 21
8.339044978981434
 31
0.0
  0
LINE
  5
DF9
  8
0
 10
28.0992655186778606
 20
8.339044978981434
 30
0.0
 11
28.0992341481579189
 21
8.3236126726276538
 31
0.0
  0
LINE
  5
DFA
  8
0
 10
28.0992341481579189
 20
8.3858180095276538
 30
0.0
 11
28.1197065891579108
 21
8.3774596696276582
 31
0.0
  0
LINE
  5
DFB
  8
0
 10
28.1197065891579108
 20
8.3774596696276582
 30
0.0
 11
28.1401790300579009
 21
8.3858180095276538
 31
0.0
  0
LINE
  5
DFC
  8
0
 10
28.1401790300579009
 20
8.3858180095276538
 30
0.0
 11
28.1401790300579009
 21
8.4012375081276645
 31
0.0
  0
LINE
  5
DFD
  8
0
 10
28.1401790300579009
 20
8.4012375081276645
 30
0.0
 11
28.1197060477546614
 21
8.4095956268874694
 31
0.0
  0
LINE
  5
DFE
  8
0
 10
28.1197060477546614
 20
8.4095956268874694
 30
0.0
 11
28.0992655186778606
 21
8.401250315881434
 31
0.0
  0
LINE
  5
DFF
  8
0
 10
28.0992655186778606
 20
8.401250315881434
 30
0.0
 11
28.0992341481579189
 21
8.3858180095276538
 31
0.0
  0
LINE
  5
E00
  8
0
 10
28.1246278489579105
 20
8.4169206779276564
 30
0.0
 11
28.1451002899579095
 21
8.4085623380276662
 31
0.0
  0
LINE
  5
E01
  8
0
 10
28.1451002899579095
 20
8.4085623380276662
 30
0.0
 11
28.1655727308579102
 21
8.4169206779276564
 31
0.0
  0
LINE
  5
E02
  8
0
 10
28.1655727308579102
 20
8.4169206779276564
 30
0.0
 11
28.1655727308579102
 21
8.4323401765276671
 31
0.0
  0
LINE
  5
E03
  8
0
 10
28.1655727308579102
 20
8.4323401765276671
 30
0.0
 11
28.1450997485546495
 21
8.4406982952874685
 31
0.0
  0
LINE
  5
E04
  8
0
 10
28.1450997485546495
 20
8.4406982952874685
 30
0.0
 11
28.12465921947787
 21
8.4323529842814366
 31
0.0
  0
LINE
  5
E05
  8
0
 10
28.12465921947787
 20
8.4323529842814366
 30
0.0
 11
28.1246278489579105
 21
8.4169206779276564
 31
0.0
  0
LINE
  5
E06
  8
0
 10
28.1246278489579105
 20
8.3547153410276565
 30
0.0
 11
28.1451002899579095
 21
8.3463570011276538
 31
0.0
  0
LINE
  5
E07
  8
0
 10
28.1451002899579095
 20
8.3463570011276538
 30
0.0
 11
28.1655727308579102
 21
8.3547153410276565
 31
0.0
  0
LINE
  5
E08
  8
0
 10
28.1655727308579102
 20
8.3547153410276565
 30
0.0
 11
28.1655727308579102
 21
8.3701348396276671
 31
0.0
  0
LINE
  5
E09
  8
0
 10
28.1655727308579102
 20
8.3701348396276671
 30
0.0
 11
28.1450997485546495
 21
8.3784929583874685
 31
0.0
  0
LINE
  5
E0A
  8
0
 10
28.1450997485546495
 20
8.3784929583874685
 30
0.0
 11
28.12465921947787
 21
8.3701476473814367
 31
0.0
  0
LINE
  5
E0B
  8
0
 10
28.12465921947787
 20
8.3701476473814367
 30
0.0
 11
28.1246278489579105
 21
8.3547153410276565
 31
0.0
  0
LINE
  5
E0C
  8
0
 10
28.1246278489579105
 20
8.2925100042276583
 30
0.0
 11
28.1451002899579095
 21
8.2841516643276663
 31
0.0
  0
LINE
  5
E0D
  8
0
 10
28.1451002899579095
 20
8.2841516643276663
 30
0.0
 11
28.1655727308579102
 21
8.2925100042276583
 31
0.0
  0
LINE
  5
E0E
  8
0
 10
28.1655727308579102
 20
8.2925100042276583
 30
0.0
 11
28.1655727308579102
 21
8.3079295028276654
 31
0.0
  0
LINE
  5
E0F
  8
0
 10
28.1655727308579102
 20
8.3079295028276654
 30
0.0
 11
28.1450997485546495
 21
8.3162876215874668
 31
0.0
  0
LINE
  5
E10
  8
0
 10
28.1450997485546495
 20
8.3162876215874668
 30
0.0
 11
28.12465921947787
 21
8.3079423105814385
 31
0.0
  0
LINE
  5
E11
  8
0
 10
28.12465921947787
 20
8.3079423105814385
 30
0.0
 11
28.1246278489579105
 21
8.2925100042276583
 31
0.0
  0
LINE
  5
E12
  8
0
 10
28.1500221134579007
 20
8.2614052646276583
 30
0.0
 11
28.1704945544579104
 21
8.2530469247276557
 31
0.0
  0
LINE
  5
E13
  8
0
 10
28.1704945544579104
 20
8.2530469247276557
 30
0.0
 11
28.1909669953579005
 21
8.2614052646276583
 31
0.0
  0
LINE
  5
E14
  8
0
 10
28.1909669953579005
 20
8.2614052646276583
 30
0.0
 11
28.1909669953579005
 21
8.2768247632276655
 31
0.0
  0
LINE
  5
E15
  8
0
 10
28.1909669953579005
 20
8.2768247632276655
 30
0.0
 11
28.1704940130546504
 21
8.2851828819874669
 31
0.0
  0
LINE
  5
E16
  8
0
 10
28.1704940130546504
 20
8.2851828819874669
 30
0.0
 11
28.1500534839778709
 21
8.2768375709814386
 31
0.0
  0
LINE
  5
E17
  8
0
 10
28.1500534839778709
 20
8.2768375709814386
 30
0.0
 11
28.1500221134579007
 21
8.2614052646276583
 31
0.0
  0
LINE
  5
E18
  8
0
 10
28.1500215497578985
 20
8.3236126726276538
 30
0.0
 11
28.1704939907579188
 21
8.3152543327276653
 31
0.0
  0
LINE
  5
E19
  8
0
 10
28.1704939907579188
 20
8.3152543327276653
 30
0.0
 11
28.1909664316578983
 21
8.3236126726276538
 31
0.0
  0
LINE
  5
E1A
  8
0
 10
28.1909664316578983
 20
8.3236126726276538
 30
0.0
 11
28.1909664316578983
 21
8.3390321712276645
 31
0.0
  0
LINE
  5
E1B
  8
0
 10
28.1909664316578983
 20
8.3390321712276645
 30
0.0
 11
28.1704934493546588
 21
8.3473902899874695
 31
0.0
  0
LINE
  5
E1C
  8
0
 10
28.1704934493546588
 20
8.3473902899874695
 30
0.0
 11
28.1500529202778687
 21
8.339044978981434
 31
0.0
  0
LINE
  5
E1D
  8
0
 10
28.1500529202778687
 20
8.339044978981434
 30
0.0
 11
28.1500215497578985
 21
8.3236126726276538
 31
0.0
  0
LINE
  5
E1E
  8
0
 10
28.1500220910579202
 20
8.3858182305276543
 30
0.0
 11
28.1704945320579014
 21
8.3774598906276658
 31
0.0
  0
LINE
  5
E1F
  8
0
 10
28.1704945320579014
 20
8.3774598906276658
 30
0.0
 11
28.1909669729579093
 21
8.3858182305276543
 31
0.0
  0
LINE
  5
E20
  8
0
 10
28.1909669729579093
 20
8.3858182305276543
 30
0.0
 11
28.1909669729579093
 21
8.4012377291276632
 31
0.0
  0
LINE
  5
E21
  8
0
 10
28.1909669729579093
 20
8.4012377291276632
 30
0.0
 11
28.1704939906546485
 21
8.4095958478874664
 31
0.0
  0
LINE
  5
E22
  8
0
 10
28.1704939906546485
 20
8.4095958478874664
 30
0.0
 11
28.1500534615778584
 21
8.4012505368814381
 31
0.0
  0
LINE
  5
E23
  8
0
 10
28.1500534615778584
 20
8.4012505368814381
 30
0.0
 11
28.1500220910579202
 21
8.3858182305276543
 31
0.0
  0
LINE
  5
E24
  8
0
 10
28.1754152505579007
 20
8.4169206779276564
 30
0.0
 11
28.1958876915579104
 21
8.4085623380276662
 31
0.0
  0
LINE
  5
E25
  8
0
 10
28.1958876915579104
 20
8.4085623380276662
 30
0.0
 11
28.2163601324579183
 21
8.4169206779276564
 31
0.0
  0
LINE
  5
E26
  8
0
 10
28.2163601324579183
 20
8.4169206779276564
 30
0.0
 11
28.2163601324579183
 21
8.4323401765276671
 31
0.0
  0
LINE
  5
E27
  8
0
 10
28.2163601324579183
 20
8.4323401765276671
 30
0.0
 11
28.2045369859634114
 21
8.4371669897907076
 31
0.0
  0
LINE
  5
E28
  8
0
 10
28.1943400686493284
 20
8.4400666640676931
 30
0.0
 11
28.1754466210778709
 21
8.4323529842814366
 31
0.0
  0
LINE
  5
E29
  8
0
 10
28.1754466210778709
 20
8.4323529842814366
 30
0.0
 11
28.1754152505579007
 21
8.4169206779276564
 31
0.0
  0
LINE
  5
E2A
  8
0
 10
28.1754152505579007
 20
8.3547153410276565
 30
0.0
 11
28.1958876915579104
 21
8.3463570011276538
 31
0.0
  0
LINE
  5
E2B
  8
0
 10
28.1958876915579104
 20
8.3463570011276538
 30
0.0
 11
28.2163601324579183
 21
8.3547153410276565
 31
0.0
  0
LINE
  5
E2C
  8
0
 10
28.2163601324579183
 20
8.3547153410276565
 30
0.0
 11
28.2163601324579183
 21
8.3701348396276671
 31
0.0
  0
LINE
  5
E2D
  8
0
 10
28.2163601324579183
 20
8.3701348396276671
 30
0.0
 11
28.1958871501546611
 21
8.3784929583874685
 31
0.0
  0
LINE
  5
E2E
  8
0
 10
28.1958871501546611
 20
8.3784929583874685
 30
0.0
 11
28.1754466210778709
 21
8.3701476473814367
 31
0.0
  0
LINE
  5
E2F
  8
0
 10
28.1754466210778709
 20
8.3701476473814367
 30
0.0
 11
28.1754152505579007
 21
8.3547153410276565
 31
0.0
  0
LINE
  5
E30
  8
0
 10
28.1754152505579007
 20
8.2925100042276583
 30
0.0
 11
28.1958876915579104
 21
8.2841516643276663
 31
0.0
  0
LINE
  5
E31
  8
0
 10
28.1958876915579104
 20
8.2841516643276663
 30
0.0
 11
28.2163601324579183
 21
8.2925100042276583
 31
0.0
  0
LINE
  5
E32
  8
0
 10
28.2163601324579183
 20
8.2925100042276583
 30
0.0
 11
28.2163601324579183
 21
8.3079295028276654
 31
0.0
  0
LINE
  5
E33
  8
0
 10
28.2163601324579183
 20
8.3079295028276654
 30
0.0
 11
28.1958871501546611
 21
8.3162876215874668
 31
0.0
  0
LINE
  5
E34
  8
0
 10
28.1958871501546611
 20
8.3162876215874668
 30
0.0
 11
28.1754466210778709
 21
8.3079423105814385
 31
0.0
  0
LINE
  5
E35
  8
0
 10
28.1754466210778709
 20
8.3079423105814385
 30
0.0
 11
28.1754152505579007
 21
8.2925100042276583
 31
0.0
  0
LINE
  5
E36
  8
0
 10
28.2008089512546505
 20
8.3236126725874549
 30
0.0
 11
28.2212813922546601
 21
8.3152543326874557
 31
0.0
  0
LINE
  5
E37
  8
0
 10
28.2212813922546601
 20
8.3152543326874557
 30
0.0
 11
28.2417538331546609
 21
8.3236126725874549
 31
0.0
  0
LINE
  5
E38
  8
0
 10
28.2417538331546609
 20
8.3236126725874549
 30
0.0
 11
28.2417538331546609
 21
8.3390321711874691
 31
0.0
  0
LINE
  5
E39
  8
0
 10
28.2417538331546609
 20
8.3390321711874691
 30
0.0
 11
28.2212808508514001
 21
8.3473902899472652
 31
0.0
  0
LINE
  5
E3A
  8
0
 10
28.2212808508514001
 20
8.3473902899472652
 30
0.0
 11
28.20084032177461
 21
8.3390449789412386
 31
0.0
  0
LINE
  5
E3B
  8
0
 10
28.20084032177461
 20
8.3390449789412386
 30
0.0
 11
28.2008089512546505
 21
8.3236126725874549
 31
0.0
  0
LINE
  5
E3C
  8
0
 10
28.2008094926579105
 20
8.3858182305276543
 30
0.0
 11
28.2212819336579201
 21
8.3774598906276658
 31
0.0
  0
LINE
  5
E3D
  8
0
 10
28.2212819336579201
 20
8.3774598906276658
 30
0.0
 11
28.2417543745579209
 21
8.3858182305276543
 31
0.0
  0
LINE
  5
E3E
  8
0
 10
28.2417543745579209
 20
8.3858182305276543
 30
0.0
 11
28.2417543745579209
 21
8.4012377291276632
 31
0.0
  0
LINE
  5
E3F
  8
0
 10
28.2417543745579209
 20
8.4012377291276632
 30
0.0
 11
28.2212813922546601
 21
8.4095958478874664
 31
0.0
  0
LINE
  5
E40
  8
0
 10
28.2212813922546601
 20
8.4095958478874664
 30
0.0
 11
28.20084086317787
 21
8.4012505368814381
 31
0.0
  0
LINE
  5
E41
  8
0
 10
28.20084086317787
 20
8.4012505368814381
 30
0.0
 11
28.2008094926579105
 21
8.3858182305276543
 31
0.0
  0
LINE
  5
E42
  8
0
 10
28.2262026520546598
 20
8.3547153409874522
 30
0.0
 11
28.2466750930546517
 21
8.346357001087469
 31
0.0
  0
LINE
  5
E43
  8
0
 10
28.2466750930546517
 20
8.346357001087469
 30
0.0
 11
28.2671475339546596
 21
8.3547153409874522
 31
0.0
  0
LINE
  5
E44
  8
0
 10
28.2671475339546596
 20
8.3547153409874522
 30
0.0
 11
28.2671475339546596
 21
8.3701348395874682
 31
0.0
  0
LINE
  5
E45
  8
0
 10
28.2671475339546596
 20
8.3701348395874682
 30
0.0
 11
28.2466745516513917
 21
8.378492958347266
 31
0.0
  0
LINE
  5
E46
  8
0
 10
28.2466745516513917
 20
8.378492958347266
 30
0.0
 11
28.2262340225746087
 21
8.3701476473412342
 31
0.0
  0
LINE
  5
E47
  8
0
 10
28.2262340225746087
 20
8.3701476473412342
 30
0.0
 11
28.2262026520546598
 21
8.3547153409874522
 31
0.0
  0
LINE
  5
E48
  8
0
 10
28.2262032157579199
 20
8.2925079333276557
 30
0.0
 11
28.2431206655329206
 21
8.2856009994910593
 31
0.0
  0
LINE
  5
E49
  8
0
 10
28.2671480976578984
 20
8.3069569530357903
 30
0.0
 11
28.2671480976578984
 21
8.3079274319276557
 31
0.0
  0
LINE
  5
E4A
  8
0
 10
28.2671480976578984
 20
8.3079274319276557
 30
0.0
 11
28.2466751153546483
 21
8.3162855506874678
 31
0.0
  0
LINE
  5
E4B
  8
0
 10
28.2466751153546483
 20
8.3162855506874678
 30
0.0
 11
28.2262345862778616
 21
8.3079402396814341
 31
0.0
  0
LINE
  5
E4C
  8
0
 10
28.2262345862778616
 20
8.3079402396814341
 30
0.0
 11
28.2262032157579199
 21
8.2925079333276557
 31
0.0
  0
LINE
  5
E4D
  8
0
 10
28.2525358081579192
 20
8.3232295606276558
 30
0.0
 11
28.2730082491579218
 21
8.3148712207276567
 31
0.0
  0
LINE
  5
E4E
  8
0
 10
28.2730082491579218
 20
8.3148712207276567
 30
0.0
 11
28.2749122291435491
 21
8.3156485638867146
 31
0.0
  0
LINE
  5
E4F
  8
0
 10
28.2918726236843412
 20
8.3393055541889183
 30
0.0
 11
28.2730077077546618
 21
8.3470071779874662
 31
0.0
  0
LINE
  5
E50
  8
0
 10
28.2730077077546618
 20
8.3470071779874662
 30
0.0
 11
28.2525671786778609
 21
8.3386618669814396
 31
0.0
  0
LINE
  5
E51
  8
0
 10
28.2525671786778609
 20
8.3386618669814396
 30
0.0
 11
28.2525358081579192
 21
8.3232295606276558
 31
0.0
  0
LINE
  5
E52
  8
0
 10
28.2769906173579102
 20
8.3547132699276538
 30
0.0
 11
28.2962245625135012
 21
8.3468605741388053
 31
0.0
  0
LINE
  5
E53
  8
0
 10
28.3084034640770987
 20
8.3740242329407941
 30
0.0
 11
28.2974625169546599
 21
8.3784908872874695
 31
0.0
  0
LINE
  5
E54
  8
0
 10
28.2974625169546599
 20
8.3784908872874695
 30
0.0
 11
28.277021987877859
 21
8.3701455762814341
 31
0.0
  0
LINE
  5
E55
  8
0
 10
28.277021987877859
 20
8.3701455762814341
 30
0.0
 11
28.2769906173579102
 21
8.3547132699276538
 31
0.0
  0
LINE
  5
E56
  8
0
 10
28.2515963528546514
 20
8.3858180094874548
 30
0.0
 11
28.2720687938546504
 21
8.3774596695874664
 31
0.0
  0
LINE
  5
E57
  8
0
 10
28.2720687938546504
 20
8.3774596695874664
 30
0.0
 11
28.2925412347546512
 21
8.3858180094874548
 31
0.0
  0
LINE
  5
E58
  8
0
 10
28.2925412347546512
 20
8.3858180094874548
 30
0.0
 11
28.2925412347546512
 21
8.4012375080874691
 31
0.0
  0
LINE
  5
E59
  8
0
 10
28.2925412347546512
 20
8.4012375080874691
 30
0.0
 11
28.2720682524513904
 21
8.4095956268472651
 31
0.0
  0
LINE
  5
E5A
  8
0
 10
28.2720682524513904
 20
8.4095956268472651
 30
0.0
 11
28.2516277233746109
 21
8.4012503158412386
 31
0.0
  0
LINE
  5
E5B
  8
0
 10
28.2516277233746109
 20
8.4012503158412386
 30
0.0
 11
28.2515963528546514
 21
8.3858180094874548
 31
0.0
  0
LINE
  5
E5C
  8
0
 10
28.2008114672079202
 20
8.2615638053776657
 30
0.0
 11
28.2016715380201397
 21
8.2612126618971757
 31
0.0
  0
LINE
  5
E5D
  8
0
 10
28.2348968295049083
 20
8.2797837108078944
 30
0.0
 11
28.2212833668046592
 21
8.2853414227374671
 31
0.0
  0
LINE
  5
E5E
  8
0
 10
28.2212833668046592
 20
8.2853414227374671
 30
0.0
 11
28.2008428377278584
 21
8.2769961117314352
 31
0.0
  0
LINE
  5
E5F
  8
0
 10
28.2008428377278584
 20
8.2769961117314352
 30
0.0
 11
28.2008114672079202
 21
8.2615638053776657
 31
0.0
  0
LINE
  5
E60
  8
0
 10
28.1650216217408698
 20
8.2459473158947816
 30
0.0
 11
28.1451003122546517
 21
8.2540802135874678
 31
0.0
  0
LINE
  5
E61
  8
0
 10
28.1451003122546517
 20
8.2540802135874678
 30
0.0
 11
28.1246597831778686
 21
8.2457349025814342
 31
0.0
  0
LINE
  5
E62
  8
0
 10
28.1246597831778686
 20
8.2457349025814342
 30
0.0
 11
28.1246368806702485
 21
8.2344683212677712
 31
0.0
  0
LINE
  5
E63
  8
0
 10
28.0738410109479695
 20
8.2303116181642295
 30
0.0
 11
28.080563104432521
 21
8.2275671705342006
 31
0.0
  0
LINE
  5
E64
  8
0
 10
28.1147858928479799
 20
8.2324668213160095
 30
0.0
 11
28.1147858928479799
 21
8.2457311167642295
 31
0.0
  0
LINE
  5
E65
  8
0
 10
28.1147858928479799
 20
8.2457311167642295
 30
0.0
 11
28.0943129105447085
 21
8.2540892355240274
 31
0.0
  0
LINE
  5
E66
  8
0
 10
28.0943129105447085
 20
8.2540892355240274
 30
0.0
 11
28.073872381467929
 21
8.2457439245180062
 31
0.0
  0
LINE
  5
E67
  8
0
 10
28.073872381467929
 20
8.2457439245180062
 30
0.0
 11
28.0738410109479695
 21
8.2303116181642295
 31
0.0
  0
LINE
  5
E68
  8
0
 10
28.0531844022229286
 20
8.2258874982361405
 30
0.0
 11
28.0639984913579212
 21
8.2303025962276664
 31
0.0
  0
LINE
  5
E69
  8
0
 10
28.0639984913579212
 20
8.2303025962276664
 30
0.0
 11
28.0639984913579212
 21
8.2457220948276664
 31
0.0
  0
LINE
  5
E6A
  8
0
 10
28.0639984913579212
 20
8.2457220948276664
 30
0.0
 11
28.0435255090546605
 21
8.2540802135874678
 31
0.0
  0
LINE
  5
E6B
  8
0
 10
28.0435254867546604
 20
8.2841516642874673
 30
0.0
 11
28.0639979276546612
 21
8.2925100041874664
 31
0.0
  0
LINE
  5
E6C
  8
0
 10
28.0639979276546612
 20
8.2925100041874664
 30
0.0
 11
28.0639979276546612
 21
8.3079295027874664
 31
0.0
  0
LINE
  5
E6D
  8
0
 10
28.0639979276546612
 20
8.3079295027874664
 30
0.0
 11
28.0435249453514004
 21
8.3162876215472679
 31
0.0
  0
LINE
  5
E6E
  8
0
 10
28.0435260281579204
 20
8.3463572221276543
 30
0.0
 11
28.0639984690579212
 21
8.3547155620276552
 31
0.0
  0
LINE
  5
E6F
  8
0
 10
28.0639984690579212
 20
8.3547155620276552
 30
0.0
 11
28.0639984690579212
 21
8.3701350606276534
 31
0.0
  0
LINE
  5
E70
  8
0
 10
28.0639984690579212
 20
8.3701350606276534
 30
0.0
 11
28.0435254867546604
 21
8.3784931793874549
 31
0.0
  0
LINE
  5
E71
  8
0
 10
28.0435260281579097
 20
8.4103985250276558
 30
0.0
 11
28.0639984690579105
 21
8.4187568649276532
 31
0.0
  0
LINE
  5
E72
  8
0
 10
28.0639984690579105
 20
8.4187568649276532
 30
0.0
 11
28.0639984690579105
 21
8.4341763635276532
 31
0.0
  0
LINE
  5
E73
  8
0
 10
28.0639984690579105
 20
8.4341763635276532
 30
0.0
 11
28.0435254867546497
 21
8.4425344822874564
 31
0.0
  0
LINE
  5
E74
  8
0
 10
28.0484467465546601
 20
8.4481720843688883
 30
0.0
 11
28.0689191875546484
 21
8.4398137444688963
 31
0.0
  0
LINE
  5
E75
  8
0
 10
28.0689191875546484
 20
8.4398137444688963
 30
0.0
 11
28.0893916284546492
 21
8.4481720843688883
 31
0.0
  0
LINE
  5
E76
  8
0
 10
28.0893916284546492
 20
8.4481720843688883
 30
0.0
 11
28.0893916284546492
 21
8.4588217638755516
 31
0.0
  0
LINE
  5
E77
  8
0
 10
28.0484721861395414
 20
8.4606867467993538
 30
0.0
 11
28.0484467465546601
 21
8.4481720843688883
 31
0.0
  0
LINE
  5
E78
  8
0
 10
28.0991609722706812
 20
8.4479398326223052
 30
0.0
 11
28.1196334132706802
 21
8.4395814927223078
 31
0.0
  0
LINE
  5
E79
  8
0
 10
28.1196334132706802
 20
8.4395814927223078
 30
0.0
 11
28.140105854170681
 21
8.4479398326223052
 31
0.0
  0
LINE
  5
E7A
  8
0
 10
28.140105854170681
 20
8.4479398326223052
 30
0.0
 11
28.140105854170681
 21
8.45230964746181
 31
0.0
  0
LINE
  5
E7B
  8
0
 10
28.0991812798107397
 20
8.4579298544654478
 30
0.0
 11
28.0991609722706812
 21
8.4479398326223052
 31
0.0
  0
LINE
  5
E7C
  8
0
 10
28.1503549128269412
 20
8.4483386240167722
 30
0.0
 11
28.1708273538269403
 21
8.4399802841167748
 31
0.0
  0
LINE
  5
E7D
  8
0
 10
28.1708273538269403
 20
8.4399802841167748
 30
0.0
 11
28.1801410862596811
 21
8.4437828273401632
 31
0.0
  0
LINE
  5
E7E
  8
0
 10
28.15035913566415
 20
8.4504159921200355
 30
0.0
 11
28.1503549128269412
 21
8.4483386240167722
 31
0.0
  0
LINE
  5
E7F
  8
0
 10
28.2263393059582199
 20
8.4170585260766462
 30
0.0
 11
28.2468117469582189
 21
8.4087001861766453
 31
0.0
  0
LINE
  5
E80
  8
0
 10
28.2468117469582189
 20
8.4087001861766453
 30
0.0
 11
28.2644429859796418
 21
8.415898540750927
 31
0.0
  0
LINE
  5
E81
  8
0
 10
28.2263661639838013
 20
8.4302709713723551
 30
0.0
 11
28.2263393059582199
 21
8.4170585260766462
 31
0.0
  0
LINE
  5
E82
  8
0
 10
28.3025378892185095
 20
8.3857887201948067
 30
0.0
 11
28.3111418533744192
 21
8.3822759560401856
 31
0.0
  0
LINE
  5
E83
  8
0
 10
28.3025633356845283
 20
8.3983067677022341
 30
0.0
 11
28.3025378892185095
 21
8.3857887201948067
 31
0.0
  0
ARC
  5
E84
  8
0
 10
28.1748461964334993
 20
8.1102833822219171
 30
0.0
 40
0.3145316642097802
 50
43.6242755371662625
 51
63.7538895058057733
  0
ARC
  5
E85
  8
0
 10
28.0434257479623703
 20
8.6013227662186331
 30
0.0
 40
0.3948847903704993
 50
241.9997333186493904
 51
298.0002666813505812
  0
ARC
  5
E86
  8
0
 10
28.0434257479623703
 20
8.6089304326019906
 30
0.0
 40
0.3831672231553453
 50
255.8695186384510123
 51
284.1304813615486182
  0
ARC
  5
E87
  8
0
 10
28.0434257479623703
 20
7.9001256376936722
 30
0.0
 40
0.5605838238658598
 50
75.592359523190396
 51
104.407640476809604
  0
ENDSEC
  0
EOF
