  0
SECTION
  2
HEADER
  9
$ACADVER
  1
AC1009
  9
$INSBASE
 10
41.8792041541526032
 20
9.5669620165851903
 30
0.0
  9
$EXTMIN
 10
37.5597567638383865
 20
6.0213060033446162
 30
0.0
  9
$EXTMAX
 10
42.7905313608600792
 20
9.5713374004788285
 30
0.0
  9
$LIMMIN
 10
0.0
 20
0.0
  9
$LIMMAX
 10
11.6929133858000007
 20
8.2677165353999982
  9
$ORTHOMODE
 70
     0
  9
$REGENMODE
 70
     1
  9
$FILLMODE
 70
     1
  9
$QTEXTMODE
 70
     0
  9
$MIRRTEXT
 70
     0
  9
$DRAGMODE
 70
     2
  9
$LTSCALE
 40
0.6431102362
  9
$OSMODE
 70
     7
  9
$ATTMODE
 70
     1
  9
$TEXTSIZE
 40
0.2
  9
$TRACEWID
 40
0.05
  9
$TEXTSTYLE
  7
STANDARD
  9
$CLAYER
  8
0
  9
$CELTYPE
  6
BYLAYER
  9
$CECOLOR
 62
   256
  9
$DIMSCALE
 40
1.0
  9
$DIMASZ
 40
0.1875
  9
$DIMEXO
 40
0.0625
  9
$DIMDLI
 40
0.4443307087
  9
$DIMRND
 40
0.0
  9
$DIMDLE
 40
0.0
  9
$DIMEXE
 40
0.125
  9
$DIMTP
 40
0.01
  9
$DIMTM
 40
0.01
  9
$DIMTXT
 40
1.0
  9
$DIMCEN
 40
0.1052362205
  9
$DIMTSZ
 40
0.0
  9
$DIMTOL
 70
     1
  9
$DIMLIM
 70
     0
  9
$DIMTIH
 70
     1
  9
$DIMTOH
 70
     1
  9
$DIMSE1
 70
     0
  9
$DIMSE2
 70
     0
  9
$DIMTAD
 70
     0
  9
$DIMZIN
 70
     0
  9
$DIMBLK
  1

  9
$DIMASO
 70
     1
  9
$DIMSHO
 70
     1
  9
$DIMPOST
  1
\X
  9
$DIMAPOST
  1

  9
$DIMALT
 70
     1
  9
$DIMALTD
 70
     2
  9
$DIMALTF
 40
25.3999999999999986
  9
$DIMLFAC
 40
1.0
  9
$DIMTOFL
 70
     0
  9
$DIMTVP
 40
0.0
  9
$DIMTIX
 70
     0
  9
$DIMSOXD
 70
     0
  9
$DIMSAH
 70
     0
  9
$DIMBLK1
  1

  9
$DIMBLK2
  1

  9
$DIMSTYLE
  2
STANDARD
  9
$DIMCLRD
 70
     0
  9
$DIMCLRE
 70
     0
  9
$DIMCLRT
 70
     0
  9
$DIMTFAC
 40
1.0
  9
$DIMGAP
 40
0.09
  9
$LUNITS
 70
     2
  9
$LUPREC
 70
     4
  9
$SKETCHINC
 40
0.1
  9
$FILLETRAD
 40
0.0
  9
$AUNITS
 70
     0
  9
$AUPREC
 70
     0
  9
$MENU
  1
.
  9
$ELEVATION
 40
0.0
  9
$PELEVATION
 40
0.0
  9
$THICKNESS
 40
0.0
  9
$LIMCHECK
 70
     0
  9
$BLIPMODE
 70
     0
  9
$CHAMFERA
 40
0.0
  9
$CHAMFERB
 40
0.0
  9
$SKPOLY
 70
     0
  9
$TDCREATE
 40
2458171.5183333340100944
  9
$TDUPDATE
 40
2459601.4452314819209278
  9
$TDINDWG
 40
0.5265282523
  9
$TDUSRTIMER
 40
0.5265282523
  9
$USRTIMER
 70
     1
  9
$ANGBASE
 50
0.0
  9
$ANGDIR
 70
     0
  9
$PDMODE
 70
     0
  9
$PDSIZE
 40
0.3125
  9
$PLINEWID
 40
0.0
  9
$COORDS
 70
     1
  9
$SPLFRAME
 70
     0
  9
$SPLINETYPE
 70
     6
  9
$SPLINESEGS
 70
     8
  9
$ATTDIA
 70
     1
  9
$ATTREQ
 70
     1
  9
$HANDLING
 70
     1
  9
$HANDSEED
  5
1598
  9
$SURFTAB1
 70
     6
  9
$SURFTAB2
 70
     6
  9
$SURFTYPE
 70
     6
  9
$SURFU
 70
     6
  9
$SURFV
 70
     6
  9
$UCSNAME
  2

  9
$UCSORG
 10
0.0
 20
0.0
 30
0.0
  9
$UCSXDIR
 10
1.0
 20
0.0
 30
0.0
  9
$UCSYDIR
 10
0.0
 20
1.0
 30
0.0
  9
$PUCSNAME
  2

  9
$PUCSORG
 10
0.0
 20
0.0
 30
0.0
  9
$PUCSXDIR
 10
1.0
 20
0.0
 30
0.0
  9
$PUCSYDIR
 10
0.0
 20
1.0
 30
0.0
  9
$USERI1
 70
     0
  9
$USERI2
 70
     0
  9
$USERI3
 70
     0
  9
$USERI4
 70
     0
  9
$USERI5
 70
     0
  9
$USERR1
 40
0.0
  9
$USERR2
 40
0.0
  9
$USERR3
 40
0.0
  9
$USERR4
 40
0.0
  9
$USERR5
 40
0.0
  9
$WORLDVIEW
 70
     1
  9
$SHADEDGE
 70
     3
  9
$SHADEDIF
 70
    70
  9
$TILEMODE
 70
     1
  9
$MAXACTVP
 70
    64
  9
$PLIMCHECK
 70
     0
  9
$PEXTMIN
 10
1.0000000000000000E+20
 20
1.0000000000000000E+20
 30
1.0000000000000000E+20
  9
$PEXTMAX
 10
-1.0000000000000000E+20
 20
-1.0000000000000000E+20
 30
-1.0000000000000000E+20
  9
$PLIMMIN
 10
0.0
 20
0.0
  9
$PLIMMAX
 10
12.0
 20
9.0
  9
$UNITMODE
 70
     0
  9
$VISRETAIN
 70
     1
  9
$PLINEGEN
 70
     0
  9
$PSLTSCALE
 70
     1
  0
ENDSEC
  0
SECTION
  2
TABLES
  0
TABLE
  2
VPORT
 70
     1
  0
VPORT
  2
*ACTIVE
 70
     0
 10
0.0
 20
0.0
 11
1.0
 21
1.0
 12
18.6988806039240103
 22
3.5190459364273332
 13
0.0
 23
0.0
 14
1.0
 24
1.0
 15
0.0
 25
0.0
 16
-0.0000000000000036
 26
0.0
 36
9.3890093072850682
 17
21.4772747639016188
 27
4.2772163781354484
 37
0.0
 40
3.5765997751498122
 41
2.2831541218637992
 42
50.0
 43
0.0
 44
0.0
 50
0.0
 51
0.0
 71
     0
 72
   100
 73
     1
 74
     1
 75
     0
 76
     0
 77
     0
 78
     0
  0
ENDTAB
  0
TABLE
  2
LTYPE
 70
     1
  0
LTYPE
  2
CONTINUOUS
 70
     0
  3
Solid line
 72
    65
 73
     0
 40
0.0
  0
ENDTAB
  0
TABLE
  2
LAYER
 70
     2
  0
LAYER
  2
0
 70
     0
 62
   255
  6
CONTINUOUS
  0
LAYER
  2
DEFPOINTS
 70
     0
 62
     7
  6
CONTINUOUS
  0
ENDTAB
  0
TABLE
  2
STYLE
 70
     1
  0
STYLE
  2
STANDARD
 70
     0
 40
0.0
 41
0.8
 50
0.0
 71
     0
 42
0.2
  3
txt
  4

  0
ENDTAB
  0
TABLE
  2
VIEW
 70
     0
  0
ENDTAB
  0
TABLE
  2
UCS
 70
     0
  0
ENDTAB
  0
TABLE
  2
APPID
 70
    11
  0
APPID
  2
ACAD
 70
     0
  0
APPID
  2
ACADANNOTATIVE
 70
     0
  0
APPID
  2
ACAD_MLEADERVER
 70
     0
  0
APPID
  2
ACAD_EXEMPT_FROM_CAD_STANDARDS
 70
     0
  0
APPID
  2
ACAD_DSTYLE_DIMJAG
 70
     0
  0
APPID
  2
ACAD_DSTYLE_DIMTALN
 70
     0
  0
APPID
  2
ACAD_NAV_VCDISPLAY
 70
     0
  0
APPID
  2
ACAECLAYERSTANDARD
 70
     0
  0
APPID
  2
ACCMTRANSPARENCY
 70
     0
  0
APPID
  2
DCO15
 70
     0
  0
APPID
  2
ACDBATTR
 70
     0
  0
ENDTAB
  0
TABLE
  2
DIMSTYLE
 70
     1
  0
DIMSTYLE
  2
STANDARD
 70
     0
  3

  4

  5

  6

  7

 40
1.0
 41
0.1875
 42
0.0625
 43
0.38
 44
0.125
 45
0.0
 46
0.0
 47
0.01
 48
0.01
140
0.15625
141
0.09
142
0.0
143
25.3999999999999986
144
1.0
145
0.0
146
1.0
147
0.09
 71
     1
 72
     0
 73
     1
 74
     1
 75
     0
 76
     0
 77
     0
 78
     4
170
     0
171
     2
172
     0
173
     0
174
     0
175
     0
176
     0
177
     0
178
     0
  0
ENDTAB
  0
ENDSEC
  0
SECTION
  2
BLOCKS
  0
BLOCK
  8
0
  2
$MODEL_SPACE
 70
     0
 10
0.0
 20
0.0
 30
0.0
  3
$MODEL_SPACE
  1

  0
ENDBLK
  5
929
  8
0
  0
BLOCK
 67
     1
  8
0
  2
$PAPER_SPACE
 70
     0
 10
0.0
 20
0.0
 30
0.0
  3
$PAPER_SPACE
  1

  0
ENDBLK
  5
925
 67
     1
  8
0
  0
ENDSEC
  0
SECTION
  2
ENTITIES
  0
ATTDEF
  5
765
  8
DEFPOINTS
 10
41.8792402211340473
 20
9.5703374004788273
 30
0.0
 40
0.001
  1
K-77364BR
  3

  2
MODELNUMBER
 70
     0
1001
ACDBATTR
1070
     0
1070
     1
  0
ATTDEF
  5
766
  8
DEFPOINTS
 10
41.8792402211340473
 20
9.5686707338121604
 30
0.0
 40
0.001
  1
LUXE
  3

  2
TRADENAME
 70
     0
1001
ACDBATTR
1070
     0
1070
     1
  0
ATTDEF
  5
767
  8
DEFPOINTS
 10
41.8792402211340473
 20
9.5670040671454828
 30
0.0
 40
0.001
  1
HYGIENE SPRAY
  3

  2
PRODUCT
 70
     0
1001
ACDBATTR
1070
     0
1070
     1
  0
LINE
  5
13E8
  8
0
 10
40.9678971393438971
 20
9.5669620165851903
 30
0.0
 11
42.7905313608600792
 21
9.5669620165851903
 31
0.0
  0
LINE
  5
13E9
  8
0
 10
41.254246503424163
 20
6.8072789814018746
 30
0.0
 11
41.2439616496465007
 21
6.8080760029930856
 31
0.0
  0
LINE
  5
13EA
  8
0
 10
41.2439616496465007
 20
6.8080760029930856
 30
0.0
 11
41.2232380196571668
 21
6.809806618785184
 31
0.0
  0
ARC
  5
13EB
  8
0
 10
41.2231359169675216
 20
6.8293664988784961
 30
0.0
 40
0.0195601465798305
 50
188.5711178868976958
 51
270.2990815880382911
  0
ARC
  5
13EC
  8
0
 10
62.8476410972323265
 20
10.0699137728560899
 30
0.0
 40
21.8855238943880188
 50
181.3168316273574874
 51
188.5227019434059059
  0
ARC
  5
13ED
  8
0
 10
41.8779730044996015
 20
7.4322109822948859
 30
0.0
 40
0.4672618314075595
 50
117.8819228065771938
 51
144.8836296623748012
  0
ARC
  5
13EE
  8
0
 10
41.8437254714033315
 20
7.3568112166187758
 30
0.0
 40
0.4894332390718815
 50
135.3128052134929931
 51
148.7331535474478983
  0
ARC
  5
13EF
  8
0
 10
42.1377044662765528
 20
7.2302767085090771
 30
0.0
 40
0.8076118728318352
 50
151.8865189646703016
 51
172.5616445047795935
  0
ARC
  5
13F0
  8
0
 10
75.3553711609818038
 20
1.7354858170002061
 30
0.0
 40
34.4762206283219967
 50
170.6530884728923922
 51
171.7227072427342023
  0
ARC
  5
13F1
  8
0
 10
41.2481560372909826
 20
6.6996194474231991
 30
0.0
 40
0.009896265907608
 50
184.6260513551125939
 51
270.4173737332910719
  0
LINE
  5
13F2
  8
0
 10
41.2482281264553876
 20
6.6897234440851854
 30
0.0
 11
42.5101722502157386
 21
6.6897235050433181
 31
0.0
  0
ARC
  5
13F3
  8
0
 10
41.9516288542679305
 20
7.484642737682857
 30
0.0
 40
0.6200931932202393
 50
178.1746070668125981
 51
190.6659308544545866
  0
ARC
  5
13F4
  8
0
 10
41.8773248119853179
 20
7.4870108000979734
 30
0.0
 40
0.545751425557743
 50
158.7901524923634042
 51
178.1746070668125981
  0
ARC
  5
13F5
  8
0
 10
41.7042367863766685
 20
7.5455562061555064
 30
0.0
 40
0.3632962596340146
 50
120.9581628097803048
 51
157.5218984993475999
  0
ARC
  5
13F6
  8
0
 10
41.86425801044129
 20
7.3125050963336911
 30
0.0
 40
0.6456973804167366
 50
90.8522038176775055
 51
122.4970797234436048
  0
ARC
  5
13F7
  8
0
 10
41.8938183191078224
 20
7.5173611773207041
 30
0.0
 40
0.5180295237338913
 50
166.7730399464313109
 51
182.0302699666945045
  0
ARC
  5
13F8
  8
0
 10
41.7646011881977302
 20
7.5542507649400044
 30
0.0
 40
0.3838521244088253
 50
145.1928209546883011
 51
167.7201590766215133
  0
ARC
  5
13F9
  8
0
 10
41.8007919605245206
 20
7.5001599246423849
 30
0.0
 40
0.4450778609177802
 50
113.7082271718842037
 51
142.1334028988185878
  0
ARC
  5
13FA
  8
0
 10
41.9815145106924703
 20
7.0872319477637076
 30
0.0
 40
0.895821689266134
 50
109.0449188367879003
 51
113.6724532807769066
  0
ARC
  5
13FB
  8
0
 10
56.3810535568307003
 20
9.0258199531461933
 30
0.0
 40
15.08221386784823
 50
177.9438156208256032
 51
181.7791572879150976
  0
ARC
  5
13FC
  8
0
 10
61.883558496955402
 20
9.3138395680791994
 30
0.0
 40
20.59134100324016
 50
182.1048349833606892
 51
184.6133997384876011
  0
ARC
  5
13FD
  8
0
 10
39.4780171474042092
 20
-25.7656612196155201
 30
0.0
 40
32.5084388095894496
 50
86.3725838048651013
 51
86.7261535800754331
  0
ARC
  5
13FE
  8
0
 10
41.50451364142031
 20
6.5882311094487953
 30
0.0
 40
0.0943961577274039
 50
71.3095568604277332
 51
76.4006998567440547
  0
ARC
  5
13FF
  8
0
 10
41.5283763994591411
 20
6.663593504836764
 30
0.0
 40
0.0154387475134354
 50
27.0385001442899906
 51
65.562719116525912
  0
ARC
  5
1400
  8
0
 10
42.0344133776372928
 20
6.9218606823317224
 30
0.0
 40
0.5526944747635281
 50
207.0385001442894009
 51
207.7342698327848893
  0
ARC
  5
1401
  8
0
 10
41.5556841093437015
 20
6.6707454056271969
 30
0.0
 40
0.0121131163200509
 50
210.1992366322087094
 51
262.3432017903189717
  0
ARC
  5
1402
  8
0
 10
41.6247964840088116
 20
7.458779882114694
 30
0.0
 40
0.8031597347538028
 50
264.9479850908618914
 51
269.7598982417393927
  0
ARC
  5
1403
  8
0
 10
41.6215717838265888
 20
6.6678401814795221
 30
0.0
 40
0.0122137957644556
 50
269.3386192969334729
 51
335.3198453259822145
  0
ARC
  5
1404
  8
0
 10
41.6508657817496371
 20
6.6543786138161876
 30
0.0
 40
0.0200251886840612
 50
114.1710601543355068
 51
155.3195202685446077
  0
ARC
  5
1405
  8
0
 10
41.6507540176664932
 20
6.654627636504979
 30
0.0
 40
0.0197522353733088
 50
88.3567730469702042
 51
114.1710601543355068
  0
ARC
  5
1406
  8
0
 10
41.5354073279579623
 20
5.486219772351201
 30
0.0
 40
1.1937926816147171
 50
84.4280011675101179
 51
90.4174761865808847
  0
ARC
  5
1407
  8
0
 10
41.5756219877059365
 20
6.3740148105012722
 30
0.0
 40
0.2844339444387749
 50
82.7964543642588069
 51
92.125458643830612
  0
ARC
  5
1408
  8
0
 10
41.6084157844322675
 20
7.1135515835962009
 30
0.0
 40
0.4573569037569529
 50
264.5620316762754101
 51
270.3598813318695875
  0
ARC
  5
1409
  8
0
 10
41.6466345865940184
 20
6.653036127323726
 30
0.0
 40
0.0258589957969715
 50
61.0446508609270779
 51
84.0069847255871167
  0
ARC
  5
140A
  8
0
 10
41.6510458305990596
 20
6.6610088687721669
 30
0.0
 40
0.0167472627084557
 50
18.8757848758667386
 51
61.0446508609279803
  0
ARC
  5
140B
  8
0
 10
41.6789312412981801
 20
6.6705430139029671
 30
0.0
 40
0.0127229943860979
 50
198.875784875869499
 51
260.101819845527416
  0
ARC
  5
140C
  8
0
 10
41.6976073384078134
 20
6.7956220283618007
 30
0.0
 40
0.1391851482508374
 50
261.3791607103369756
 51
267.5975155640891217
  0
ARC
  5
140D
  8
0
 10
41.7317864879271312
 20
7.4788041305231694
 30
0.0
 40
0.8232179429965285
 50
267.2139614855511809
 51
270.1400576852497011
  0
ARC
  5
140E
  8
0
 10
41.7357570034921466
 20
6.7293437764374993
 30
0.0
 40
0.0737811195952343
 50
268.4791627418896951
 51
277.1011425123606955
  0
ARC
  5
140F
  8
0
 10
41.7429744667181168
 20
6.6714079389938901
 30
0.0
 40
0.0153974486271869
 50
277.1011425123606955
 51
307.7194174501490238
  0
ARC
  5
1410
  8
0
 10
41.7463794595348574
 20
6.6670054774450831
 30
0.0
 40
0.0098318719484722
 50
307.7194174501490238
 51
341.1760169803119993
  0
ARC
  5
1411
  8
0
 10
41.7733099528133991
 20
6.6560221783832922
 30
0.0
 40
0.0192777880291646
 50
125.4007516955274042
 51
156.097741378340686
  0
ARC
  5
1412
  8
0
 10
41.7769064126027416
 20
6.6464931994181811
 30
0.0
 40
0.0292432396444058
 50
95.7188031173770639
 51
120.322476093079203
  0
ARC
  5
1413
  8
0
 10
41.6940946307129181
 20
5.9847407542337079
 30
0.0
 40
0.6954549396862078
 50
83.4029697308319413
 51
93.6901645430397565
  0
ARC
  5
1414
  8
0
 10
41.7015035823849303
 20
6.6632634841226901
 30
0.0
 40
0.0118167038863465
 50
214.5659640442040939
 51
243.50121982816421
  0
ARC
  5
1415
  8
0
 10
41.7017761849822293
 20
6.6638102694980113
 30
0.0
 40
0.0124276755898429
 50
243.5012198281933138
 51
267.3568011681639973
  0
ARC
  5
1416
  8
0
 10
41.7633637691326385
 20
7.9978775244222753
 30
0.0
 40
1.3479157778142441
 50
267.3568011681639973
 51
270.1979801887840154
  0
ARC
  5
1417
  8
0
 10
41.7679792305368593
 20
6.6621610160344993
 30
0.0
 40
0.0121912952716583
 50
270.1979801887579242
 51
335.8865295825373209
  0
ARC
  5
1418
  8
0
 10
41.7976593247581221
 20
6.648876093274164
 30
0.0
 40
0.0203263486422508
 50
90.5056657606842663
 51
155.8865295823028134
  0
ARC
  5
1419
  8
0
 10
41.7482322737457565
 20
5.940026478511494
 30
0.0
 40
0.7308363451763548
 50
86.1361759735275569
 51
89.008774275226699
  0
ARC
  5
141A
  8
0
 10
41.8792591085978074
 20
6.081829496318587
 30
0.0
 40
0.5985813851849401
 50
84.0255563994058008
 51
95.9837104039695106
  0
ARC
  5
141B
  8
0
 10
41.879204154153328
 20
7.0782335000127459
 30
0.0
 40
0.4226830404009445
 50
265.4809880856723225
 51
274.5190119141137188
  0
ARC
  5
141C
  8
0
 10
41.8477759468898967
 20
6.672543949870966
 30
0.0
 40
0.0157911764312142
 50
241.0889902212857976
 51
263.180981690779106
  0
ARC
  5
141D
  8
0
 10
41.8462242009065903
 20
6.6691812750119608
 30
0.0
 40
0.012100347129975
 50
201.624498243977996
 51
239.8230526169587904
  0
ARC
  5
141E
  8
0
 10
41.8177996577144171
 20
6.6580886994823016
 30
0.0
 40
0.0184122304767205
 50
21.1166328119109217
 51
46.6222470457376801
  0
ARC
  5
141F
  8
0
 10
41.8181602103938985
 20
6.6611695337157322
 30
0.0
 40
0.0160328645374212
 50
39.9823240163107272
 51
94.6531505629432388
  0
ARC
  5
1420
  8
0
 10
41.8312105492511819
 20
6.5680252692450232
 30
0.0
 40
0.103597689865908
 50
90.4925748757760289
 51
98.0274523838041745
  0
ARC
  5
1421
  8
0
 10
41.8164041511906817
 20
6.650611207545718
 30
0.0
 40
0.019999503294546
 50
49.4954714725391511
 51
89.0280959865828834
  0
ARC
  5
1422
  8
0
 10
41.8150014259351792
 20
6.6489690901200582
 30
0.0
 40
0.0221591763678223
 50
18.2838597182272515
 51
49.4954714725391511
  0
ARC
  5
1423
  8
0
 10
41.8457350161695487
 20
6.662375379584172
 30
0.0
 40
0.0116454435510189
 50
213.658569772709086
 51
270.2209703248129813
  0
ARC
  5
1424
  8
0
 10
41.8792041541528803
 20
7.5013312583327441
 30
0.0
 40
0.8512576819148826
 50
267.7497301709713042
 51
272.2502698289982277
  0
LINE
  5
1425
  8
0
 10
41.912605281541822
 20
6.648562183130923
 30
0.0
 11
41.8458030266849619
 21
6.6485621831309869
 31
0.0
  0
ARC
  5
1426
  8
0
 10
41.8458370318974104
 20
6.6603726119903639
 30
0.0
 40
0.0118104778139183
 50
201.5981380500763862
 51
269.8350317925838908
  0
ARC
  5
1427
  8
0
 10
41.8165534053548527
 20
6.6487795048408556
 30
0.0
 40
0.0196844569670261
 50
21.5981380500751889
 51
89.4321271442582741
  0
ARC
  5
1428
  8
0
 10
41.8209669232671786
 20
8.0559145075997058
 30
0.0
 40
1.3874579254713371
 50
268.8579200188898994
 51
270.1835126120529935
  0
ARC
  5
1429
  8
0
 10
41.8791190180779722
 20
6.4343535601543591
 30
0.0
 40
0.2240989987946197
 50
84.0511901797609653
 51
95.9013420255216857
  0
ARC
  5
142A
  8
0
 10
41.8793020717178024
 20
6.8762608632551654
 30
0.0
 40
0.2202239173603584
 50
263.9465486675983925
 51
276.0059833745809783
  0
ARC
  5
142B
  8
0
 10
41.8792068318870321
 20
6.200915662584026
 30
0.0
 40
0.4503585589307117
 50
87.039755996059526
 51
92.9593494722049769
  0
ARC
  5
142C
  8
0
 10
41.8792154606951499
 20
7.3062856979612958
 30
0.0
 40
0.6560245323956388
 50
267.968140588470078
 51
272.0309648797967839
  0
ARC
  5
142D
  8
0
 10
41.7049173970919966
 20
6.4194726672725109
 30
0.0
 40
0.2389695850589225
 50
82.8739607626889239
 51
94.0484963238704808
  0
ARC
  5
142E
  8
0
 10
41.7189007389813469
 20
6.9400138007759677
 30
0.0
 40
0.283849819197872
 50
263.7595549152745207
 51
273.1629021712785743
  0
ARC
  5
142F
  8
0
 10
37.8756101509782184
 20
5.9126071994182281
 30
0.0
 40
3.673993036507035
 50
9.4685319577875564
 51
12.0849640110956393
  0
ARC
  5
1430
  8
0
 10
42.8798690091427872
 20
6.7472077826702117
 30
0.0
 40
1.3993850149582461
 50
189.4685319577874054
 51
202.4552347013230928
  0
ARC
  5
1431
  8
0
 10
41.8646749318725071
 20
6.3276295869651689
 30
0.0
 40
0.300902026088474
 50
202.4552347013213875
 51
239.7409126106203132
  0
ARC
  5
1432
  8
0
 10
41.8948007458604934
 20
6.3792683513676947
 30
0.0
 40
0.3606860261005643
 50
239.7409126106203132
 51
257.7947645401841896
  0
LINE
  5
1433
  8
0
 10
38.4374031804475393
 20
8.6308455301382931
 30
0.0
 11
41.07030317513113
 21
7.896504202961065
 31
0.0
  0
LINE
  5
1434
  8
0
 10
41.1374042447316626
 20
7.3055382664962814
 30
0.0
 11
38.2919940567400019
 21
8.0992045269660515
 31
0.0
  0
ARC
  5
1435
  8
0
 10
41.8107676485622122
 20
11.2522697344147105
 30
0.0
 40
4.582859356096276
 50
267.8940142644781872
 51
268.1632987421297116
  0
CIRCLE
  5
1436
  8
0
 10
38.0150826506982966
 20
8.4606484872818513
 30
0.0
 40
0.1181102362000002
  0
CIRCLE
  5
1437
  8
0
 10
38.0150826506982966
 20
8.4606484872818513
 30
0.0
 40
0.1575252534010854
  0
CIRCLE
  5
1438
  8
0
 10
38.0150826506982966
 20
8.4606484872818513
 30
0.0
 40
0.3702689319359029
  0
CIRCLE
  5
1439
  8
0
 10
38.0150826506982966
 20
8.4606484872818513
 30
0.0
 40
0.4137319523755706
  0
ARC
  5
143A
  8
0
 10
37.9227475367540592
 20
8.4890242889831846
 30
0.0
 40
0.3180075298486681
 50
171.713966549519597
 51
181.3476635538166022
  0
ARC
  5
143B
  8
0
 10
38.038981449344881
 20
8.3783846707931922
 30
0.0
 40
0.4462413146809753
 50
155.4198466155413882
 51
166.6336667974206023
  0
ARC
  5
143C
  8
0
 10
37.9647077091574374
 20
8.4123587285291652
 30
0.0
 40
0.3645661955784043
 50
133.0246927205693055
 51
155.4198466155413882
  0
LINE
  5
143D
  8
0
 10
42.5041618048810435
 20
6.8072789814018746
 30
0.0
 11
42.5144466586586987
 21
6.8080760029930856
 31
0.0
  0
LINE
  5
143E
  8
0
 10
42.5144466586586987
 20
6.8080760029930856
 30
0.0
 11
42.5351702886480325
 21
6.809806618785184
 31
0.0
  0
ARC
  5
143F
  8
0
 10
42.5352723913376778
 20
6.8293664988784961
 30
0.0
 40
0.0195601465798305
 50
269.7009184119617089
 51
351.4288821131021905
  0
ARC
  5
1440
  8
0
 10
20.9107672110728799
 20
10.0699137728560899
 30
0.0
 40
21.8855238943880188
 50
351.4772980565940088
 51
358.6831683726423989
  0
ARC
  5
1441
  8
0
 10
41.8804353038055979
 20
7.4322109822948859
 30
0.0
 40
0.4672618314075595
 50
35.1163703376251775
 51
62.118077193422792
  0
ARC
  5
1442
  8
0
 10
41.9146828369018678
 20
7.3568112166187758
 30
0.0
 40
0.4894332390718815
 50
31.26684645255202
 51
44.6871947865069572
  0
ARC
  5
1443
  8
0
 10
41.6207038420286466
 20
7.2302767085090771
 30
0.0
 40
0.8076118728318352
 50
7.4383554952203808
 51
28.1134810353298086
  0
ARC
  5
1444
  8
0
 10
8.4030371473234027
 20
1.7354858170002061
 30
0.0
 40
34.4762206283219967
 50
8.2772927572658102
 51
9.3469115271075918
  0
ARC
  5
1445
  8
0
 10
42.5102522710142168
 20
6.6996194474231991
 30
0.0
 40
0.009896265907608
 50
269.5367051127000195
 51
355.3739486448873777
  0
ARC
  5
1446
  8
0
 10
41.8067794540372688
 20
7.484642737682857
 30
0.0
 40
0.6200931932202393
 50
349.3340691455452998
 51
1.825392933187399
  0
ARC
  5
1447
  8
0
 10
41.8810834963198815
 20
7.4870108000979734
 30
0.0
 40
0.545751425557743
 50
1.825392933187399
 51
21.2098475076364892
  0
ARC
  5
1448
  8
0
 10
42.0541715219285308
 20
7.5455562061555064
 30
0.0
 40
0.3632962596340146
 50
22.478101500652361
 51
59.0418371902196881
  0
ARC
  5
1449
  8
0
 10
41.8941502978639093
 20
7.3125050963336911
 30
0.0
 40
0.6456973804167366
 50
57.5029202765563809
 51
89.1477961823224945
  0
ARC
  5
144A
  8
0
 10
41.864589989197377
 20
7.5173611773207041
 30
0.0
 40
0.5180295237338913
 50
357.9697300333054955
 51
13.2269600535687299
  0
ARC
  5
144B
  8
0
 10
41.9938071201074692
 20
7.5542507649400044
 30
0.0
 40
0.3838521244088253
 50
12.2798409233784707
 51
34.8071790453117416
  0
ARC
  5
144C
  8
0
 10
41.9576163477806787
 20
7.5001599246423849
 30
0.0
 40
0.4450778609177802
 50
37.8665971011813696
 51
66.2917728281157537
  0
ARC
  5
144D
  8
0
 10
41.776893797612729
 20
7.0872319477637076
 30
0.0
 40
0.895821689266134
 50
66.3275467192230934
 51
70.9550811632120855
  0
ARC
  5
144E
  8
0
 10
27.3773547514745097
 20
9.0258199531461933
 30
0.0
 40
15.08221386784823
 50
358.220842712084675
 51
2.0561843791743768
  0
ARC
  5
144F
  8
0
 10
21.8748498113498009
 20
9.3138395680791994
 30
0.0
 40
20.59134100324016
 50
355.3866002615122852
 51
357.8951650166392824
  0
ARC
  5
1450
  8
0
 10
44.2803911609009901
 20
-25.7656612196155201
 30
0.0
 40
32.5084388095894496
 50
93.2738464199245954
 51
93.6274161951348987
  0
ARC
  5
1451
  8
0
 10
42.2538946668848894
 20
6.5882311094487953
 30
0.0
 40
0.0943961577274039
 50
103.5993001432560021
 51
108.6904431395721957
  0
ARC
  5
1452
  8
0
 10
42.2300319088460583
 20
6.663593504836764
 30
0.0
 40
0.0154387475134354
 50
114.4372808834741022
 51
152.9614998557100023
  0
ARC
  5
1453
  8
0
 10
41.7239949306679065
 20
6.9218606823317224
 30
0.0
 40
0.5526944747635281
 50
332.2657301672151107
 51
332.9614998557105991
  0
ARC
  5
1454
  8
0
 10
42.2027241989614978
 20
6.6707454056271969
 30
0.0
 40
0.0121131163200509
 50
277.6567982096810283
 51
329.8007633677912054
  0
ARC
  5
1455
  8
0
 10
42.1336118242963877
 20
7.458779882114694
 30
0.0
 40
0.8031597347538028
 50
270.2401017582606073
 51
275.0520149091379949
  0
ARC
  5
1456
  8
0
 10
42.1368365244786176
 20
6.6678401814795221
 30
0.0
 40
0.0122137957644556
 50
204.6801546740177002
 51
270.6613807030665271
  0
ARC
  5
1457
  8
0
 10
42.1075425265555623
 20
6.6543786138161876
 30
0.0
 40
0.0200251886840612
 50
24.680479731455371
 51
65.8289398456644932
  0
ARC
  5
1458
  8
0
 10
42.1076542906387132
 20
6.654627636504979
 30
0.0
 40
0.0197522353733088
 50
65.8289398456644932
 51
91.6432269530297958
  0
ARC
  5
1459
  8
0
 10
42.223000980347237
 20
5.486219772351201
 30
0.0
 40
1.1937926816147171
 50
89.5825238134191437
 51
95.5719988324898964
  0
ARC
  5
145A
  8
0
 10
42.1827863205992628
 20
6.3740148105012722
 30
0.0
 40
0.2844339444387749
 50
87.8745413561694022
 51
97.2035456357412073
  0
ARC
  5
145B
  8
0
 10
42.1499925238729318
 20
7.1135515835962009
 30
0.0
 40
0.4573569037569529
 50
269.6401186681304125
 51
275.4379683237245899
  0
ARC
  5
145C
  8
0
 10
42.1117737217111809
 20
6.653036127323726
 30
0.0
 40
0.0258589957969715
 50
95.9930152744129117
 51
118.9553491390728936
  0
ARC
  5
145D
  8
0
 10
42.1073624777061397
 20
6.6610088687721669
 30
0.0
 40
0.0167472627084557
 50
118.9553491390719984
 51
161.1242151241332863
  0
ARC
  5
145E
  8
0
 10
42.0794770670070193
 20
6.6705430139029671
 30
0.0
 40
0.0127229943860979
 50
279.898180154472584
 51
341.1242151241303873
  0
ARC
  5
145F
  8
0
 10
42.060800969897393
 20
6.7956220283618007
 30
0.0
 40
0.1391851482508374
 50
272.4024844359108215
 51
278.6208392896630244
  0
ARC
  5
1460
  8
0
 10
42.0266218203780682
 20
7.4788041305231694
 30
0.0
 40
0.8232179429965285
 50
269.8599423147502989
 51
272.7860385144487054
  0
ARC
  5
1461
  8
0
 10
42.0226513048130528
 20
6.7293437764374993
 30
0.0
 40
0.0737811195952343
 50
262.8988574876394182
 51
271.5208372581104186
  0
ARC
  5
1462
  8
0
 10
42.0154338415870825
 20
6.6714079389938901
 30
0.0
 40
0.0153974486271869
 50
232.2805825498508909
 51
262.8988574876394182
  0
ARC
  5
1463
  8
0
 10
42.0120288487703419
 20
6.6670054774450831
 30
0.0
 40
0.0098318719484722
 50
198.8239830196880007
 51
232.2805825498508909
  0
ARC
  5
1464
  8
0
 10
41.9850983554918002
 20
6.6560221783832922
 30
0.0
 40
0.0192777880291646
 50
23.9022586216593105
 51
54.5992483044725887
  0
ARC
  5
1465
  8
0
 10
41.9815018957024719
 20
6.6464931994181811
 30
0.0
 40
0.0292432396444058
 50
59.6775239069207473
 51
84.2811968826227655
  0
ARC
  5
1466
  8
0
 10
42.0643136775922812
 20
5.9847407542337079
 30
0.0
 40
0.6954549396862078
 50
86.3098354569602435
 51
96.5970302691680587
  0
ARC
  5
1467
  8
0
 10
42.0569047259202691
 20
6.6632634841226901
 30
0.0
 40
0.0118167038863465
 50
296.49878017183579
 51
325.4340359557958209
  0
ARC
  5
1468
  8
0
 10
42.0566321233229701
 20
6.6638102694980113
 30
0.0
 40
0.0124276755898429
 50
272.643198831835889
 51
296.4987801718066862
  0
ARC
  5
1469
  8
0
 10
41.9950445391725609
 20
7.9978775244222753
 30
0.0
 40
1.3479157778142441
 50
269.8020198112159846
 51
272.643198831835889
  0
ARC
  5
146A
  8
0
 10
41.99042907776834
 20
6.6621610160344993
 30
0.0
 40
0.0121912952716583
 50
204.1134704174625938
 51
269.8020198112420758
  0
ARC
  5
146B
  8
0
 10
41.9607489835470773
 20
6.648876093274164
 30
0.0
 40
0.0203263486422508
 50
24.1134704176972292
 51
89.4943342393157479
  0
ARC
  5
146C
  8
0
 10
42.0101760345594428
 20
5.940026478511494
 30
0.0
 40
0.7308363451763548
 50
90.9912257247732867
 51
93.8638240264724573
  0
ARC
  5
146D
  8
0
 10
41.9106323614153027
 20
6.672543949870966
 30
0.0
 40
0.0157911764312142
 50
276.819018309220894
 51
298.911009778714174
  0
ARC
  5
146E
  8
0
 10
41.912184107398609
 20
6.6691812750119608
 30
0.0
 40
0.012100347129975
 50
300.1769473830412949
 51
338.375501756022004
  0
ARC
  5
146F
  8
0
 10
41.9406086505907822
 20
6.6580886994823016
 30
0.0
 40
0.0184122304767205
 50
133.3777529542622915
 51
158.8833671880890961
  0
ARC
  5
1470
  8
0
 10
41.9402480979113008
 20
6.6611695337157322
 30
0.0
 40
0.0160328645374212
 50
85.346849437056747
 51
140.017675983689287
  0
ARC
  5
1471
  8
0
 10
41.9271977590540175
 20
6.5680252692450232
 30
0.0
 40
0.103597689865908
 50
81.9725476161958539
 51
89.5074251242239853
  0
ARC
  5
1472
  8
0
 10
41.9420041571145177
 20
6.650611207545718
 30
0.0
 40
0.019999503294546
 50
90.9719040134171308
 51
130.5045285274609057
  0
ARC
  5
1473
  8
0
 10
41.9434068823700201
 20
6.6489690901200582
 30
0.0
 40
0.0221591763678223
 50
130.5045285274609057
 51
161.7161402817727094
  0
ARC
  5
1474
  8
0
 10
41.9126732921356506
 20
6.662375379584172
 30
0.0
 40
0.0116454435510189
 50
269.7790296751870187
 51
326.3414302272908003
  0
ARC
  5
1475
  8
0
 10
41.9125712764077889
 20
6.6603726119903639
 30
0.0
 40
0.0118104778139183
 50
270.1649682074161092
 51
338.4018619499233864
  0
ARC
  5
1476
  8
0
 10
41.9418549029503467
 20
6.6487795048408556
 30
0.0
 40
0.0196844569670261
 50
90.5678728557417401
 51
158.4018619499248075
  0
ARC
  5
1477
  8
0
 10
41.9374413850380208
 20
8.0559145075997058
 30
0.0
 40
1.3874579254713371
 50
269.8164873879468928
 51
271.1420799811099869
  0
ARC
  5
1478
  8
0
 10
42.0534909112132027
 20
6.4194726672725109
 30
0.0
 40
0.2389695850589225
 50
85.951503676129505
 51
97.1260392373110761
  0
ARC
  5
1479
  8
0
 10
42.0395075693238525
 20
6.9400138007759677
 30
0.0
 40
0.283849819197872
 50
266.8370978287214257
 51
276.2404450847254793
  0
ARC
  5
147A
  8
0
 10
45.8827981573269881
 20
5.9126071994182281
 30
0.0
 40
3.673993036507035
 50
167.9150359889042932
 51
170.5314680422123956
  0
ARC
  5
147B
  8
0
 10
40.8785392991624121
 20
6.7472077826702117
 30
0.0
 40
1.3993850149582461
 50
337.5447652986766798
 51
350.531468042212623
  0
ARC
  5
147C
  8
0
 10
41.8937333764326922
 20
6.3276295869651689
 30
0.0
 40
0.300902026088474
 50
300.2590873893797152
 51
337.5447652986786125
  0
ARC
  5
147D
  8
0
 10
41.863607562444713
 20
6.3792683513676947
 30
0.0
 40
0.3606860261005643
 50
282.2052354598158104
 51
300.2590873893797152
  0
ARC
  5
147E
  8
0
 10
41.9476406597429872
 20
11.2522697344147105
 30
0.0
 40
4.582859356096276
 50
271.8367012578702884
 51
272.1059857355218128
  0
ARC
  5
147F
  8
0
 10
41.8792041541521911
 20
7.4661525050520403
 30
0.0
 40
0.4381646159984193
 50
59.8996474122272886
 51
120.1003525877681994
  0
ARC
  5
1480
  8
0
 10
41.8792041541526032
 20
7.3968519580393446
 30
0.0
 40
0.5618157295458781
 50
87.4955410026731215
 51
92.5044589973268643
  0
ARC
  5
1481
  8
0
 10
41.8792041541526032
 20
6.362876186160892
 30
0.0
 40
0.3415701828162767
 50
259.7709128138599795
 51
280.2290871861397932
  0
CIRCLE
  5
1483
  8
0
 10
38.0150826506982966
 20
8.4606484872818513
 30
0.0
 40
0.4553258868599031
  0
ENDSEC
  0
EOF
