  0
SECTION
  2
HEADER
  9
$ACADVER
  1
AC1009
  9
$INSBASE
 10
3943.5668376820372032
 20
63.1537456087330327
 30
0.0
  9
$EXTMIN
 10
3939.1534003971951279
 20
59.6104385221330304
 30
0.0
  9
$EXTMAX
 10
3943.5778493439520389
 20
66.6970526953330136
 30
0.0
  9
$LIMMIN
 10
0.0
 20
0.0
  9
$LIMMAX
 10
11.6929133858000007
 20
8.2677165353999982
  9
$ORTHOMODE
 70
     0
  9
$REGENMODE
 70
     1
  9
$FILLMODE
 70
     1
  9
$QTEXTMODE
 70
     0
  9
$MIRRTEXT
 70
     0
  9
$DRAGMODE
 70
     2
  9
$LTSCALE
 40
0.6431102362
  9
$OSMODE
 70
  4095
  9
$ATTMODE
 70
     1
  9
$TEXTSIZE
 40
0.2
  9
$TRACEWID
 40
0.05
  9
$TEXTSTYLE
  7
STANDARD
  9
$CLAYER
  8
0
  9
$CELTYPE
  6
BYLAYER
  9
$CECOLOR
 62
   256
  9
$DIMSCALE
 40
1.0
  9
$DIMASZ
 40
0.1875
  9
$DIMEXO
 40
0.0625
  9
$DIMDLI
 40
0.4443307087
  9
$DIMRND
 40
0.0
  9
$DIMDLE
 40
0.0
  9
$DIMEXE
 40
0.125
  9
$DIMTP
 40
0.01
  9
$DIMTM
 40
0.01
  9
$DIMTXT
 40
2.0
  9
$DIMCEN
 40
0.1052362205
  9
$DIMTSZ
 40
0.0
  9
$DIMTOL
 70
     1
  9
$DIMLIM
 70
     0
  9
$DIMTIH
 70
     1
  9
$DIMTOH
 70
     1
  9
$DIMSE1
 70
     0
  9
$DIMSE2
 70
     0
  9
$DIMTAD
 70
     0
  9
$DIMZIN
 70
     0
  9
$DIMBLK
  1

  9
$DIMASO
 70
     1
  9
$DIMSHO
 70
     1
  9
$DIMPOST
  1
\X
  9
$DIMAPOST
  1

  9
$DIMALT
 70
     1
  9
$DIMALTD
 70
     2
  9
$DIMALTF
 40
25.3999999999999986
  9
$DIMLFAC
 40
1.0
  9
$DIMTOFL
 70
     0
  9
$DIMTVP
 40
0.0
  9
$DIMTIX
 70
     0
  9
$DIMSOXD
 70
     0
  9
$DIMSAH
 70
     0
  9
$DIMBLK1
  1

  9
$DIMBLK2
  1

  9
$DIMSTYLE
  2
STANDARD
  9
$DIMCLRD
 70
     0
  9
$DIMCLRE
 70
     0
  9
$DIMCLRT
 70
     0
  9
$DIMTFAC
 40
1.0
  9
$DIMGAP
 40
0.09
  9
$LUNITS
 70
     2
  9
$LUPREC
 70
     4
  9
$SKETCHINC
 40
0.1
  9
$FILLETRAD
 40
0.0
  9
$AUNITS
 70
     0
  9
$AUPREC
 70
     0
  9
$MENU
  1
.
  9
$ELEVATION
 40
0.0
  9
$PELEVATION
 40
0.0
  9
$THICKNESS
 40
0.0
  9
$LIMCHECK
 70
     0
  9
$BLIPMODE
 70
     0
  9
$CHAMFERA
 40
0.0
  9
$CHAMFERB
 40
0.0
  9
$SKPOLY
 70
     0
  9
$TDCREATE
 40
2458060.468368056230247
  9
$TDUPDATE
 40
2459865.3757175919599831
  9
$TDINDWG
 40
0.4145788194
  9
$TDUSRTIMER
 40
0.4145788194
  9
$USRTIMER
 70
     1
  9
$ANGBASE
 50
0.0
  9
$ANGDIR
 70
     0
  9
$PDMODE
 70
     0
  9
$PDSIZE
 40
0.3125
  9
$PLINEWID
 40
0.0
  9
$COORDS
 70
     1
  9
$SPLFRAME
 70
     0
  9
$SPLINETYPE
 70
     6
  9
$SPLINESEGS
 70
     8
  9
$ATTDIA
 70
     1
  9
$ATTREQ
 70
     1
  9
$HANDLING
 70
     1
  9
$HANDSEED
  5
7AC7
  9
$SURFTAB1
 70
     6
  9
$SURFTAB2
 70
     6
  9
$SURFTYPE
 70
     6
  9
$SURFU
 70
     6
  9
$SURFV
 70
     6
  9
$UCSNAME
  2

  9
$UCSORG
 10
0.0
 20
0.0
 30
0.0
  9
$UCSXDIR
 10
1.0
 20
0.0
 30
0.0
  9
$UCSYDIR
 10
0.0
 20
1.0
 30
0.0
  9
$PUCSNAME
  2

  9
$PUCSORG
 10
0.0
 20
0.0
 30
0.0
  9
$PUCSXDIR
 10
1.0
 20
0.0
 30
0.0
  9
$PUCSYDIR
 10
0.0
 20
1.0
 30
0.0
  9
$USERI1
 70
     0
  9
$USERI2
 70
     0
  9
$USERI3
 70
     0
  9
$USERI4
 70
     0
  9
$USERI5
 70
     0
  9
$USERR1
 40
0.0
  9
$USERR2
 40
0.0
  9
$USERR3
 40
0.0
  9
$USERR4
 40
0.0
  9
$USERR5
 40
0.0
  9
$WORLDVIEW
 70
     1
  9
$SHADEDGE
 70
     3
  9
$SHADEDIF
 70
    70
  9
$TILEMODE
 70
     1
  9
$MAXACTVP
 70
    64
  9
$PLIMCHECK
 70
     0
  9
$PEXTMIN
 10
1.0000000000000000E+20
 20
1.0000000000000000E+20
 30
1.0000000000000000E+20
  9
$PEXTMAX
 10
-1.0000000000000000E+20
 20
-1.0000000000000000E+20
 30
-1.0000000000000000E+20
  9
$PLIMMIN
 10
0.0
 20
0.0
  9
$PLIMMAX
 10
12.0
 20
9.0
  9
$UNITMODE
 70
     0
  9
$VISRETAIN
 70
     1
  9
$PLINEGEN
 70
     0
  9
$PSLTSCALE
 70
     1
  0
ENDSEC
  0
SECTION
  2
TABLES
  0
TABLE
  2
VPORT
 70
     1
  0
VPORT
  2
*ACTIVE
 70
     0
 10
0.0
 20
0.0
 11
1.0
 21
1.0
 12
149.0077147143238108
 22
-57.0269108243724432
 13
0.0
 23
0.0
 14
1.0
 24
1.0
 15
0.0
 25
0.0
 16
0.0
 26
0.0
 36
5.1040778033513332
 17
3792.35791015625
 27
120.1806564331053977
 37
0.0
 40
7.1373536541536922
 41
2.2831541218637992
 42
50.0
 43
0.0
 44
0.0
 50
0.0
 51
0.0
 71
     0
 72
   100
 73
     1
 74
     1
 75
     0
 76
     0
 77
     0
 78
     0
  0
ENDTAB
  0
TABLE
  2
LTYPE
 70
     2
  0
LTYPE
  2
CONTINUOUS
 70
     0
  3
Solid line
 72
    65
 73
     0
 40
0.0
  0
LTYPE
  2
PHANTOM2
 70
     0
  3
___ _ _ ___ _ _ ___ _ _ ___ _ _
 72
    65
 73
     6
 40
1.25
 49
0.625
 49
-0.125
 49
0.125
 49
-0.125
 49
0.125
 49
-0.125
  0
ENDTAB
  0
TABLE
  2
LAYER
 70
     2
  0
LAYER
  2
0
 70
     0
 62
   255
  6
CONTINUOUS
  0
LAYER
  2
DEFPOINTS
 70
     0
 62
     7
  6
CONTINUOUS
  0
ENDTAB
  0
TABLE
  2
STYLE
 70
     1
  0
STYLE
  2
STANDARD
 70
     0
 40
0.0
 41
0.8
 50
0.0
 71
     0
 42
0.2
  3
txt
  4

  0
ENDTAB
  0
TABLE
  2
VIEW
 70
     0
  0
ENDTAB
  0
TABLE
  2
UCS
 70
     0
  0
ENDTAB
  0
TABLE
  2
APPID
 70
     9
  0
APPID
  2
ACAD
 70
     0
  0
APPID
  2
ACAD_MLEADERVER
 70
     0
  0
APPID
  2
ACAD_EXEMPT_FROM_CAD_STANDARDS
 70
     0
  0
APPID
  2
ACAD_NAV_VCDISPLAY
 70
     0
  0
APPID
  2
ACAECLAYERSTANDARD
 70
     0
  0
APPID
  2
ACCMTRANSPARENCY
 70
     0
  0
APPID
  2
ACAD_DSTYLE_DIMJAG
 70
     0
  0
APPID
  2
ACAD_DSTYLE_DIMTALN
 70
     0
  0
APPID
  2
ACDBATTR
 70
     0
  0
ENDTAB
  0
TABLE
  2
DIMSTYLE
 70
     1
  0
DIMSTYLE
  2
STANDARD
 70
     0
  3

  4

  5

  6

  7

 40
1.0
 41
0.1875
 42
0.0625
 43
0.38
 44
0.125
 45
0.0
 46
0.0
 47
0.01
 48
0.01
140
0.15625
141
0.09
142
0.0
143
25.3999999999999986
144
1.0
145
0.0
146
1.0
147
0.09
 71
     1
 72
     0
 73
     1
 74
     1
 75
     0
 76
     0
 77
     0
 78
     4
170
     0
171
     2
172
     0
173
     0
174
     0
175
     0
176
     0
177
     0
178
     0
  0
ENDTAB
  0
ENDSEC
  0
SECTION
  2
BLOCKS
  0
BLOCK
  8
0
  2
$MODEL_SPACE
 70
     0
 10
0.0
 20
0.0
 30
0.0
  3
$MODEL_SPACE
  1

  0
ENDBLK
  5
21
  8
0
  0
BLOCK
 67
     1
  8
0
  2
$PAPER_SPACE
 70
     0
 10
0.0
 20
0.0
 30
0.0
  3
$PAPER_SPACE
  1

  0
ENDBLK
  5
1D
 67
     1
  8
0
  0
ENDSEC
  0
SECTION
  2
ENTITIES
  0
ATTDEF
  5
3930
  8
DEFPOINTS
 10
3943.5671826772831992
 20
63.1574472857718305
 30
0.0
 40
0.001
  1
K-76967BR-4
  3

  2
MODELNUMBER
 70
     0
1001
ACDBATTR
1070
     0
1070
     1
  0
ATTDEF
  5
3931
  8
DEFPOINTS
 10
3943.5671826772831992
 20
63.1557806191051725
 30
0.0
 40
0.001
  1
ARTIFACTS
  3

  2
TRADENAME
 70
     0
1001
ACDBATTR
1070
     0
1070
     1
  0
ATTDEF
  5
3932
  8
DEFPOINTS
 10
3943.5671826772831992
 20
63.1541139524385002
 30
0.0
 40
0.001
  1
VALVE TRIM
  3

  2
PRODUCT
 70
     0
1001
ACDBATTR
1070
     0
1070
     1
  0
ARC
  5
792E
  8
0
 10
3939.3882530280147876
 20
63.7235094149897208
 30
0.0
 40
0.2733116861722826
 50
317.6483159852700737
 51
355.9087948914004187
  0
ARC
  5
792F
  8
0
 10
3939.3942219044802187
 20
63.7233270953744224
 30
0.0
 40
0.2688058159051236
 50
292.066558249557886
 51
316.8199097982903254
  0
ARC
  5
7930
  8
0
 10
3939.5052362558681125
 20
63.4510225881039602
 30
0.0
 40
0.025264814788451
 50
113.3866497253240055
 51
195.2646519912700001
  0
ARC
  5
7931
  8
0
 10
3939.6573733964919484
 20
63.4531103933300713
 30
0.0
 40
0.1767268374065289
 50
182.8345397705705864
 51
249.0624945436763085
  0
LINE
  5
7932
  8
0
 10
3939.5942201588381977
 20
63.2880526954378126
 30
0.0
 11
3940.1142201576121806
 21
63.2880526954378126
 31
0.0
  0
ARC
  5
7933
  8
0
 10
3939.5947940576647852
 20
63.2372901782950692
 30
0.0
 40
0.0507657611637117
 50
90.6477334389778235
 51
163.2851795066177942
  0
ARC
  5
7934
  8
0
 10
3939.5942201592411038
 20
63.2380526952117279
 30
0.0
 40
0.049999999930329
 50
163.9329120331204876
 51
246.6460942166179962
  0
ARC
  5
7935
  8
0
 10
3939.5625171644628608
 20
63.1646127278544967
 30
0.0
 40
0.0299906792520514
 50
355.9873804530334951
 51
66.6587143999562812
  0
LINE
  5
7936
  8
0
 10
3939.5924343264241543
 20
63.1625140944397998
 30
0.0
 11
3939.485808900450138
 21
61.6376994628912129
 31
0.0
  0
ARC
  5
7937
  8
0
 10
3939.455881978925845
 20
61.6397921568513709
 30
0.0
 40
0.029999999999978
 50
290.7460921055032941
 51
356.0000004827526823
  0
ARC
  5
7938
  8
0
 10
3939.4842201593460231
 20
61.5649794070420668
 30
0.0
 40
0.0500000000223012
 50
110.7460920529842952
 51
209.9999999729016054
  0
ARC
  5
7939
  8
0
 10
3939.4149381270431149
 20
61.5249794070381526
 30
0.0
 40
0.0299999999790316
 50
302.2042274327034193
 51
30.0000000523114707
  0
ARC
  5
793A
  8
0
 10
3939.4842201593241953
 20
61.4149794070505166
 30
0.0
 40
0.0999999999984299
 50
122.2042275181522939
 51
237.7957724799695995
  0
ARC
  5
793B
  8
0
 10
3939.4149381270281083
 20
61.3049794070509932
 30
0.0
 40
0.0299999999973688
 50
329.9999999980789767
 51
57.7957725647407727
  0
ARC
  5
793C
  8
0
 10
3939.4842201593569371
 20
61.2649794070463471
 30
0.0
 40
0.0500000000283545
 50
150.0000000120409993
 51
253.7994138245263116
  0
ARC
  5
793D
  8
0
 10
3939.4619000853158468
 20
61.188156140749598
 30
0.0
 40
0.0299999996575475
 50
21.13776241933747
 51
73.7994144406243748
  0
ARC
  5
793E
  8
0
 10
3939.7042061016568368
 20
61.2751641645584897
 30
0.0
 40
0.2274640032940703
 50
199.5696598885716924
 51
242.0231188361985062
  0
ARC
  5
793F
  8
0
 10
3939.584220158215885
 20
61.0473812696346272
 30
0.0
 40
0.0300000011096472
 50
0.0000088552113904
 51
63.7277486934811108
  0
LINE
  5
7940
  8
0
 10
3939.6142201593252139
 20
61.0473812739544499
 30
0.0
 11
3939.6142201593252139
 21
61.0254993728513924
 31
0.0
  0
ARC
  5
7941
  8
0
 10
3939.6442201593249592
 20
61.0254993728513924
 30
0.0
 40
0.0299999999999994
 50
180.0000000000007958
 51
260.2987866403857993
  0
ARC
  5
7942
  8
0
 10
3939.6241583643391095
 20
60.8941262040864117
 30
0.0
 40
0.1029022683650171
 50
14.0164544884224593
 51
81.6145139388770389
  0
ARC
  5
7943
  8
0
 10
3939.7526139166939174
 20
60.9280526962313402
 30
0.0
 40
0.0300000015998556
 50
197.4646239404439996
 51
270.0116477179396952
  0
ARC
  5
7944
  8
0
 10
3940.1269825446202049
 20
63.7137042937915865
 30
0.0
 40
0.0799999964196507
 50
119.436834334519105
 51
186.9600065970215894
  0
ARC
  5
7945
  8
0
 10
3940.3201872886088495
 20
63.723509415323818
 30
0.0
 40
0.2733116861722826
 50
184.0912051496804054
 51
222.3516840558052081
  0
ARC
  5
7946
  8
0
 10
3940.3142184121438731
 20
63.7233270957042492
 30
0.0
 40
0.2688058159051236
 50
223.1800902427933977
 51
247.9334417915175095
  0
ARC
  5
7947
  8
0
 10
3940.2032040609519754
 20
63.4510225883541921
 30
0.0
 40
0.025264814788451
 50
344.7353480498099998
 51
66.6133503157523847
  0
ARC
  5
7948
  8
0
 10
3940.0510669203258658
 20
63.4531103934712206
 30
0.0
 40
0.1767268374065336
 50
290.9375053282482213
 51
357.1654602705111188
  0
ARC
  5
7949
  8
0
 10
3940.1136462597351056
 20
63.2372901787783377
 30
0.0
 40
0.050765760669732
 50
16.714820351600121
 51
89.3522676271609413
  0
ARC
  5
794A
  8
0
 10
3940.1142201577308697
 20
63.2380526953981672
 30
0.0
 40
0.049999999930329
 50
293.3539058244763282
 51
16.0670880079740499
  0
ARC
  5
794B
  8
0
 10
3940.1459231525618634
 20
63.1646127280636733
 30
0.0
 40
0.0299906792520514
 50
113.3412856411343057
 51
184.0126195880476132
  0
LINE
  5
794C
  8
0
 10
3940.1160059906019342
 20
63.162514094627511
 30
0.0
 11
3940.2226314176868982
 21
61.6376994629032211
 31
0.0
  0
ARC
  5
794D
  8
0
 10
3940.2525583391930013
 20
61.6397921571370233
 30
0.0
 40
0.0299999999999995
 50
184.0000000410832968
 51
249.2539079355925082
  0
ARC
  5
794E
  8
0
 10
3940.2242201588269381
 20
61.5649794073073693
 30
0.0
 40
0.0500000000223012
 50
330.0000000681694132
 51
69.2539079881117488
  0
ARC
  5
794F
  8
0
 10
3940.2935021911580407
 20
61.5249794073531291
 30
0.0
 40
0.0299999999790315
 50
149.9999999887589013
 51
237.7957737084931864
  0
ARC
  5
7950
  8
0
 10
3940.2242201589560864
 20
61.4149794073158191
 30
0.0
 40
0.0999999999984312
 50
302.2042272348006122
 51
57.7957721966178184
  0
ARC
  5
7951
  8
0
 10
3940.2935021913308447
 20
61.3049794073659768
 30
0.0
 40
0.0299999999973734
 50
122.2042285682342992
 51
210.0000000429890861
  0
ARC
  5
7952
  8
0
 10
3940.224220159028846
 20
61.2649794073116567
 30
0.0
 40
0.0500000000283545
 50
286.2005862165523808
 51
30.0000000290606792
  0
ARC
  5
7953
  8
0
 10
3940.2465402331267796
 20
61.1881561410309089
 30
0.0
 40
0.0299999996575528
 50
106.2005856004542039
 51
158.8622381566731008
  0
ARC
  5
7954
  8
0
 10
3940.004234216759869
 20
61.2751641646211311
 30
0.0
 40
0.2274640032375722
 50
297.9768812022142015
 51
340.4303400896308176
  0
ARC
  5
7955
  8
0
 10
3940.1242201603281501
 20
61.0473812698282288
 30
0.0
 40
0.0300000011096463
 50
116.2722513476051063
 51
179.9999902933037106
  0
LINE
  5
7956
  8
0
 10
3940.0942201592179117
 20
61.0473812745938815
 30
0.0
 11
3940.0942201592338279
 21
61.0254993730234787
 31
0.0
  0
ARC
  5
7957
  8
0
 10
3940.0642201592340825
 20
61.0254993730019635
 30
0.0
 40
0.0299999999999967
 50
279.7012116543621119
 51
0.0000000410876776
  0
ARC
  5
7958
  8
0
 10
3940.084281954258131
 20
60.8941262042847171
 30
0.0
 40
0.1029022683029016
 50
98.38548658322091
 51
165.9835455631576053
  0
ARC
  5
7959
  8
0
 10
3939.9558264031429644
 20
60.9280526954392201
 30
0.0
 40
0.0300000001878302
 50
270.0000003480441251
 51
342.5353769839862821
  0
LINE
  5
795A
  8
0
 10
3939.5743996878800317
 20
63.1921490035513926
 30
0.0
 11
3940.13404062935615
 21
63.1921490038520304
 31
0.0
  0
LINE
  5
795B
  8
0
 10
3939.4664956853371223
 20
61.6117373756513871
 30
0.0
 11
3940.2419315215579445
 21
61.6117373759587181
 31
0.0
  0
LINE
  5
795C
  8
0
 10
3939.4309262883011797
 20
61.4995947916513899
 30
0.0
 11
3940.277514030400198
 21
61.4995947916513899
 31
0.0
  0
LINE
  5
795D
  8
0
 10
3939.430926288298906
 20
61.3303640224513913
 30
0.0
 11
3940.2775140295598248
 21
61.3303640224513913
 31
0.0
  0
LINE
  5
795E
  8
0
 10
3939.4702701128258013
 20
61.2169648654513878
 30
0.0
 11
3940.2381702055959067
 21
61.2169648657267018
 31
0.0
  0
LINE
  5
795F
  8
0
 10
3939.7526200154247817
 20
60.8980526952514012
 30
0.0
 11
3939.9558264033257728
 21
60.8980526952514012
 31
0.0
  0
LINE
  5
7960
  8
0
 10
3939.6391648517078465
 20
60.995928375828953
 30
0.0
 11
3940.0692754659730781
 21
60.9959283758295001
 31
0.0
  0
LINE
  5
7961
  8
0
 10
3939.5974992769720302
 20
61.0742822932513931
 30
0.0
 11
3940.1111142881691194
 21
61.0743744161175499
 31
0.0
  0
ARC
  5
7962
  8
0
 10
3939.5818705485821738
 20
63.7137764672360305
 30
0.0
 40
0.0795991003320355
 50
352.9524215718935238
 51
60.7946034411252967
  0
LINE
  5
7963
  8
0
 10
3939.4808926535752107
 20
63.4437871729103833
 30
0.0
 11
3940.2275476621039161
 21
63.443787151471291
 31
0.0
  0
ARC
  5
7964
  8
0
 10
3939.5669338633028929
 20
64.1970526950945555
 30
0.0
 40
0.4135334638282235
 50
180.0000023931096109
 51
223.3339988841258901
  0
ARC
  5
7965
  8
0
 10
3939.2518255969771417
 20
63.8997564596666123
 30
0.0
 40
0.019685038797943
 50
359.9999996646586169
 51
43.3339997881262775
  0
ARC
  5
7966
  8
0
 10
3939.2994127032848155
 20
63.889066249941088
 30
0.0
 40
0.0279089888739188
 50
178.7239420798082108
 51
248.7834994669055106
  0
ARC
  5
7967
  8
0
 10
3939.3374023411352027
 20
63.9646183138390683
 30
0.0
 40
0.1123786324147416
 50
244.6640070972983096
 51
296.392147810358324
  0
ARC
  5
7968
  8
0
 10
3939.3742300197618533
 20
63.8909286610050131
 30
0.0
 40
0.0300000003442258
 50
295.9466444027074772
 51
343.7617441152328865
  0
ARC
  5
7969
  8
0
 10
3939.4452517713739326
 20
63.8692437794789427
 30
0.0
 40
0.0442626941199548
 50
104.0863619569066998
 51
162.5191827292595121
  0
ARC
  5
796A
  8
0
 10
3939.4523915739578115
 20
63.8521757146108015
 30
0.0
 40
0.0626165803651874
 50
66.9018390580030342
 51
106.6227375597340057
  0
ARC
  5
796B
  8
0
 10
3939.4498760438718818
 20
63.8477485958344602
 30
0.0
 40
0.0676781170472937
 50
31.7823323828779394
 51
66.4132832730445273
  0
ARC
  5
796C
  8
0
 10
3939.4155925853351619
 20
63.8277824524509825
 30
0.0
 40
0.107342468417349
 50
5.9807179470865561
 51
31.20342176863711
  0
ARC
  5
796D
  8
0
 10
3939.5474288799541682
 20
63.8383186118938681
 30
0.0
 40
0.0250864666401738
 50
178.5192614041268939
 51
265.8797338903700052
  0
ARC
  5
796E
  8
0
 10
3939.464702178007883
 20
63.5021785478104874
 30
0.0
 40
0.3214707019320337
 50
60.9682021455680001
 51
75.4200155571924142
  0
ARC
  5
796F
  8
0
 10
3939.5669338610241539
 20
64.1970961121077295
 30
0.0
 40
0.4135334638282235
 50
136.672016575008314
 51
180.0060130660135087
  0
ARC
  5
7970
  8
0
 10
3939.251794383431843
 20
64.4943592628165732
 30
0.0
 40
0.019685038797943
 50
316.67201567101921
 51
0.0060157944645482
  0
ARC
  5
7971
  8
0
 10
3939.300108714444832
 20
64.5048948907853799
 30
0.0
 40
0.0286020609662015
 50
112.2523764127324029
 51
180.9561164960771009
  0
ARC
  5
7972
  8
0
 10
3939.3741978787138578
 20
64.5031999126169211
 30
0.0
 40
0.0300000003442258
 50
16.2442713438875188
 51
64.0593710564144487
  0
ARC
  5
7973
  8
0
 10
3939.4452173532490633
 20
64.5248922505664666
 30
0.0
 40
0.0442626941199548
 50
197.4868327298690076
 51
255.9196535022065859
  0
ARC
  5
7974
  8
0
 10
3939.4523553784069918
 20
64.5419610588244836
 30
0.0
 40
0.0626165786701199
 50
253.3832635115813048
 51
293.1041625564120068
  0
ARC
  5
7975
  8
0
 10
3939.4498393689527802
 20
64.5463879090938946
 30
0.0
 40
0.0676781170472937
 50
293.5927321860762049
 51
328.2236830762346926
  0
ARC
  5
7976
  8
0
 10
3939.4155538143668309
 20
64.5663504529618422
 30
0.0
 40
0.107342468417338
 50
328.8025936905063986
 51
354.0839147531024764
  0
ARC
  5
7977
  8
0
 10
3939.5473792909069743
 20
64.5558526894795079
 30
0.0
 40
0.0250611199091147
 50
94.1031315026563391
 51
181.2946178970890969
  0
ARC
  5
7978
  8
0
 10
3939.4601708558579958
 20
64.9055205437001206
 30
0.0
 40
0.3357186401063251
 50
284.7395248173608024
 51
299.7509206634385919
  0
LINE
  5
7979
  8
0
 10
3939.2715106357750301
 20
64.5044176194513881
 30
0.0
 11
3939.2715106357750301
 21
63.8896877711513795
 31
0.0
  0
LINE
  5
797A
  8
0
 10
3939.4032811089118695
 20
64.5107311241404915
 30
0.0
 11
3939.4029891307750404
 21
63.8823897176085609
 31
0.0
  0
LINE
  5
797B
  8
0
 10
3939.5223245681982007
 20
64.5552864730157268
 30
0.0
 11
3939.5223507904747748
 21
63.8389668684463771
 31
0.0
  0
ARC
  5
797C
  8
0
 10
3939.8529369104780926
 20
64.2020851432528019
 30
0.0
 40
0.4699693039540167
 50
89.8435539707081858
 51
118.7670057330969939
  0
ARC
  5
797D
  8
0
 10
3939.8548827668928425
 20
64.1986936806709707
 30
0.0
 40
0.4733594783390473
 50
45.9434222678983133
 51
90.08020253982653
  0
ARC
  5
797E
  8
0
 10
3940.2257036716750918
 20
64.5820526952515053
 30
0.0
 40
0.0600000000001284
 50
226.023666516842809
 51
269.9999999999739089
  0
ARC
  5
797F
  8
0
 10
3940.4506303207790552
 20
64.4920526952658548
 30
0.0
 40
0.0299999999855244
 50
26.8082538789407501
 51
90.0000000078165243
  0
ARC
  5
7980
  8
0
 10
3940.5309571976749794
 20
64.5326432464513857
 30
0.0
 40
0.0599999999999991
 50
206.8082543397831046
 51
270.0
  0
LINE
  5
7981
  8
0
 10
3940.5309571976749794
 20
64.4726432464513834
 30
0.0
 11
3940.5629137853748034
 21
64.4726432464513834
 31
0.0
  0
ARC
  5
7982
  8
0
 10
3940.5629137855457884
 20
64.4529582072220961
 30
0.0
 40
0.01968503922929
 50
359.9999997941907282
 51
90.0000004968708254
  0
ARC
  5
7983
  8
0
 10
3940.6219689034751354
 20
64.9057141126513955
 30
0.0
 40
0.0393700786999958
 50
90.0
 51
180.0
  0
LINE
  5
7984
  8
0
 10
3940.6219689034751354
 20
64.9450841913513841
 30
0.0
 11
3940.653464966474985
 21
64.9450841913513841
 31
0.0
  0
ARC
  5
7985
  8
0
 10
3940.653464966474985
 20
65.0041393094513893
 30
0.0
 40
0.0590551181000079
 50
270.0
 51
359.9999999999964189
  0
ARC
  5
7986
  8
0
 10
3940.7519152177978867
 20
65.1222391677278694
 30
0.0
 40
0.0393951345906084
 50
90.0364389809857784
 51
179.9849064806925867
  0
ARC
  5
7987
  8
0
 10
3941.827114904616792
 20
64.1970526961162165
 30
0.0
 40
0.8070866133014482
 50
90.7223628832393274
 51
111.8811301879994033
  0
ARC
  5
7988
  8
0
 10
3941.8159470415748729
 20
65.0828090659513947
 30
0.0
 40
0.0787401574999987
 50
270.7223627570966187
 51
344.9999884862355088
  0
LINE
  5
7989
  8
0
 10
3941.8920041891738038
 20
65.0624295982920842
 30
0.0
 11
3941.9093980580751122
 21
65.1273352086513881
 31
0.0
  0
ARC
  5
798A
  8
0
 10
3941.9448155122950084
 20
65.1497982183996527
 30
0.0
 40
0.0118361025113357
 50
90.1213791437608052
 51
179.9497453511150979
  0
ARC
  5
798B
  8
0
 10
3943.0943967369580605
 20
66.3073587751207469
 30
0.0
 40
0.1181102360211437
 50
95.2159084912526339
 51
180.0000000336468986
  0
ARC
  5
798C
  8
0
 10
3943.0747116977358928
 20
66.5229975771513864
 30
0.0
 40
0.0984251969000002
 50
275.2159085864090002
 51
0.0000000000004071
  0
ARC
  5
798D
  8
0
 10
3943.2912471308368367
 20
66.569246631551394
 30
0.0
 40
0.1181102361999979
 50
92.0000000005772307
 51
180.0000000000007958
  0
LINE
  5
798E
  8
0
 10
3943.2871251430369739
 20
66.6872849181866911
 30
0.0
 11
3943.5668376820372032
 21
66.6970526953330136
 31
0.0
  0
LINE
  5
798F
  8
0
 10
3940.7518901632752204
 20
65.1616342943513871
 30
0.0
 11
3941.4343917975761542
 21
65.1616342943513871
 31
0.0
  0
ARC
  5
7990
  8
0
 10
3941.4343595850409656
 20
65.1315968294023122
 30
0.0
 40
0.0300374822216261
 50
17.0701934324152305
 51
89.9385553497801737
  0
LINE
  5
7991
  8
0
 10
3941.4630737915731515
 20
65.140414123854427
 30
0.0
 11
3941.5263280993131048
 21
64.9459960178203914
 31
0.0
  0
ARC
  5
7992
  8
0
 10
3947.1994725934441703
 20
66.8993140137032754
 30
0.0
 40
6.0000000030544394
 50
198.9990754753438011
 51
205.5192193772948031
  0
ARC
  5
7993
  8
0
 10
3941.2518901341468336
 20
64.0600133594628431
 30
0.0
 40
0.5905512119318976
 50
16.8962098636412783
 51
25.5204237265508205
  0
ARC
  5
7994
  8
0
 10
3941.2526956464221257
 20
64.060068378321489
 30
0.0
 40
0.589745700619175
 50
359.9946547413035773
 51
16.9078197287937293
  0
LINE
  5
7995
  8
0
 10
3941.8424413444749916
 20
64.0600133595505952
 30
0.0
 11
3941.8424413444749916
 21
63.2624857578842565
 31
0.0
  0
ARC
  5
7996
  8
0
 10
3941.8124413444747915
 20
63.2624857661513929
 30
0.0
 40
0.0299999999999987
 50
270.0
 51
359.9999842109588144
  0
LINE
  5
7997
  8
0
 10
3941.8124413444747915
 20
63.2324857661513917
 30
0.0
 11
3941.379842919274779
 21
63.2324857661513917
 31
0.0
  0
LINE
  5
7998
  8
0
 10
3940.7518901632752204
 20
63.2324857661513917
 30
0.0
 11
3941.0215752026751943
 21
63.2324857661513917
 31
0.0
  0
ARC
  5
7999
  8
0
 10
3941.2007090609749866
 20
62.2846466697470333
 30
0.0
 40
0.9646180030779358
 50
79.2977937141058362
 51
100.7022062858941069
  0
ARC
  5
799A
  8
0
 10
3940.2257160864041907
 20
63.8119887917766704
 30
0.0
 40
0.060063904757733
 50
90.0118425797411277
 51
133.9361618886296128
  0
LINE
  5
799B
  8
0
 10
3940.2257036716750918
 20
63.8720526952513907
 30
0.0
 11
3940.4506303207749625
 21
63.8720526952513907
 31
0.0
  0
ARC
  5
799C
  8
0
 10
3940.4506303207790552
 20
63.902052695236911
 30
0.0
 40
0.0299999999855244
 50
269.9999999921835183
 51
333.191746121058884
  0
ARC
  5
799D
  8
0
 10
3940.5309571976749794
 20
63.8614621440513872
 30
0.0
 40
0.0599999999999991
 50
90.0
 51
153.1917456602172933
  0
LINE
  5
799E
  8
0
 10
3940.5309571976749794
 20
63.9214621440513895
 30
0.0
 11
3940.5629137853748034
 21
63.9214621440513895
 31
0.0
  0
ARC
  5
799F
  8
0
 10
3940.5629137855457884
 20
63.941147183280691
 30
0.0
 40
0.01968503922929
 50
269.9999995031291746
 51
0.0000002058092661
  0
ARC
  5
79A0
  8
0
 10
3939.8545354400839642
 20
64.1965685329296889
 30
0.0
 40
0.4744233963359493
 50
299.4324123509429114
 51
313.9903865241793142
  0
ARC
  5
79A1
  8
0
 10
3940.6219689034751354
 20
63.4883912779513935
 30
0.0
 40
0.0393700786999958
 50
180.0
 51
270.0
  0
LINE
  5
79A2
  8
0
 10
3940.6219689034751354
 20
63.4490211992513977
 30
0.0
 11
3940.653464966474985
 21
63.4490211992513977
 31
0.0
  0
ARC
  5
79A3
  8
0
 10
3940.653464966474985
 20
63.3899660811513783
 30
0.0
 40
0.0590551181000079
 50
0.0000000000032569
 51
90.0
  0
ARC
  5
79A4
  8
0
 10
3940.7518901632752204
 20
63.2718558449513893
 30
0.0
 40
0.0393700786999993
 50
180.0000000000011937
 51
270.0
  0
ARC
  5
79A5
  8
0
 10
3941.815947346547091
 20
63.3112915294458674
 30
0.0
 40
0.0787401574999987
 50
15.0000115137644698
 51
70.3375820468591826
  0
LINE
  5
79A6
  8
0
 10
3941.8920044941460219
 20
63.3316709971051779
 30
0.0
 11
3941.9093983630459661
 21
63.2667653867458668
 31
0.0
  0
ARC
  5
79A7
  8
0
 10
3941.9447904379371721
 20
63.2442967896513935
 30
0.0
 40
0.0118110236000018
 50
179.9999961191741136
 51
270.0
  0
LINE
  5
79A8
  8
0
 10
3940.5825988247747773
 20
64.9057141126513955
 30
0.0
 11
3940.5825988247747773
 21
63.4883912779513935
 31
0.0
  0
LINE
  5
79A9
  8
0
 10
3940.7125200845748623
 20
65.1222495456513855
 30
0.0
 11
3940.7125200845748623
 21
63.2718558449513893
 31
0.0
  0
LINE
  5
79AA
  8
0
 10
3941.9329794143368417
 20
65.1498085999513989
 30
0.0
 11
3941.9329794143368417
 21
63.2442967896513935
 31
0.0
  0
ARC
  5
79AB
  8
0
 10
3943.0943967364228229
 20
60.0001324422620215
 30
0.0
 40
0.1181102360211437
 50
179.9999999566508109
 51
264.7840914990406986
  0
ARC
  5
79AC
  8
0
 10
3943.0747116971660944
 20
59.7844936402347287
 30
0.0
 40
0.098425196900001
 50
359.9999999902960894
 51
84.7840914039104661
  0
ARC
  5
79AD
  8
0
 10
3943.2912471302588528
 20
59.73824458579805
 30
0.0
 40
0.1181102361999979
 50
179.9999999902969137
 51
267.9999999897244152
  0
LINE
  5
79AE
  8
0
 10
3943.2871251424380716
 20
59.6202062991634492
 30
0.0
 11
3943.5668376820372032
 21
59.6104385221330304
 31
0.0
  0
LINE
  5
79AF
  8
0
 10
3943.1731368946370822
 20
59.7382445858513904
 30
0.0
 11
3943.1731368946370822
 21
66.569246631551394
 31
0.0
  0
LINE
  5
79B0
  8
0
 10
3942.9762865009361121
 20
66.307358775051398
 30
0.0
 11
3942.9762865009361121
 21
60.0001324423513935
 31
0.0
  0
LINE
  5
79B1
  8
0
 10
3943.5668376820372032
 20
66.6970526953330136
 30
0.0
 11
3943.5668376820372032
 21
59.6104385221330304
 31
0.0
  0
ARC
  5
79B2
  8
0
 10
3939.3370519238519591
 20
64.4279566639085743
 30
0.0
 40
0.1139124872100767
 50
63.8133901976379718
 51
114.7964585057421942
  0
LINE
  5
79B3
  8
0
 10
3940.2257036716750918
 20
64.5220526952513893
 30
0.0
 11
3940.4506303207790552
 21
64.5220526952513893
 31
0.0
  0
LINE
  5
79B4
  8
0
 10
3941.9447904379371721
 20
65.1616342943513871
 30
0.0
 11
3942.9762865009361121
 21
65.1616342943513871
 31
0.0
  0
LINE
  5
79B5
  8
0
 10
3941.9447904379371721
 20
63.2324857660513899
 30
0.0
 11
3942.9762865009361121
 21
63.2324857660513899
 31
0.0
  0
ARC
  5
79B6
  8
0
 10
3941.9283876753320328
 20
63.2718217854629117
 30
0.0
 40
0.0196509834125717
 50
194.9105193270355016
 51
270.0337095320463732
  0
LINE
  5
79B7
  8
0
 10
3941.9283992369369116
 20
63.2521708054513923
 30
0.0
 11
3941.9329794143368417
 21
63.2521708054513923
 31
0.0
  0
LINE
  5
79B8
  8
0
 10
3941.9283992369369116
 20
65.141934584951386
 30
0.0
 11
3941.9329794143368417
 21
65.141934584951386
 31
0.0
  0
ARC
  5
79B9
  8
0
 10
3941.9283869068831336
 20
65.1222858683359931
 30
0.0
 40
0.0196487204840217
 50
89.9640457822146544
 51
165.1090222251582134
  0
ARC
  5
79BA
  8
0
 10
3941.0506959499011828
 20
63.2438743481064165
 30
0.0
 40
0.0200000000830181
 50
207.7171959039876867
 51
257.8033618672300804
  0
ARC
  5
79BB
  8
0
 10
3941.2006977028008805
 20
63.9378320035101098
 30
0.0
 40
0.7299835925608247
 50
257.8032151679785215
 51
282.1967848320214785
  0
ARC
  5
79BC
  8
0
 10
3941.350695949835881
 20
63.2438743480513921
 30
0.0
 40
0.0199999999999978
 50
282.1988962187962784
 51
332.2965133994316034
  0
LINE
  5
79BD
  8
0
 10
3941.0464706009729525
 20
63.2243257821807916
 30
0.0
 11
3941.3549212965031074
 21
63.2243257817056019
 31
0.0
  0
LINE
  5
79BE
  8
0
 10
3943.5668376820372032
 20
59.6183213061513868
 30
0.0
 11
3943.4487274458369939
 21
59.6224550134513933
 31
0.0
  0
LINE
  5
79BF
  8
0
 10
3943.4487274458369939
 20
59.6224550134513933
 30
0.0
 11
3943.4487274458369939
 21
59.6577460703514006
 31
0.0
  0
LINE
  5
79C0
  8
0
 10
3943.4487274458369939
 20
59.6577460703514006
 30
0.0
 11
3943.5668376820372032
 21
59.6535706840513882
 31
0.0
  0
LINE
  5
79C1
  8
0
 10
3940.1840419693749027
 20
64.5388751251313977
 30
0.0
 11
3940.1834252714470495
 21
63.854648896439663
 31
0.0
  0
LINE
  5
79C2
  8
0
 10
3940.4774059464748461
 20
64.5055828788464396
 30
0.0
 11
3940.4774059464748461
 21
63.8885225116563404
 31
0.0
  0
ENDSEC
  0
EOF
