  0
SECTION
  2
HEADER
  9
$ACADVER
  1
AC1009
  9
$INSBASE
 10
4592.0565420530283518
 20
253.1311903985331924
 30
0.0
  9
$EXTMIN
 10
4571.5446655352016023
 20
252.2699511330777966
 30
-0.0000000000112498
  9
$EXTMAX
 10
4592.2151638936102245
 20
259.434911452104302
 30
0.0000000000002956
  9
$LIMMIN
 10
0.0
 20
0.0
  9
$LIMMAX
 10
11.6929133858000007
 20
8.2677165353999982
  9
$ORTHOMODE
 70
     0
  9
$REGENMODE
 70
     1
  9
$FILLMODE
 70
     1
  9
$QTEXTMODE
 70
     0
  9
$MIRRTEXT
 70
     0
  9
$DRAGMODE
 70
     2
  9
$LTSCALE
 40
0.6431102362
  9
$OSMODE
 70
   575
  9
$ATTMODE
 70
     1
  9
$TEXTSIZE
 40
0.2
  9
$TRACEWID
 40
0.05
  9
$TEXTSTYLE
  7
STANDARD
  9
$CLAYER
  8
0
  9
$CELTYPE
  6
BYLAYER
  9
$CECOLOR
 62
   256
  9
$DIMSCALE
 40
1.0
  9
$DIMASZ
 40
0.1875
  9
$DIMEXO
 40
0.0625
  9
$DIMDLI
 40
0.4443307087
  9
$DIMRND
 40
0.0
  9
$DIMDLE
 40
0.0
  9
$DIMEXE
 40
0.125
  9
$DIMTP
 40
0.01
  9
$DIMTM
 40
0.01
  9
$DIMTXT
 40
2.0
  9
$DIMCEN
 40
0.1052362205
  9
$DIMTSZ
 40
0.0
  9
$DIMTOL
 70
     1
  9
$DIMLIM
 70
     0
  9
$DIMTIH
 70
     1
  9
$DIMTOH
 70
     1
  9
$DIMSE1
 70
     0
  9
$DIMSE2
 70
     0
  9
$DIMTAD
 70
     0
  9
$DIMZIN
 70
     0
  9
$DIMBLK
  1

  9
$DIMASO
 70
     1
  9
$DIMSHO
 70
     1
  9
$DIMPOST
  1
\X
  9
$DIMAPOST
  1

  9
$DIMALT
 70
     1
  9
$DIMALTD
 70
     2
  9
$DIMALTF
 40
25.3999999999999986
  9
$DIMLFAC
 40
1.0
  9
$DIMTOFL
 70
     0
  9
$DIMTVP
 40
0.0
  9
$DIMTIX
 70
     0
  9
$DIMSOXD
 70
     0
  9
$DIMSAH
 70
     0
  9
$DIMBLK1
  1

  9
$DIMBLK2
  1

  9
$DIMSTYLE
  2
STANDARD
  9
$DIMCLRD
 70
     0
  9
$DIMCLRE
 70
     0
  9
$DIMCLRT
 70
     0
  9
$DIMTFAC
 40
1.0
  9
$DIMGAP
 40
0.09
  9
$LUNITS
 70
     2
  9
$LUPREC
 70
     4
  9
$SKETCHINC
 40
0.1
  9
$FILLETRAD
 40
0.0
  9
$AUNITS
 70
     0
  9
$AUPREC
 70
     0
  9
$MENU
  1
.
  9
$ELEVATION
 40
0.0
  9
$PELEVATION
 40
0.0
  9
$THICKNESS
 40
0.0
  9
$LIMCHECK
 70
     0
  9
$BLIPMODE
 70
     0
  9
$CHAMFERA
 40
0.0
  9
$CHAMFERB
 40
0.0
  9
$SKPOLY
 70
     0
  9
$TDCREATE
 40
2458060.468368056230247
  9
$TDUPDATE
 40
2459505.0909027778543532
  9
$TDINDWG
 40
0.4884329861
  9
$TDUSRTIMER
 40
0.4884329861
  9
$USRTIMER
 70
     1
  9
$ANGBASE
 50
0.0
  9
$ANGDIR
 70
     0
  9
$PDMODE
 70
     0
  9
$PDSIZE
 40
0.3125
  9
$PLINEWID
 40
0.0
  9
$COORDS
 70
     1
  9
$SPLFRAME
 70
     0
  9
$SPLINETYPE
 70
     6
  9
$SPLINESEGS
 70
     8
  9
$ATTDIA
 70
     1
  9
$ATTREQ
 70
     1
  9
$HANDLING
 70
     1
  9
$HANDSEED
  5
2399D
  9
$SURFTAB1
 70
     6
  9
$SURFTAB2
 70
     6
  9
$SURFTYPE
 70
     6
  9
$SURFU
 70
     6
  9
$SURFV
 70
     6
  9
$UCSNAME
  2

  9
$UCSORG
 10
0.0
 20
0.0
 30
0.0
  9
$UCSXDIR
 10
1.0
 20
0.0
 30
0.0
  9
$UCSYDIR
 10
0.0
 20
1.0
 30
0.0
  9
$PUCSNAME
  2

  9
$PUCSORG
 10
0.0
 20
0.0
 30
0.0
  9
$PUCSXDIR
 10
1.0
 20
0.0
 30
0.0
  9
$PUCSYDIR
 10
0.0
 20
1.0
 30
0.0
  9
$USERI1
 70
     0
  9
$USERI2
 70
     0
  9
$USERI3
 70
     0
  9
$USERI4
 70
     0
  9
$USERI5
 70
     0
  9
$USERR1
 40
0.0
  9
$USERR2
 40
0.0
  9
$USERR3
 40
0.0
  9
$USERR4
 40
0.0
  9
$USERR5
 40
0.0
  9
$WORLDVIEW
 70
     1
  9
$SHADEDGE
 70
     3
  9
$SHADEDIF
 70
    70
  9
$TILEMODE
 70
     1
  9
$MAXACTVP
 70
    64
  9
$PLIMCHECK
 70
     0
  9
$PEXTMIN
 10
1.0000000000000000E+20
 20
1.0000000000000000E+20
 30
1.0000000000000000E+20
  9
$PEXTMAX
 10
-1.0000000000000000E+20
 20
-1.0000000000000000E+20
 30
-1.0000000000000000E+20
  9
$PLIMMIN
 10
0.0
 20
0.0
  9
$PLIMMAX
 10
12.0
 20
9.0
  9
$UNITMODE
 70
     0
  9
$VISRETAIN
 70
     1
  9
$PLINEGEN
 70
     0
  9
$PSLTSCALE
 70
     1
  0
ENDSEC
  0
SECTION
  2
TABLES
  0
TABLE
  2
VPORT
 70
     1
  0
VPORT
  2
*ACTIVE
 70
     0
 10
0.0
 20
0.0
 11
1.0
 21
1.0
 12
670.514558264016955
 22
123.2728261753280066
 13
0.0
 23
0.0
 14
1.0
 24
1.0
 15
0.0
 25
0.0
 16
0.0
 26
0.0
 36
60.4960186965801583
 17
3911.3653564453120453
 27
132.5796051025390057
 37
0.0
 40
12.8943397530661894
 41
2.4943639291465369
 42
50.0
 43
0.0
 44
0.0
 50
0.0
 51
0.0
 71
     0
 72
   100
 73
     1
 74
     1
 75
     0
 76
     0
 77
     0
 78
     0
  0
ENDTAB
  0
TABLE
  2
LTYPE
 70
     2
  0
LTYPE
  2
CONTINUOUS
 70
     0
  3
Solid line
 72
    65
 73
     0
 40
0.0
  0
LTYPE
  2
PHANTOM2
 70
     0
  3
___ _ _ ___ _ _ ___ _ _ ___ _ _
 72
    65
 73
     6
 40
1.25
 49
0.625
 49
-0.125
 49
0.125
 49
-0.125
 49
0.125
 49
-0.125
  0
ENDTAB
  0
TABLE
  2
LAYER
 70
     2
  0
LAYER
  2
0
 70
     0
 62
   255
  6
CONTINUOUS
  0
LAYER
  2
DEFPOINTS
 70
     0
 62
     7
  6
CONTINUOUS
  0
ENDTAB
  0
TABLE
  2
STYLE
 70
     1
  0
STYLE
  2
STANDARD
 70
     0
 40
0.0
 41
0.8
 50
0.0
 71
     0
 42
0.2
  3
txt
  4

  0
ENDTAB
  0
TABLE
  2
VIEW
 70
     0
  0
ENDTAB
  0
TABLE
  2
UCS
 70
     0
  0
ENDTAB
  0
TABLE
  2
APPID
 70
    11
  0
APPID
  2
ACAD
 70
     0
  0
APPID
  2
ACAD_MLEADERVER
 70
     0
  0
APPID
  2
ACAD_EXEMPT_FROM_CAD_STANDARDS
 70
     0
  0
APPID
  2
ACAD_NAV_VCDISPLAY
 70
     0
  0
APPID
  2
ACAECLAYERSTANDARD
 70
     0
  0
APPID
  2
ACCMTRANSPARENCY
 70
     0
  0
APPID
  2
ACAD_DSTYLE_DIMJAG
 70
     0
  0
APPID
  2
ACAD_DSTYLE_DIMTALN
 70
     0
  0
APPID
  2
ACDBATTR
 70
     0
  0
APPID
  2
ACADANNOTATIVE
 70
     0
  0
APPID
  2
DCO15
 70
     0
  0
ENDTAB
  0
TABLE
  2
DIMSTYLE
 70
     1
  0
DIMSTYLE
  2
STANDARD
 70
     0
  3

  4

  5

  6

  7

 40
1.0
 41
0.1875
 42
0.0625
 43
0.38
 44
0.125
 45
0.0
 46
0.0
 47
0.01
 48
0.01
140
0.15625
141
0.09
142
0.0
143
25.3999999999999986
144
1.0
145
0.0
146
1.0
147
0.09
 71
     1
 72
     0
 73
     1
 74
     1
 75
     0
 76
     0
 77
     0
 78
     4
170
     0
171
     2
172
     0
173
     0
174
     0
175
     0
176
     0
177
     0
178
     0
  0
ENDTAB
  0
ENDSEC
  0
SECTION
  2
BLOCKS
  0
BLOCK
  8
0
  2
$MODEL_SPACE
 70
     0
 10
0.0
 20
0.0
 30
0.0
  3
$MODEL_SPACE
  1

  0
ENDBLK
  5
21
  8
0
  0
BLOCK
 67
     1
  8
0
  2
$PAPER_SPACE
 70
     0
 10
0.0
 20
0.0
 30
0.0
  3
$PAPER_SPACE
  1

  0
ENDBLK
  5
1D
 67
     1
  8
0
  0
ENDSEC
  0
SECTION
  2
ENTITIES
  0
LINE
  5
2313A
  8
0
 10
4571.6665420530280244
 20
253.4698073012332031
 30
0.0
 11
4571.6678743630282042
 21
253.4577519938331989
 31
0.0
  0
LINE
  5
2313B
  8
0
 10
4573.3748296410276453
 20
253.4461510284332064
 30
0.0
 11
4573.3748296410276453
 21
253.2414266190332057
 31
0.0
  0
LINE
  5
2313C
  8
0
 10
4573.5323183526279536
 20
253.2414266190332057
 30
0.0
 11
4573.5323209167281675
 21
253.2099305560332141
 31
0.0
  0
LINE
  5
2313D
  8
0
 10
4573.9556277747269633
 20
253.2886707135332074
 30
0.0
 11
4573.9556277747269633
 21
253.2493006347332027
 31
0.0
  0
LINE
  5
2313E
  8
0
 10
4574.0932948096269683
 20
253.3831589025332107
 30
0.0
 11
4574.0932948096269683
 21
253.3516628395331907
 31
0.0
  0
LINE
  5
2313F
  8
0
 10
4574.4057185602268873
 20
253.3831589030332054
 30
0.0
 11
4574.4057185602268873
 21
253.3516628389332084
 31
0.0
  0
LINE
  5
23140
  8
0
 10
4574.4579125134278001
 20
253.3516628395331907
 30
0.0
 11
4574.4579125134278001
 21
253.3831589025332107
 31
0.0
  0
LINE
  5
23141
  8
0
 10
4574.4701830942276501
 20
253.2886707135332074
 30
0.0
 11
4574.4701830942276501
 21
253.2493006347332027
 31
0.0
  0
LINE
  5
23142
  8
0
 10
4573.9278153766281321
 20
253.2361707313332033
 30
0.0
 11
4574.0143988966283359
 21
253.1378153492331933
 31
0.0
  0
LINE
  5
23143
  8
0
 10
4575.2880576843281233
 20
253.3831589025332107
 30
0.0
 11
4575.2880576843281233
 21
253.3516628395331907
 31
0.0
  0
LINE
  5
23144
  8
0
 10
4575.4314028603275801
 20
253.2493006347332027
 30
0.0
 11
4575.4314028603275801
 21
253.2886707135332074
 31
0.0
  0
LINE
  5
23145
  8
0
 10
4574.4970563906290408
 20
253.2373045324331997
 30
0.0
 11
4574.4858136665279744
 21
253.1405635535332124
 31
0.0
  0
LINE
  5
23146
  8
0
 10
4575.3688753673277461
 20
253.1375914521331936
 30
0.0
 11
4575.4587343707280525
 21
253.2361214766332012
 31
0.0
  0
LINE
  5
23147
  8
0
 10
4586.5199211683357134
 20
252.7200343290002138
 30
0.0
 11
4586.5144615325789346
 21
252.7199872059563006
 31
0.0
  0
LINE
  5
23148
  8
0
 10
4586.538041286617954
 20
252.6587512739291128
 30
0.0
 11
4586.4085515290280455
 21
252.6587629901331979
 31
0.0
  0
LINE
  5
23149
  8
0
 10
4586.3441070891276468
 20
252.670560477333197
 30
0.0
 11
4586.5049789713275459
 21
252.670560477333197
 31
0.0
  0
LINE
  5
2314A
  8
0
 10
4589.7999221767277049
 20
252.9894581150331874
 30
0.0
 11
4589.9472799383283927
 21
252.9894581150331874
 31
0.0
  0
LINE
  5
2314B
  8
0
 10
4579.5103204888282562
 20
253.2414266190332057
 30
0.0
 11
4579.5103204888282562
 21
253.3205486281331957
 31
0.0
  0
LINE
  5
2314C
  8
0
 10
4589.8783032215269486
 20
253.0681982725332091
 30
0.0
 11
4589.9371643671283891
 21
253.0681982725332091
 31
0.0
  0
LINE
  5
2314D
  8
0
 10
4586.4527157342517967
 20
253.103631343433193
 30
0.0
 11
4586.4455350649268439
 21
253.103631343433193
 31
0.0
  0
LINE
  5
2314E
  8
0
 10
4586.3761084364277849
 20
253.103631343433193
 30
0.0
 11
4586.3441070998278519
 21
253.103631343433193
 31
0.0
  0
LINE
  5
2314F
  8
0
 10
4589.5980105063272276
 20
253.1075683513332137
 30
0.0
 11
4590.1491916087279606
 21
253.1075683513332137
 31
0.0
  0
LINE
  5
23150
  8
0
 10
4586.3687814972281558
 20
253.1233163828331953
 30
0.0
 11
4586.3761084360276072
 21
253.1233163828331953
 31
0.0
  0
LINE
  5
23151
  8
0
 10
4589.5783254670268434
 20
253.1272533906332001
 30
0.0
 11
4590.1688766480283448
 21
253.1272533906332001
 31
0.0
  0
LINE
  5
23152
  8
0
 10
4586.4261620292281805
 20
253.1290624606332074
 30
0.0
 11
4586.4171221037267969
 21
253.1290624606332074
 31
0.0
  0
LINE
  5
23153
  8
0
 10
4586.3339547882269471
 20
253.1290624606332074
 30
0.0
 11
4586.3249148627282921
 21
253.1290624606332074
 31
0.0
  0
LINE
  5
23154
  8
0
 10
4574.0291328023267852
 20
253.1311903985331924
 30
0.0
 11
4575.3543421444283013
 21
253.1311903985331924
 31
0.0
  0
LINE
  5
23155
  8
0
 10
4585.1870126400281151
 20
253.1311903985331924
 30
0.0
 11
4590.3444563751281748
 21
253.1311903985331924
 31
0.0
  0
LINE
  5
23156
  8
0
 10
4590.3444563751281748
 20
253.1311903985331924
 30
0.0
 11
4590.3558406544088939
 21
253.1311903985331924
 31
0.0
  0
LINE
  5
23157
  8
0
 10
4590.3558406544088939
 20
253.1311903985331924
 30
0.0
 11
4591.6006684353778837
 21
253.1311903985331924
 31
0.0
  0
LINE
  5
23158
  8
0
 10
4584.9823609715276689
 20
253.1508754379331094
 30
0.0
 11
4585.1675457714291042
 21
253.1508754379331094
 31
0.0
  0
LINE
  5
23159
  8
0
 10
4585.1282157529403776
 20
253.1904094257332076
 30
0.0
 11
4585.0912300557056369
 21
253.1904094257332076
 31
0.0
  0
LINE
  5
2315A
  8
0
 10
4590.0539724524996927
 20
253.2052061585332012
 30
0.0
 11
4589.9467391453699747
 21
253.2052061585332012
 31
0.0
  0
LINE
  5
2315B
  8
0
 10
4584.9823609715276689
 20
253.2099305560332141
 30
0.0
 11
4575.4348487093975564
 21
253.2099305560332141
 31
0.0
  0
LINE
  5
2315C
  8
0
 10
4573.9509149436707958
 20
253.2099305560332141
 30
0.0
 11
4573.5323209167281675
 21
253.2099305560332141
 31
0.0
  0
LINE
  5
2315D
  8
0
 10
4584.9823609715276689
 20
253.2414266190332057
 30
0.0
 11
4575.4606188339394066
 21
253.2414266190332057
 31
0.0
  0
LINE
  5
2315E
  8
0
 10
4573.925805630636205
 20
253.2414266190332057
 30
0.0
 11
4573.3748296410276453
 21
253.2414266190332057
 31
0.0
  0
LINE
  5
2315F
  8
0
 10
4591.8378351796282004
 20
253.2414288537331117
 30
0.0
 11
4591.8243095462557903
 21
253.2414288537331117
 31
0.0
  0
LINE
  5
23160
  8
0
 10
4575.4529208125268269
 20
253.2493006347332027
 30
0.0
 11
4573.9336791133282532
 21
253.2493006347332027
 31
0.0
  0
LINE
  5
23161
  8
0
 10
4590.833981766028046
 20
253.2886706546331936
 30
0.0
 11
4591.9943692225779159
 21
253.2886707140332021
 31
0.0
  0
LINE
  5
23162
  8
0
 10
4575.4314030554278361
 20
253.2886707135332074
 30
0.0
 11
4573.9556288966268767
 21
253.2886707135332074
 31
0.0
  0
LINE
  5
23163
  8
0
 10
4574.0932948096269683
 20
253.3516628395331907
 30
0.0
 11
4575.2880576843281233
 21
253.3516628395331907
 31
0.0
  0
LINE
  5
23164
  8
0
 10
4590.7763107882283293
 20
253.3555998473331954
 30
0.0
 11
4590.6774668469279277
 21
253.3555998473331954
 31
0.0
  0
LINE
  5
23165
  8
0
 10
4590.729781440428269
 20
253.3595368552331877
 30
0.0
 11
4590.8339817953283273
 21
253.3595368552331877
 31
0.0
  0
LINE
  5
23166
  8
0
 10
4590.729781440428269
 20
253.3713478788332054
 30
0.0
 11
4590.8339818002114043
 21
253.3713478788332054
 31
0.0
  0
LINE
  5
23167
  8
0
 10
4575.2880576843281233
 20
253.3831589025332107
 30
0.0
 11
4574.0932948096269683
 21
253.3831589025332107
 31
0.0
  0
LINE
  5
23168
  8
0
 10
4584.8564608736278387
 20
253.387095910333187
 30
0.0
 11
4590.6902211632977924
 21
253.387095910333187
 31
0.0
  0
LINE
  5
23169
  8
0
 10
4584.6798392192858955
 20
253.4461510284332064
 30
0.0
 11
4571.685278520328211
 21
253.4461510284332064
 31
0.0
  0
LINE
  5
2316A
  8
0
 10
4590.6882406992717733
 20
253.5170171702332027
 30
0.0
 11
4591.9943692223268954
 21
253.5170171702332027
 31
0.0
  0
LINE
  5
2316B
  8
0
 10
4587.1020042866275617
 20
253.544576225333202
 30
0.0
 11
4588.509587887428097
 21
253.544576225333202
 31
0.0
  0
LINE
  5
2316C
  8
0
 10
4592.0565420530283518
 20
253.5445761925332135
 30
0.0
 11
4590.6878206008423149
 21
253.544576225333202
 31
0.0
  0
LINE
  5
2316D
  8
0
 10
4587.8637500335280492
 20
253.7414266190332057
 30
0.0
 11
4587.0457464024284491
 21
253.7414266190332057
 31
0.0
  0
LINE
  5
2316E
  8
0
 10
4592.0565420530283518
 20
253.7500051251332138
 30
0.0
 11
4591.9938433942270422
 21
253.7500051250331978
 31
0.0
  0
LINE
  5
2316F
  8
0
 10
4590.1435290116278338
 20
253.7807966977331944
 30
0.0
 11
4590.1928112200275791
 21
253.7807966977331944
 31
0.0
  0
LINE
  5
23170
  8
0
 10
4588.8937106941275488
 20
253.5443941048332022
 30
0.0
 11
4589.7622272628268547
 21
253.5444585052331945
 31
0.0
  0
LINE
  5
23171
  8
0
 10
4580.4331338053270883
 20
254.2648771028331964
 30
0.0
 11
4580.4331134046278748
 21
254.2648765642331909
 31
0.0
  0
LINE
  5
23172
  8
0
 10
4576.9400945120269171
 20
254.2760637689331986
 30
0.0
 11
4571.9070582727517831
 21
254.2401758703327062
 31
0.0
  0
LINE
  5
23173
  8
0
 10
4587.6128893805280313
 20
253.820166776533199
 30
0.0
 11
4587.6351072245270188
 21
253.820166776533199
 31
0.0
  0
LINE
  5
23174
  8
0
 10
4589.5937737263293457
 20
253.8456338389331961
 30
0.0
 11
4589.5493795793281606
 21
253.8456312121332132
 31
0.0
  0
LINE
  5
23175
  8
0
 10
4589.5382810426281139
 20
253.8456305554331891
 30
0.0
 11
4589.4938868956278384
 21
253.8456279285331902
 31
0.0
  0
LINE
  5
23176
  8
0
 10
4589.4827883589268822
 20
253.8456272718331093
 30
0.0
 11
4589.4383942119284256
 21
253.8456246450332117
 31
0.0
  0
LINE
  5
23177
  8
0
 10
4589.427295675228379
 20
253.8456239883331875
 30
0.0
 11
4589.3829015282271939
 21
253.8456213614331887
 31
0.0
  0
LINE
  5
23178
  8
0
 10
4589.3718029915280567
 20
253.845620704733193
 30
0.0
 11
4589.3274088445268717
 21
253.8456180779332101
 31
0.0
  0
LINE
  5
23179
  8
0
 10
4589.3163103078277345
 20
253.845617421233186
 30
0.0
 11
4589.2719161608283684
 21
253.8456147943331871
 31
0.0
  0
LINE
  5
2317A
  8
0
 10
4589.2608176241283218
 20
253.8456141376331914
 30
0.0
 11
4589.2164234771280462
 21
253.8456115108332085
 31
0.0
  0
LINE
  5
2317B
  8
0
 10
4589.2053249404279995
 20
253.8456108541332128
 30
0.0
 11
4589.160930793427724
 21
253.8456082272332139
 31
0.0
  0
LINE
  5
2317C
  8
0
 10
4589.1498322567276773
 20
253.8456075705331898
 30
0.0
 11
4589.1054381097283112
 21
253.8456049437332069
 31
0.0
  0
LINE
  5
2317D
  8
0
 10
4589.0943395730282646
 20
253.8456042870332112
 30
0.0
 11
4589.049945426027989
 21
253.8456016602330862
 31
0.0
  0
LINE
  5
2317E
  8
0
 10
4589.0388468893270328
 20
253.8456010034331882
 30
0.0
 11
4588.9944527423285763
 21
253.8455983766332054
 31
0.0
  0
LINE
  5
2317F
  8
0
 10
4588.9833542056294391
 20
253.8455977199332096
 30
0.0
 11
4588.9796368897268621
 21
253.8455974999332057
 31
0.0
  0
LINE
  5
23180
  8
0
 10
4588.2950192714279183
 20
253.861505359233206
 30
0.0
 11
4588.2653954795277969
 21
253.861505359233206
 31
0.0
  0
LINE
  5
23181
  8
0
 10
4588.9790587882280306
 20
253.8928415602331938
 30
0.0
 11
4588.9833523708275607
 21
253.8928418143331953
 31
0.0
  0
LINE
  5
23182
  8
0
 10
4588.9944509075276073
 20
253.892842471033191
 30
0.0
 11
4589.0388450545278829
 21
253.8928450978332023
 31
0.0
  0
LINE
  5
23183
  8
0
 10
4589.0499435912279296
 20
253.892845754533198
 30
0.0
 11
4589.0943377382282051
 21
253.8928483814331969
 31
0.0
  0
LINE
  5
23184
  8
0
 10
4589.1054362749282518
 20
253.8928490381331926
 30
0.0
 11
4589.1498304219276179
 21
253.8928516649332039
 31
0.0
  0
LINE
  5
23185
  8
0
 10
4589.1609289586276645
 20
253.8928523216331996
 30
0.0
 11
4589.2053231056279401
 21
253.8928549485331985
 31
0.0
  0
LINE
  5
23186
  8
0
 10
4589.2164216423279868
 20
253.8928556052331942
 30
0.0
 11
4589.2608157893282623
 21
253.8928582320332055
 31
0.0
  0
LINE
  5
23187
  8
0
 10
4589.2719143260292185
 20
253.8928588887332012
 30
0.0
 11
4589.3163084730267656
 21
253.8928615156332
 31
0.0
  0
LINE
  5
23188
  8
0
 10
4589.3274070097277217
 20
253.8928621723331958
 30
0.0
 11
4589.3718011567279973
 21
253.892864799133207
 31
0.0
  0
LINE
  5
23189
  8
0
 10
4589.382899693428044
 20
253.8928654558332028
 30
0.0
 11
4589.427293840429229
 21
253.8928680827332016
 31
0.0
  0
LINE
  5
2318A
  8
0
 10
4589.4383923771283662
 20
253.8928687394331973
 30
0.0
 11
4589.4827865241268228
 21
253.8928713662332086
 31
0.0
  0
LINE
  5
2318B
  8
0
 10
4589.4938850608277789
 20
253.8928720229332043
 30
0.0
 11
4589.5382792078280545
 21
253.8928746497331872
 31
0.0
  0
LINE
  5
2318C
  8
0
 10
4589.5493777445271917
 20
253.8928753065331989
 30
0.0
 11
4589.5937718915283767
 21
253.8928779333332102
 31
0.0
  0
LINE
  5
2318D
  8
0
 10
4589.5937714328283619
 20
253.9046889569331995
 30
0.0
 11
4589.5493772858280863
 21
253.9046863301331882
 31
0.0
  0
LINE
  5
2318E
  8
0
 10
4589.5382787491271301
 20
253.9046856733332049
 30
0.0
 11
4589.4938846021268546
 21
253.9046830465331936
 31
0.0
  0
LINE
  5
2318F
  8
0
 10
4589.4827860654277174
 20
253.9046823898331979
 30
0.0
 11
4589.4383919184283513
 21
253.9046797630331866
 31
0.0
  0
LINE
  5
23190
  8
0
 10
4589.4272933817283047
 20
253.9046791062332034
 30
0.0
 11
4589.3828992347280291
 21
253.9046764794331921
 31
0.0
  0
LINE
  5
23191
  8
0
 10
4589.3718006980270729
 20
253.9046758227331964
 30
0.0
 11
4589.3274065510267974
 21
253.9046731959332135
 31
0.0
  0
LINE
  5
23192
  8
0
 10
4589.3163080143267507
 20
253.9046725392331894
 30
0.0
 11
4589.2719138673282941
 21
253.9046699123331905
 31
0.0
  0
LINE
  5
23193
  8
0
 10
4589.2608153306282475
 20
253.9046692556331948
 30
0.0
 11
4589.2164211836270624
 21
253.9046666288332119
 31
0.0
  0
LINE
  5
23194
  8
0
 10
4589.2053226469279252
 20
253.9046659721331878
 30
0.0
 11
4589.1609284999276497
 21
253.9046633452331889
 31
0.0
  0
LINE
  5
23195
  8
0
 10
4589.149829963227603
 20
253.9046626885331932
 30
0.0
 11
4589.1054358162282369
 21
253.9046600617332103
 31
0.0
  0
LINE
  5
23196
  8
0
 10
4589.0943372795281903
 20
253.9046594050331862
 30
0.0
 11
4589.0499431325279147
 21
253.9046567781331873
 31
0.0
  0
LINE
  5
23197
  8
0
 10
4589.038844595827868
 20
253.9046561214331916
 30
0.0
 11
4588.9944504488275925
 21
253.9046534946332088
 31
0.0
  0
LINE
  5
23198
  8
0
 10
4588.9833519121275458
 20
253.904652837933213
 30
0.0
 11
4588.9789141672281403
 21
253.9046525753331878
 31
0.0
  0
LINE
  5
23199
  8
0
 10
4587.0409801474279448
 20
253.9382770127332094
 30
0.0
 11
4587.8602109002267753
 21
253.9382770127332094
 31
0.0
  0
LINE
  5
2319A
  8
0
 10
4591.9953242093270092
 20
253.9382743423331874
 30
0.0
 11
4592.0565420530283518
 21
253.9382770127332094
 31
0.0
  0
LINE
  5
2319B
  8
0
 10
4588.2653954794268429
 20
254.0465447292332044
 30
0.0
 11
4588.2950192714279183
 21
254.0465447292332044
 31
0.0
  0
LINE
  5
2319C
  8
0
 10
4588.9770551256269755
 20
254.0562126578332141
 30
0.0
 11
4589.6723512918269989
 21
254.0562669682331887
 31
0.0
  0
LINE
  5
2319D
  8
0
 10
4589.1458075072278007
 20
254.0562279534331935
 30
0.0
 11
4589.3252366874276049
 21
254.0562352563331956
 31
0.0
  0
LINE
  5
2319E
  8
0
 10
4588.976885587828292
 20
254.0700067860331899
 30
0.0
 11
4588.9833454904282917
 21
254.0700071682331895
 31
0.0
  0
LINE
  5
2319F
  8
0
 10
4588.9944440271283383
 20
254.0700078249332137
 30
0.0
 11
4589.0388381741267949
 21
254.0700104517331965
 31
0.0
  0
LINE
  5
231A0
  8
0
 10
4589.0499367108277511
 20
254.0700111085332082
 30
0.0
 11
4589.0943308578280266
 21
254.0700137353331911
 31
0.0
  0
LINE
  5
231A1
  8
0
 10
4589.1054293945271638
 20
254.0700143920331868
 30
0.0
 11
4589.1498235415283489
 21
254.0700170188331981
 31
0.0
  0
LINE
  5
231A2
  8
0
 10
4589.1609220782283955
 20
254.0700176755331938
 30
0.0
 11
4589.2053162252268521
 21
254.0700203024331927
 31
0.0
  0
LINE
  5
231A3
  8
0
 10
4589.2164147619268988
 20
254.0700209591331884
 30
0.0
 11
4589.2608089089271743
 21
254.0700235859331997
 31
0.0
  0
LINE
  5
231A4
  8
0
 10
4589.2719074456281305
 20
254.0700242426331954
 30
0.0
 11
4589.3163015926284061
 21
254.0700268695331943
 31
0.0
  0
LINE
  5
231A5
  8
0
 10
4589.3274001293284527
 20
254.07002752623319
 30
0.0
 11
4589.3717942763278188
 21
254.0700301530332013
 31
0.0
  0
LINE
  5
231A6
  8
0
 10
4589.3828928130278655
 20
254.070030809733197
 30
0.0
 11
4589.4272869600272315
 21
254.0700334366331958
 31
0.0
  0
LINE
  5
231A7
  8
0
 10
4589.4383854967281877
 20
254.0700340933331915
 30
0.0
 11
4589.4827796437275538
 21
254.0700367201332028
 31
0.0
  0
LINE
  5
231A8
  8
0
 10
4589.4938781804276005
 20
254.0700373768331986
 30
0.0
 11
4589.538272327427876
 21
254.0700400037331974
 31
0.0
  0
LINE
  5
231A9
  8
0
 10
4589.5493708641279227
 20
254.0700406604331931
 30
0.0
 11
4589.5937650111281982
 21
254.0700432872332044
 31
0.0
  0
LINE
  5
231AA
  8
0
 10
4589.5937645524281834
 20
254.0818543108331937
 30
0.0
 11
4589.5493704054269983
 21
254.0818516840332109
 31
0.0
  0
LINE
  5
231AB
  8
0
 10
4589.5382718687278611
 20
254.0818510273331867
 30
0.0
 11
4589.4938777217275856
 21
254.0818484004331879
 31
0.0
  0
LINE
  5
231AC
  8
0
 10
4589.4827791850284484
 20
254.0818477437331921
 30
0.0
 11
4589.4383850380281729
 21
254.0818451169332093
 31
0.0
  0
LINE
  5
231AD
  8
0
 10
4589.4272865013290357
 20
254.0818444602332136
 30
0.0
 11
4589.3828923543278506
 21
254.0818418333331863
 31
0.0
  0
LINE
  5
231AE
  8
0
 10
4589.3717938176278039
 20
254.0818411766331906
 30
0.0
 11
4589.3273996706284379
 21
254.0818385498332077
 31
0.0
  0
LINE
  5
231AF
  8
0
 10
4589.3163011339283912
 20
254.081837893133212
 30
0.0
 11
4589.2719069869281157
 21
254.0818352662332131
 31
0.0
  0
LINE
  5
231B0
  8
0
 10
4589.2608084502271595
 20
254.081834609533189
 30
0.0
 11
4589.2164143032277934
 21
254.0818319827332061
 31
0.0
  0
LINE
  5
231B1
  8
0
 10
4589.2053157665277467
 20
254.0818313260332104
 30
0.0
 11
4589.1609216195283807
 21
254.0818286991332116
 31
0.0
  0
LINE
  5
231B2
  8
0
 10
4589.149823082828334
 20
254.0818280424331874
 30
0.0
 11
4589.1054289358280585
 21
254.0818254156332046
 31
0.0
  0
LINE
  5
231B3
  8
0
 10
4589.0943303991271023
 20
254.0818247589332088
 30
0.0
 11
4589.0499362521268267
 21
254.08182213203321
 31
0.0
  0
LINE
  5
231B4
  8
0
 10
4589.0388377154276895
 20
254.0818214753331858
 30
0.0
 11
4588.9944435684283235
 21
254.081818848533203
 31
0.0
  0
LINE
  5
231B5
  8
0
 10
4588.9833450317282768
 20
254.0818181918332073
 30
0.0
 11
4588.9767403883279258
 21
254.0818178010331962
 31
0.0
  0
LINE
  5
231B6
  8
0
 10
4588.9761592788281632
 20
254.1290618611332093
 30
0.0
 11
4588.9833431969282174
 21
254.1290622862331929
 31
0.0
  0
LINE
  5
231B7
  8
0
 10
4588.9944417336273546
 20
254.1290629429331887
 30
0.0
 11
4589.0388358806276301
 21
254.1290655697331999
 31
0.0
  0
LINE
  5
231B8
  8
0
 10
4589.0499344173267673
 20
254.1290662264331957
 30
0.0
 11
4589.0943285643270428
 21
254.1290688533331945
 31
0.0
  0
LINE
  5
231B9
  8
0
 10
4589.105427101027999
 20
254.1290695100331902
 30
0.0
 11
4589.1498212480282746
 21
254.1290721368332015
 31
0.0
  0
LINE
  5
231BA
  8
0
 10
4589.1609197847283212
 20
254.1290727935331972
 30
0.0
 11
4589.2053139317267778
 21
254.1290754204331961
 31
0.0
  0
LINE
  5
231BB
  8
0
 10
4589.2164124684268245
 20
254.1290760771331918
 30
0.0
 11
4589.2608066154280095
 21
254.1290787039332031
 31
0.0
  0
LINE
  5
231BC
  8
0
 10
4589.2719051521280562
 20
254.1290793606331988
 30
0.0
 11
4589.3162992991283318
 21
254.1290819875331977
 31
0.0
  0
LINE
  5
231BD
  8
0
 10
4589.3273978358292879
 20
254.1290826442331934
 30
0.0
 11
4589.371791982826835
 21
254.1290852710332047
 31
0.0
  0
LINE
  5
231BE
  8
0
 10
4589.3828905195268817
 20
254.1290859277332004
 30
0.0
 11
4589.4272846665280667
 21
254.1290885545332117
 31
0.0
  0
LINE
  5
231BF
  8
0
 10
4589.4383832032281134
 20
254.129089211333195
 30
0.0
 11
4589.482777350228389
 21
254.1290918381332062
 31
0.0
  0
LINE
  5
231C0
  8
0
 10
4589.4938758869293451
 20
254.129092494833202
 30
0.0
 11
4589.5382700339268922
 21
254.1290951216332132
 31
0.0
  0
LINE
  5
231C1
  8
0
 10
4589.5493685706278484
 20
254.1290957784331965
 30
0.0
 11
4589.5937627176281239
 21
254.1290984052332078
 31
0.0
  0
LINE
  5
231C2
  8
0
 10
4589.6159542103268905
 20
254.2727992106331953
 30
0.0
 11
4589.6704008160277226
 21
254.2728026235332095
 31
0.0
  0
LINE
  5
231C3
  8
0
 10
4588.9739744193284423
 20
254.3062270861331911
 30
0.0
 11
4588.9833363165280389
 21
254.3062276401331872
 31
0.0
  0
LINE
  5
231C4
  8
0
 10
4588.9944348532280856
 20
254.3062282968332113
 30
0.0
 11
4589.0388290002283611
 21
254.3062309236331942
 31
0.0
  0
LINE
  5
231C5
  8
0
 10
4589.0499275369293173
 20
254.3062315803331899
 30
0.0
 11
4589.0943216839268644
 21
254.3062342072331887
 31
0.0
  0
LINE
  5
231C6
  8
0
 10
4589.1054202206278205
 20
254.3062348639332129
 30
0.0
 11
4589.1498143676280961
 21
254.3062374907331957
 31
0.0
  0
LINE
  5
231C7
  8
0
 10
4589.1609129043281428
 20
254.3062381474331914
 30
0.0
 11
4589.2053070513293278
 21
254.3062407743331903
 31
0.0
  0
LINE
  5
231C8
  8
0
 10
4589.2164055880275555
 20
254.306241431033186
 30
0.0
 11
4589.260799735027831
 21
254.306244057833112
 31
0.0
  0
LINE
  5
231C9
  8
0
 10
4589.2718982717278777
 20
254.306244714533193
 30
0.0
 11
4589.3162924187281533
 21
254.3062473414331919
 31
0.0
  0
LINE
  5
231CA
  8
0
 10
4589.3273909554272905
 20
254.3062479981331876
 30
0.0
 11
4589.371785102427566
 21
254.3062506249331989
 31
0.0
  0
LINE
  5
231CB
  8
0
 10
4589.3828836391276127
 20
254.3062512816331946
 30
0.0
 11
4589.4272777861278882
 21
254.3062539085331935
 31
0.0
  0
LINE
  5
231CC
  8
0
 10
4589.4383763228279349
 20
254.3062545652331892
 30
0.0
 11
4589.482770469827301
 21
254.3062571920332005
 31
0.0
  0
LINE
  5
231CD
  8
0
 10
4589.4938690065282572
 20
254.3062578487331962
 30
0.0
 11
4589.5382631535276232
 21
254.306260475633195
 31
0.0
  0
LINE
  5
231CE
  8
0
 10
4589.5493616902267604
 20
254.3062611323331907
 30
0.0
 11
4589.5937558372279454
 21
254.306263759133202
 31
0.0
  0
LINE
  5
231CF
  8
0
 10
4589.5937553785279306
 20
254.3180747827331913
 30
0.0
 11
4589.549361231527655
 21
254.3180721559332085
 31
0.0
  0
LINE
  5
231D0
  8
0
 10
4589.5382626948276084
 20
254.3180714992332128
 30
0.0
 11
4589.4938685478282423
 21
254.3180688723332139
 31
0.0
  0
LINE
  5
231D1
  8
0
 10
4589.4827700111281956
 20
254.3180682156331898
 30
0.0
 11
4589.4383758641279201
 21
254.3180655888332069
 31
0.0
  0
LINE
  5
231D2
  8
0
 10
4589.4272773274278734
 20
254.3180649321332112
 30
0.0
 11
4589.3828831804275978
 21
254.3180623052332123
 31
0.0
  0
LINE
  5
231D3
  8
0
 10
4589.3717846437275512
 20
254.3180616485331882
 30
0.0
 11
4589.3273904967281851
 21
254.3180590217332053
 31
0.0
  0
LINE
  5
231D4
  8
0
 10
4589.3162919600272289
 20
254.3180583650332096
 30
0.0
 11
4589.2718978130278629
 21
254.3180557381332108
 31
0.0
  0
LINE
  5
231D5
  8
0
 10
4589.2607992763278162
 20
254.3180550814331866
 30
0.0
 11
4589.2164051293284501
 21
254.3180524546332038
 31
0.0
  0
LINE
  5
231D6
  8
0
 10
4589.2053065926284035
 20
254.318051797933208
 30
0.0
 11
4589.1609124456281279
 21
254.3180491710332092
 31
0.0
  0
LINE
  5
231D7
  8
0
 10
4589.1498139089271717
 20
254.3180485143332135
 30
0.0
 11
4589.1054197619268962
 21
254.3180458875332022
 31
0.0
  0
LINE
  5
231D8
  8
0
 10
4589.0943212252268495
 20
254.3180452308332065
 30
0.0
 11
4589.0499270782283929
 21
254.3180426039332076
 31
0.0
  0
LINE
  5
231D9
  8
0
 10
4589.0388285415283462
 20
254.3180419472332119
 30
0.0
 11
4588.9944343945271612
 21
254.3180393204332006
 31
0.0
  0
LINE
  5
231DA
  8
0
 10
4588.983335857828024
 20
254.3180386637332049
 30
0.0
 11
4588.9738284772283805
 21
254.3180381011331974
 31
0.0
  0
LINE
  5
231DB
  8
0
 10
4588.1198461877283989
 20
254.4678045878332
 30
0.0
 11
4588.1077784273256839
 21
254.4678045715969006
 31
0.0
  0
LINE
  5
231DC
  8
0
 10
4589.5937484981277521
 20
254.495240136633214
 30
0.0
 11
4589.549354351128386
 21
254.4952375098332027
 31
0.0
  0
LINE
  5
231DD
  8
0
 10
4589.5382558144283394
 20
254.495236853133207
 30
0.0
 11
4589.4938616674280638
 21
254.4952342262332081
 31
0.0
  0
LINE
  5
231DE
  8
0
 10
4589.4827631307271076
 20
254.4952335695332124
 30
0.0
 11
4589.4383689837268321
 21
254.4952309427332011
 31
0.0
  0
LINE
  5
231DF
  8
0
 10
4589.4272704470276949
 20
254.4952302860332054
 30
0.0
 11
4589.3828763000283288
 21
254.4952276591332065
 31
0.0
  0
LINE
  5
231E0
  8
0
 10
4589.3717777633282822
 20
254.4952270024332108
 30
0.0
 11
4589.3273836163270971
 21
254.4952243756331995
 31
0.0
  0
LINE
  5
231E1
  8
0
 10
4589.3162850796279599
 20
254.4952237189332038
 30
0.0
 11
4589.2718909326276844
 21
254.4952210921331925
 31
0.0
  0
LINE
  5
231E2
  8
0
 10
4589.2607923959276377
 20
254.4952204353332093
 30
0.0
 11
4589.2163982489282716
 21
254.495217808533198
 31
0.0
  0
LINE
  5
231E3
  8
0
 10
4589.2052997122291345
 20
254.4952171518332023
 30
0.0
 11
4589.1609055652279494
 21
254.495214525033191
 31
0.0
  0
LINE
  5
231E4
  8
0
 10
4589.1498070285279027
 20
254.4952138682332077
 30
0.0
 11
4589.1054128815276272
 21
254.4952112414331964
 31
0.0
  0
LINE
  5
231E5
  8
0
 10
4589.0943143448275805
 20
254.4952105847332007
 30
0.0
 11
4589.0499201978282144
 21
254.4952079579331894
 31
0.0
  0
LINE
  5
231E6
  8
0
 10
4589.0388216611281678
 20
254.4952073012331937
 30
0.0
 11
4588.9944275141278922
 21
254.4952046743331948
 31
0.0
  0
LINE
  5
231E7
  8
0
 10
4588.9833289774278455
 20
254.4952040176331991
 30
0.0
 11
4588.9716340095283158
 21
254.4952033256332129
 31
0.0
  0
LINE
  5
231E8
  8
0
 10
4588.9760382074282461
 20
254.1389017640331929
 30
0.0
 11
4588.9945142638280231
 21
254.1388850343332138
 31
0.0
  0
LINE
  5
231E9
  8
0
 10
4588.9774902867293349
 20
254.0207846451332045
 30
0.0
 11
4588.9945312410281986
 21
254.0207690991331901
 31
0.0
  0
LINE
  5
231EA
  8
0
 10
4588.9774902867293349
 20
254.0207846451332045
 30
0.0
 11
4588.9944437854283024
 21
254.020767014133213
 31
0.0
  0
LINE
  5
231EB
  8
0
 10
4589.0388378816269324
 20
254.0207208458332104
 30
0.0
 11
4589.049936405626795
 21
254.0207093038332005
 31
0.0
  0
LINE
  5
231EC
  8
0
 10
4589.0389963289280786
 20
254.0207246826331868
 30
0.0
 11
4589.0500752438283598
 21
254.0207126778331883
 31
0.0
  0
LINE
  5
231ED
  8
0
 10
4589.038833372526824
 20
254.1388386176332119
 30
0.0
 11
4589.0499318974270864
 21
254.1388274570331873
 31
0.0
  0
LINE
  5
231EE
  8
0
 10
4589.0389271192279921
 20
254.1388407368332025
 30
0.0
 11
4589.0499928387271211
 21
254.1388288189332059
 31
0.0
  0
LINE
  5
231EF
  8
0
 10
4589.0943254493276982
 20
254.1387748949331922
 30
0.0
 11
4589.1055487820276539
 21
254.138763682733213
 31
0.0
  0
LINE
  5
231F0
  8
0
 10
4589.0944144513268839
 20
254.020660493333196
 30
0.0
 11
4589.1055660091278696
 21
254.0206462948331989
 31
0.0
  0
LINE
  5
231F1
  8
0
 10
4589.094329782827117
 20
254.0206586382331864
 30
0.0
 11
4589.1054282976283503
 21
254.020643340433196
 31
0.0
  0
LINE
  5
231F2
  8
0
 10
4589.1495642555282757
 20
254.1387051890332032
 30
0.0
 11
4589.1609835801282316
 21
254.1386889126331994
 31
0.0
  0
LINE
  5
231F3
  8
0
 10
4589.1498223566277375
 20
254.0205821494332099
 30
0.0
 11
4589.1610717987268799
 21
254.0205697547332022
 31
0.0
  0
LINE
  5
231F4
  8
0
 10
4589.2053141987280469
 20
254.0205000249331988
 30
0.0
 11
4589.2165966018283143
 21
254.0204846306332058
 31
0.0
  0
LINE
  5
231F5
  8
0
 10
4589.2608067171277071
 20
254.0204058886332064
 30
0.0
 11
4589.2719052208285575
 21
254.0203870613331958
 31
0.0
  0
LINE
  5
231F6
  8
0
 10
4589.2610250147281477
 20
254.0204101531332128
 30
0.0
 11
4589.2720830037269479
 21
254.020390571733202
 31
0.0
  0
LINE
  5
231F7
  8
0
 10
4589.205309921027947
 20
254.1386179039332092
 30
0.0
 11
4589.2165373585276029
 21
254.1386032119332015
 31
0.0
  0
LINE
  5
231F8
  8
0
 10
4589.2609296963291854
 20
254.13852724513319
 30
0.0
 11
4589.2720765672293055
 21
254.1385071753331886
 31
0.0
  0
LINE
  5
231F9
  8
0
 10
4589.2608017199281676
 20
254.1385251212331866
 30
0.0
 11
4589.2719002163275945
 21
254.1385042967332026
 31
0.0
  0
LINE
  5
231FA
  8
0
 10
4589.3162942021281197
 20
254.1384209986331939
 30
0.0
 11
4589.3273926985275466
 21
254.1384001741332099
 31
0.0
  0
LINE
  5
231FB
  8
0
 10
4589.3164627861278859
 20
254.1384235701331988
 30
0.0
 11
4589.3275076638283281
 21
254.1384018976332015
 31
0.0
  0
LINE
  5
231FC
  8
0
 10
4589.3164274006276173
 20
254.0203072495332037
 30
0.0
 11
4589.3275782193277337
 21
254.0202850730331932
 31
0.0
  0
LINE
  5
231FD
  8
0
 10
4589.3162982881267453
 20
254.020304930233209
 30
0.0
 11
4589.3273967757277205
 21
254.0202819109331926
 31
0.0
  0
LINE
  5
231FE
  8
0
 10
4589.3717907262280278
 20
254.0201898339331876
 30
0.0
 11
4589.3830157970278378
 21
254.0201686886331913
 31
0.0
  0
LINE
  5
231FF
  8
0
 10
4589.3717858470281499
 20
254.1383078875331876
 30
0.0
 11
4589.383140559628373
 21
254.1382877409332082
 31
0.0
  0
LINE
  5
23200
  8
0
 10
4589.427278256527643
 20
254.1381861759332139
 30
0.0
 11
4589.4383767384269959
 21
254.1381618336332053
 31
0.0
  0
LINE
  5
23201
  8
0
 10
4589.4274946062278104
 20
254.1381898908331891
 30
0.0
 11
4589.4385270997281623
 21
254.138164444833194
 31
0.0
  0
LINE
  5
23202
  8
0
 10
4589.4272823673281891
 20
254.0200669306331918
 30
0.0
 11
4589.4385869301268031
 21
254.0200438942331971
 31
0.0
  0
LINE
  5
23203
  8
0
 10
4587.8971106271283134
 20
253.9874910358331874
 30
0.0
 11
4587.8974786288281393
 21
253.9874896111332134
 31
0.0
  0
LINE
  5
23204
  8
0
 10
4588.9710472325277806
 20
254.5424473854332064
 30
0.0
 11
4588.9833271426268766
 21
254.5424481120332132
 31
0.0
  0
LINE
  5
23205
  8
0
 10
4588.9944256793269233
 20
254.5424487687332089
 30
0.0
 11
4589.0388198263281083
 21
254.5424513955331918
 31
0.0
  0
LINE
  5
23206
  8
0
 10
4589.049918363028155
 20
254.5424520522331875
 30
0.0
 11
4589.0943125100284306
 21
254.5424546791331863
 31
0.0
  0
LINE
  5
23207
  8
0
 10
4589.1054110467293867
 20
254.5424553358332105
 30
0.0
 11
4589.1498051937269338
 21
254.5424579626331933
 31
0.0
  0
LINE
  5
23208
  8
0
 10
4589.1609037304269805
 20
254.5424586193331891
 30
0.0
 11
4589.2052978774281655
 21
254.5424612462331879
 31
0.0
  0
LINE
  5
23209
  8
0
 10
4589.2163964141282122
 20
254.5424619029332121
 30
0.0
 11
4589.2607905611275783
 21
254.5424645297331949
 31
0.0
  0
LINE
  5
2320A
  8
0
 10
4589.2718890978294439
 20
254.5424651864331906
 30
0.0
 11
4589.3162832448279005
 21
254.5424678133331895
 31
0.0
  0
LINE
  5
2320B
  8
0
 10
4589.3273817815279472
 20
254.5424684700332136
 30
0.0
 11
4589.3717759285282227
 21
254.5424710968331965
 31
0.0
  0
LINE
  5
2320C
  8
0
 10
4589.3828744652282694
 20
254.5424717535331922
 30
0.0
 11
4589.4272686122294544
 21
254.5424743804331911
 31
0.0
  0
LINE
  5
2320D
  8
0
 10
4589.4383671489276821
 20
254.5424750371331868
 30
0.0
 11
4589.4827612959279577
 21
254.5424776639331981
 31
0.0
  0
LINE
  5
2320E
  8
0
 10
4589.4938598326280044
 20
254.5424783206331938
 30
0.0
 11
4589.5382539796282799
 21
254.5424809475331926
 31
0.0
  0
LINE
  5
2320F
  8
0
 10
4589.5493525163283266
 20
254.5424816042331884
 30
0.0
 11
4589.5937466633276927
 21
254.5424842310331996
 31
0.0
  0
LINE
  5
23210
  8
0
 10
4589.5937462046267683
 20
254.554295254633189
 30
0.0
 11
4589.5493520576283117
 21
254.5542926278332061
 31
0.0
  0
LINE
  5
23211
  8
0
 10
4589.5382535209282651
 20
254.5542919711332104
 30
0.0
 11
4589.4938593739279895
 21
254.5542893442332115
 31
0.0
  0
LINE
  5
23212
  8
0
 10
4589.4827608372279428
 20
254.5542886875331874
 30
0.0
 11
4589.4383666902276673
 21
254.5542860607332045
 31
0.0
  0
LINE
  5
23213
  8
0
 10
4589.4272681535276206
 20
254.5542854040332088
 30
0.0
 11
4589.3828740065282545
 21
254.5542827771332099
 31
0.0
  0
LINE
  5
23214
  8
0
 10
4589.3717754698272984
 20
254.5542821204331858
 30
0.0
 11
4589.3273813228279323
 21
254.5542794936332029
 31
0.0
  0
LINE
  5
23215
  8
0
 10
4589.3162827861278856
 20
254.5542788369332072
 30
0.0
 11
4589.2718886391276101
 21
254.5542762100332084
 31
0.0
  0
LINE
  5
23216
  8
0
 10
4589.2607901024275634
 20
254.5542755533332127
 30
0.0
 11
4589.2163959554272878
 21
254.5542729265332014
 31
0.0
  0
LINE
  5
23217
  8
0
 10
4589.2052974187281507
 20
254.5542722698332057
 30
0.0
 11
4589.1609032717278751
 21
254.5542696429332068
 31
0.0
  0
LINE
  5
23218
  8
0
 10
4589.1498047350278284
 20
254.5542689862332111
 30
0.0
 11
4589.1054105880275529
 21
254.5542663594331998
 31
0.0
  0
LINE
  5
23219
  8
0
 10
4589.0943120513293252
 20
254.5542657027332041
 30
0.0
 11
4589.0499179043281401
 21
254.5542630758332052
 31
0.0
  0
LINE
  5
2321A
  8
0
 10
4589.0388193676280935
 20
254.5542624191332095
 30
0.0
 11
4588.9944252206278179
 21
254.5542597923331982
 31
0.0
  0
LINE
  5
2321B
  8
0
 10
4588.9833266839268617
 20
254.5542591356332025
 30
0.0
 11
4588.970900432426788
 21
254.5542584003331967
 31
0.0
  0
LINE
  5
2321C
  8
0
 10
4588.9688409455284273
 20
254.7196126092331951
 30
0.0
 11
4588.9833202622276076
 21
254.7196134659332074
 31
0.0
  0
LINE
  5
2321D
  8
0
 10
4588.9944187989276543
 20
254.7196141226332031
 30
0.0
 11
4589.0388129459279298
 21
254.719616749533202
 31
0.0
  0
LINE
  5
2321E
  8
0
 10
4589.0499114826279765
 20
254.7196174062331977
 30
0.0
 11
4589.0943056296282521
 21
254.719620033033209
 31
0.0
  0
LINE
  5
2321F
  8
0
 10
4589.1054041663273892
 20
254.7196206897332047
 30
0.0
 11
4589.1497983133276648
 21
254.7196233165331876
 31
0.0
  0
LINE
  5
23220
  8
0
 10
4589.160896850026802
 20
254.7196239733331993
 30
0.0
 11
4589.205290997027987
 21
254.7196266001332106
 31
0.0
  0
LINE
  5
23221
  8
0
 10
4589.2163895337280337
 20
254.7196272568332063
 30
0.0
 11
4589.2607836807283093
 21
254.7196298836331891
 31
0.0
  0
LINE
  5
23222
  8
0
 10
4589.2718822174283559
 20
254.7196305404332008
 30
0.0
 11
4589.3162763644268125
 21
254.7196331672332121
 31
0.0
  0
LINE
  5
23223
  8
0
 10
4589.3273749011268592
 20
254.7196338239332079
 30
0.0
 11
4589.3717690481280442
 21
254.7196364507331907
 31
0.0
  0
LINE
  5
23224
  8
0
 10
4589.3828675848280909
 20
254.7196371074331864
 30
0.0
 11
4589.4272617318283665
 21
254.7196397343332137
 31
0.0
  0
LINE
  5
23225
  8
0
 10
4589.4383602685293226
 20
254.7196403910332094
 30
0.0
 11
4589.4827544155268697
 21
254.7196430178331923
 31
0.0
  0
LINE
  5
23226
  8
0
 10
4589.4938529522278259
 20
254.719643674533188
 30
0.0
 11
4589.5382470992281014
 21
254.7196463014331869
 31
0.0
  0
LINE
  5
23227
  8
0
 10
4589.5493456359281481
 20
254.719646958133211
 30
0.0
 11
4589.5937397829284237
 21
254.7196495849331939
 31
0.0
  0
LINE
  5
23228
  8
0
 10
4589.5937393242284088
 20
254.7314606085332116
 30
0.0
 11
4589.5493451772281333
 21
254.7314579817332003
 31
0.0
  0
LINE
  5
23229
  8
0
 10
4589.5382466405280866
 20
254.7314573250332046
 30
0.0
 11
4589.493852493527811
 21
254.7314546981332057
 31
0.0
  0
LINE
  5
2322A
  8
0
 10
4589.4827539568268548
 20
254.73145404143321
 30
0.0
 11
4589.4383598098283983
 21
254.7314514146331987
 31
0.0
  0
LINE
  5
2322B
  8
0
 10
4589.4272612731292611
 20
254.731450757933203
 30
0.0
 11
4589.3828671261280761
 21
254.7314481310332042
 31
0.0
  0
LINE
  5
2322C
  8
0
 10
4589.3717685894280294
 20
254.7314474743332084
 30
0.0
 11
4589.3273744424277538
 21
254.7314448475331972
 31
0.0
  0
LINE
  5
2322D
  8
0
 10
4589.3162759057267976
 20
254.7314441908332014
 30
0.0
 11
4589.2718817587292506
 21
254.7314415639332026
 31
0.0
  0
LINE
  5
2322E
  8
0
 10
4589.2607832220282944
 20
254.7314409072332069
 30
0.0
 11
4589.2163890750280189
 21
254.7314382804331956
 31
0.0
  0
LINE
  5
2322F
  8
0
 10
4589.2052905383279722
 20
254.7314376237331999
 30
0.0
 11
4589.1608963913267871
 21
254.7314349969331886
 31
0.0
  0
LINE
  5
23230
  8
0
 10
4589.1497978546276499
 20
254.7314343401332053
 30
0.0
 11
4589.1054037076282839
 21
254.731431713333194
 31
0.0
  0
LINE
  5
23231
  8
0
 10
4589.0943051709282372
 20
254.7314310566331983
 30
0.0
 11
4589.0499110239279617
 21
254.731428429833187
 31
0.0
  0
LINE
  5
23232
  8
0
 10
4589.038812487227915
 20
254.7314277730332037
 30
0.0
 11
4588.9944183402276394
 21
254.7314251462331924
 31
0.0
  0
LINE
  5
23233
  8
0
 10
4588.9833198035275927
 20
254.7314244895331967
 30
0.0
 11
4588.9686935055278809
 21
254.7314236240331979
 31
0.0
  0
LINE
  5
23234
  8
0
 10
4588.9681033982278677
 20
254.7786676836331878
 30
0.0
 11
4588.9833179687284428
 21
254.7786685839332108
 31
0.0
  0
LINE
  5
23235
  8
0
 10
4588.99441650542758
 20
254.7786692406332065
 30
0.0
 11
4589.0388106524278555
 21
254.7786718674331894
 31
0.0
  0
LINE
  5
23236
  8
0
 10
4589.0499091891269927
 20
254.7786725241332135
 30
0.0
 11
4589.0943033361281778
 21
254.7786751510332124
 31
0.0
  0
LINE
  5
23237
  8
0
 10
4589.1054018728282244
 20
254.7786758077332081
 30
0.0
 11
4589.1497960198275905
 21
254.778678434533191
 31
0.0
  0
LINE
  5
23238
  8
0
 10
4589.1608945565276372
 20
254.7786790912331867
 30
0.0
 11
4589.2052887035270032
 21
254.778681718133214
 31
0.0
  0
LINE
  5
23239
  8
0
 10
4589.2163872402270499
 20
254.7786823748332097
 30
0.0
 11
4589.260781387228235
 21
254.7786850016331925
 31
0.0
  0
LINE
  5
2323A
  8
0
 10
4589.2718799239282816
 20
254.7786856583331883
 30
0.0
 11
4589.3162740709276477
 21
254.7786882852331871
 31
0.0
  0
LINE
  5
2323B
  8
0
 10
4589.3273726076276944
 20
254.7786889419332113
 30
0.0
 11
4589.3717667546279699
 21
254.7786915687331941
 31
0.0
  0
LINE
  5
2323C
  8
0
 10
4589.3828652913271071
 20
254.7786922254331898
 30
0.0
 11
4589.4272594383282922
 21
254.7786948523331887
 31
0.0
  0
LINE
  5
2323D
  8
0
 10
4589.4383579750283388
 20
254.7786955090332128
 30
0.0
 11
4589.4827521220277049
 21
254.7786981358331957
 31
0.0
  0
LINE
  5
2323E
  8
0
 10
4589.4938506587277516
 20
254.7786987925331914
 30
0.0
 11
4589.5382448057280271
 21
254.7787014194331903
 31
0.0
  0
LINE
  5
2323F
  8
0
 10
4589.5493433424289833
 20
254.778702076133186
 30
0.0
 11
4589.5937374894283494
 21
254.7787047029331973
 31
0.0
  0
LINE
  5
23240
  8
0
 10
4588.9658841474292785
 20
254.9558329066331908
 30
0.0
 11
4588.9833110883282643
 21
254.955833937833205
 31
0.0
  0
LINE
  5
23241
  8
0
 10
4588.994409625028311
 20
254.9558345945332007
 30
0.0
 11
4589.0388037720267675
 21
254.955837221333212
 31
0.0
  0
LINE
  5
23242
  8
0
 10
4589.0499023087277237
 20
254.9558378781331953
 30
0.0
 11
4589.0942964557279993
 21
254.9558405049332066
 31
0.0
  0
LINE
  5
23243
  8
0
 10
4589.105394992428046
 20
254.9558411616332023
 30
0.0
 11
4589.149789139429231
 21
254.9558437884332136
 31
0.0
  0
LINE
  5
23244
  8
0
 10
4589.1608876761283682
 20
254.9558444452331969
 30
0.0
 11
4589.2052818231277342
 21
254.9558470720332082
 31
0.0
  0
LINE
  5
23245
  8
0
 10
4589.2163803598277809
 20
254.9558477287332039
 30
0.0
 11
4589.2607745068280565
 21
254.9558503555331868
 31
0.0
  0
LINE
  5
23246
  8
0
 10
4589.2718730435281032
 20
254.9558510122332109
 30
0.0
 11
4589.3162671905283787
 21
254.9558536391332098
 31
0.0
  0
LINE
  5
23247
  8
0
 10
4589.3273657272266064
 20
254.9558542958332055
 30
0.0
 11
4589.3717598742277914
 21
254.9558569226331883
 31
0.0
  0
LINE
  5
23248
  8
0
 10
4589.3828584109269286
 20
254.9558575793332125
 30
0.0
 11
4589.4272525579281137
 21
254.9558602062332113
 31
0.0
  0
LINE
  5
23249
  8
0
 10
4589.4383510946281604
 20
254.955860862933207
 30
0.0
 11
4589.4827452416284359
 21
254.9558634897331899
 31
0.0
  0
LINE
  5
2324A
  8
0
 10
4589.4938437783293921
 20
254.955864146433214
 30
0.0
 11
4589.5382379253269391
 21
254.9558667733332129
 31
0.0
  0
LINE
  5
2324B
  8
0
 10
4589.5493364620269858
 20
254.9558674300332086
 30
0.0
 11
4589.5937306090281709
 21
254.9558700568331915
 31
0.0
  0
LINE
  5
2324C
  8
0
 10
4589.593730150328156
 20
254.9676810804332092
 30
0.0
 11
4589.5493360033278805
 21
254.9676784536331979
 31
0.0
  0
LINE
  5
2324D
  8
0
 10
4589.5382374666269243
 20
254.9676777969332022
 30
0.0
 11
4589.4938433196293772
 21
254.9676751700332034
 31
0.0
  0
LINE
  5
2324E
  8
0
 10
4589.482744782928421
 20
254.9676745133332076
 30
0.0
 11
4589.4383506359281455
 21
254.9676718865331964
 31
0.0
  0
LINE
  5
2324F
  8
0
 10
4589.4272520992280988
 20
254.9676712298332006
 30
0.0
 11
4589.3828579522278233
 21
254.9676686029332018
 31
0.0
  0
LINE
  5
23250
  8
0
 10
4589.3717594155268671
 20
254.9676679462332061
 30
0.0
 11
4589.32736526852932
 21
254.9676653194331948
 31
0.0
  0
LINE
  5
23251
  8
0
 10
4589.3162667318283638
 20
254.9676646627331991
 30
0.0
 11
4589.2718725848280883
 21
254.9676620358332002
 31
0.0
  0
LINE
  5
23252
  8
0
 10
4589.2607740481280416
 20
254.9676613791332045
 30
0.0
 11
4589.2163799011268566
 21
254.9676587523331932
 31
0.0
  0
LINE
  5
23253
  8
0
 10
4589.2052813644268099
 20
254.9676580956331975
 30
0.0
 11
4589.1608872174283533
 21
254.9676554687331986
 31
0.0
  0
LINE
  5
23254
  8
0
 10
4589.1497886807283066
 20
254.9676548120332029
 30
0.0
 11
4589.1053945337280311
 21
254.9676521852331916
 31
0.0
  0
LINE
  5
23255
  8
0
 10
4589.0942959970279844
 20
254.9676515285331959
 30
0.0
 11
4589.0499018500267994
 21
254.9676489017332131
 31
0.0
  0
LINE
  5
23256
  8
0
 10
4589.0388033133276622
 20
254.9676482449332013
 30
0.0
 11
4588.9944091663273866
 21
254.9676456181331901
 31
0.0
  0
LINE
  5
23257
  8
0
 10
4588.9833106296282494
 20
254.9676449614331943
 30
0.0
 11
4588.9657358788281272
 21
254.9676439215332096
 31
0.0
  0
LINE
  5
23258
  8
0
 10
4588.4879429225293279
 20
255.0209541780332074
 30
0.0
 11
4587.0665926329284048
 21
255.0209541780332074
 31
0.0
  0
LINE
  5
23259
  8
0
 10
4589.5937232699279775
 20
255.1448464343332034
 30
0.0
 11
4589.5493291229267925
 21
255.1448438075331921
 31
0.0
  0
LINE
  5
2325A
  8
0
 10
4589.5382305862267458
 20
255.1448431508331964
 30
0.0
 11
4589.4938364392282892
 21
255.1448405240332136
 31
0.0
  0
LINE
  5
2325B
  8
0
 10
4589.4827379025273331
 20
255.1448398672332019
 30
0.0
 11
4589.438343755527967
 21
255.1448372404331906
 31
0.0
  0
LINE
  5
2325C
  8
0
 10
4589.4272452188279203
 20
255.1448365837331949
 30
0.0
 11
4589.3828510718276448
 21
255.144833956933212
 31
0.0
  0
LINE
  5
2325D
  8
0
 10
4589.3717525351275981
 20
255.1448333001332003
 30
0.0
 11
4589.3273583881273225
 21
255.144830673333189
 31
0.0
  0
LINE
  5
2325E
  8
0
 10
4589.3162598514281854
 20
255.1448300166331933
 30
0.0
 11
4589.2718657044279098
 21
255.1448273898332104
 31
0.0
  0
LINE
  5
2325F
  8
0
 10
4589.2607671677278631
 20
255.1448267331331863
 30
0.0
 11
4589.2163730207275876
 21
255.1448241062331874
 31
0.0
  0
LINE
  5
23260
  8
0
 10
4589.2052744840293599
 20
255.1448234495331917
 30
0.0
 11
4589.1608803370281748
 21
255.1448208227332088
 31
0.0
  0
LINE
  5
23261
  8
0
 10
4589.1497818003281282
 20
255.1448201660332131
 30
0.0
 11
4589.1053876533278526
 21
255.1448175391331858
 31
0.0
  0
LINE
  5
23262
  8
0
 10
4589.0942891166268964
 20
255.1448168824331901
 30
0.0
 11
4589.0498949696293494
 21
255.1448142556332073
 31
0.0
  0
LINE
  5
23263
  8
0
 10
4589.0387964329283932
 20
255.1448135989332116
 30
0.0
 11
4588.9944022859281176
 21
255.1448109720332127
 31
0.0
  0
LINE
  5
23264
  8
0
 10
4588.983303749228071
 20
255.1448103153331886
 30
0.0
 11
4588.9635058412277431
 21
255.1448091439332018
 31
0.0
  0
LINE
  5
23265
  8
0
 10
4588.9629093720268429
 20
255.192053203033197
 30
0.0
 11
4588.9833019144280115
 21
255.1920544097332026
 31
0.0
  0
LINE
  5
23266
  8
0
 10
4588.9944004511271487
 20
255.1920550664331984
 30
0.0
 11
4589.0387945981283337
 21
255.1920576932332096
 31
0.0
  0
LINE
  5
23267
  8
0
 10
4589.0498931348283804
 20
255.1920583499332054
 30
0.0
 11
4589.094287281826837
 21
255.1920609768332042
 31
0.0
  0
LINE
  5
23268
  8
0
 10
4589.1053858185277932
 20
255.1920616335331999
 30
0.0
 11
4589.1497799655280687
 21
255.1920642603332112
 31
0.0
  0
LINE
  5
23269
  8
0
 10
4589.1608785022281154
 20
255.1920649170332069
 30
0.0
 11
4589.2052726492293004
 21
255.1920675439332058
 31
0.0
  0
LINE
  5
2326A
  8
0
 10
4589.2163711859284376
 20
255.1920682006332015
 30
0.0
 11
4589.2607653329278037
 21
255.1920708274332128
 31
0.0
  0
LINE
  5
2326B
  8
0
 10
4589.2718638696278504
 20
255.1920714841332085
 30
0.0
 11
4589.3162580166281259
 21
255.1920741110332074
 31
0.0
  0
LINE
  5
2326C
  8
0
 10
4589.3273565533290821
 20
255.1920747677332031
 30
0.0
 11
4589.3717507003293576
 21
255.192077394533186
 31
0.0
  0
LINE
  5
2326D
  8
0
 10
4589.3828492370275853
 20
255.1920780512332101
 30
0.0
 11
4589.4272433840278609
 21
255.1920806781332089
 31
0.0
  0
LINE
  5
2326E
  8
0
 10
4589.4383419207279076
 20
255.1920813348332047
 30
0.0
 11
4589.4827360677281831
 21
255.1920839616331875
 31
0.0
  0
LINE
  5
2326F
  8
0
 10
4589.4938346044282298
 20
255.1920846183332117
 30
0.0
 11
4589.5382287514275959
 21
255.1920872452332105
 31
0.0
  0
LINE
  5
23270
  8
0
 10
4589.5493272881276425
 20
255.1920879019332062
 30
0.0
 11
4589.5937214351279181
 21
255.1920905287331891
 31
0.0
  0
LINE
  5
23271
  8
0
 10
4589.5937209764269937
 20
255.2039015523332068
 30
0.0
 11
4589.5493268294294467
 21
255.2038989255331956
 31
0.0
  0
LINE
  5
23272
  8
0
 10
4589.538228292727581
 20
255.2038982688331998
 30
0.0
 11
4589.4938341457282149
 21
255.203895641933201
 31
0.0
  0
LINE
  5
23273
  8
0
 10
4589.4827356090281683
 20
255.2038949852332053
 30
0.0
 11
4589.4383414620269832
 21
255.203892358433194
 31
0.0
  0
LINE
  5
23274
  8
0
 10
4589.4272429253269365
 20
255.2038917017331983
 30
0.0
 11
4589.3828487783293895
 21
255.2038890748331994
 31
0.0
  0
LINE
  5
23275
  8
0
 10
4589.3717502416284333
 20
255.2038884181332037
 30
0.0
 11
4589.3273560946281577
 21
255.2038857913331924
 31
0.0
  0
LINE
  5
23276
  8
0
 10
4589.3162575579281111
 20
255.2038851346331967
 30
0.0
 11
4589.271863410926926
 21
255.2038825077331978
 31
0.0
  0
LINE
  5
23277
  8
0
 10
4589.2607648742277888
 20
255.2038818510332021
 30
0.0
 11
4589.2163707272266038
 21
255.2038792242331908
 31
0.0
  0
LINE
  5
23278
  8
0
 10
4589.2052721905283761
 20
255.2038785675331951
 30
0.0
 11
4589.1608780435281005
 21
255.2038759406331963
 31
0.0
  0
LINE
  5
23279
  8
0
 10
4589.1497795068280539
 20
255.2038752839332005
 30
0.0
 11
4589.1053853598277783
 21
255.2038726571331893
 31
0.0
  0
LINE
  5
2327A
  8
0
 10
4589.0942868231277316
 20
255.2038720004331935
 30
0.0
 11
4589.0498926761283656
 21
255.2038693735331947
 31
0.0
  0
LINE
  5
2327B
  8
0
 10
4589.0387941394292284
 20
255.203868716833199
 30
0.0
 11
4588.9943999924280433
 21
255.2038660900331877
 31
0.0
  0
LINE
  5
2327C
  8
0
 10
4588.9833014557279967
 20
255.203865433333192
 30
0.0
 11
4588.9627601339270768
 21
255.2038642178331997
 31
0.0
  0
LINE
  5
2327D
  8
0
 10
4588.9945333295281671
 20
254.6704053609331879
 30
0.0
 11
4588.9694544636276987
 21
254.6704284970332139
 31
0.0
  0
LINE
  5
2327E
  8
0
 10
4589.0499066964293888
 20
254.7884630209331931
 30
0.0
 11
4589.0388081716282613
 21
254.7884741935332045
 31
0.0
  0
LINE
  5
2327F
  8
0
 10
4588.9945811046272865
 20
254.7885227570332063
 30
0.0
 11
4588.9833155474270825
 21
254.7885300564331885
 31
0.0
  0
LINE
  5
23280
  8
0
 10
4589.0501613984279174
 20
254.7884685779332017
 30
0.0
 11
4589.039075075826986
 21
254.7884800886332073
 31
0.0
  0
LINE
  5
23281
  8
0
 10
4589.0499110270284291
 20
254.6703379586332119
 30
0.0
 11
4589.0388125050276358
 21
254.6703504479332025
 31
0.0
  0
LINE
  5
23282
  8
0
 10
4589.2165199570281402
 20
254.6701298364332047
 30
0.0
 11
4589.205290044928006
 21
254.6701430651332032
 31
0.0
  0
LINE
  5
23283
  8
0
 10
4589.0500214603280256
 20
254.670341305633201
 30
0.0
 11
4589.0389537524270054
 21
254.6703550818332076
 31
0.0
  0
LINE
  5
23284
  8
0
 10
4589.1616353397294006
 20
254.670197390133211
 30
0.0
 11
4589.1498608939282349
 21
254.6702122364332013
 31
0.0
  0
LINE
  5
23285
  8
0
 10
4589.1055288437282798
 20
254.6702695054331969
 30
0.0
 11
4589.0943047628279601
 21
254.6702843567331911
 31
0.0
  0
LINE
  5
23286
  8
0
 10
4589.161178166928039
 20
254.7883342631332084
 30
0.0
 11
4589.1500648676283163
 21
254.7883494245332088
 31
0.0
  0
LINE
  5
23287
  8
0
 10
4589.160891055727916
 20
254.7883270814332093
 30
0.0
 11
4589.1497925418270825
 21
254.7883426907332023
 31
0.0
  0
LINE
  5
23288
  8
0
 10
4589.2720171062283043
 20
254.6700574122332057
 30
0.0
 11
4589.2607818678270633
 21
254.6700697633332027
 31
0.0
  0
LINE
  5
23289
  8
0
 10
4589.216473399726965
 20
254.7882514029332128
 30
0.0
 11
4589.2052851111293421
 21
254.7882646441331929
 31
0.0
  0
LINE
  5
2328A
  8
0
 10
4589.3274664145283168
 20
254.6699691469331981
 30
0.0
 11
4589.3162744087276224
 21
254.6699823654332135
 31
0.0
  0
LINE
  5
2328B
  8
0
 10
4589.2721559666279063
 20
254.7881538920331934
 30
0.0
 11
4589.2610178634267868
 21
254.7881744348331949
 31
0.0
  0
LINE
  5
2328C
  8
0
 10
4589.2718750351277777
 20
254.7881493263332118
 30
0.0
 11
4589.2607765392267538
 21
254.7881702723331898
 31
0.0
  0
LINE
  5
2328D
  8
0
 10
4589.3275422994283872
 20
254.7880465914331864
 30
0.0
 11
4589.3162690190283683
 21
254.7880655424332019
 31
0.0
  0
LINE
  5
2328E
  8
0
 10
4589.4383517374271833
 20
254.7878119080332056
 30
0.0
 11
4589.4272532531285833
 21
254.7878357100331925
 31
0.0
  0
LINE
  5
2328F
  8
0
 10
4589.4385699868271331
 20
254.7878161003332025
 30
0.0
 11
4589.4275240113292966
 21
254.7878406519332088
 31
0.0
  0
LINE
  5
23290
  8
0
 10
4589.3830996090282497
 20
254.6698518027332057
 30
0.0
 11
4589.371967375526765
 21
254.6698777216332132
 31
0.0
  0
LINE
  5
23291
  8
0
 10
4589.438355554428199
 20
254.669706666733191
 30
0.0
 11
4589.4272570850280317
 21
254.6697336901331994
 31
0.0
  0
LINE
  5
23292
  8
0
 10
4589.3828632077284055
 20
254.6698417836331885
 30
0.0
 11
4589.3717647383282383
 21
254.6698688069332093
 31
0.0
  0
LINE
  5
23293
  8
0
 10
4581.4205365141269795
 20
253.3600473376332047
 30
0.0
 11
4581.4205365141269795
 21
253.2414266190332057
 31
0.0
  0
LINE
  5
23294
  8
0
 10
4589.6605450716278938
 20
255.3554809114332045
 30
0.0
 11
4589.6159121633281757
 21
255.3554775874331142
 31
0.0
  0
LINE
  5
23295
  8
0
 10
4588.9606659336277517
 20
255.3692184246332033
 30
0.0
 11
4588.983295034027833
 21
255.3692197636331969
 31
0.0
  0
LINE
  5
23296
  8
0
 10
4588.9943935707278797
 20
255.3692204203331926
 30
0.0
 11
4589.0387877177281553
 21
255.3692230472331914
 31
0.0
  0
LINE
  5
23297
  8
0
 10
4589.0498862544282019
 20
255.3692237039331872
 30
0.0
 11
4589.094280401427568
 21
255.3692263307331984
 31
0.0
  0
LINE
  5
23298
  8
0
 10
4589.1053789381276147
 20
255.3692269874331942
 30
0.0
 11
4589.1497730851278902
 21
255.369229614333193
 31
0.0
  0
LINE
  5
23299
  8
0
 10
4589.1608716218270274
 20
255.3692302710331887
 30
0.0
 11
4589.2052657688282125
 21
255.3692328978332
 31
0.0
  0
LINE
  5
2329A
  8
0
 10
4589.2163643055282591
 20
255.3692335545331957
 30
0.0
 11
4589.2607584525276252
 21
255.3692361814331946
 31
0.0
  0
LINE
  5
2329B
  8
0
 10
4589.2718569892267624
 20
255.3692368381331903
 30
0.0
 11
4589.3162511362270379
 21
255.3692394649332016
 31
0.0
  0
LINE
  5
2329C
  8
0
 10
4589.3273496729270846
 20
255.3692401216331973
 30
0.0
 11
4589.3717438199282697
 21
255.3692427484332086
 31
0.0
  0
LINE
  5
2329D
  8
0
 10
4589.3828423566283163
 20
255.3692434052331919
 30
0.0
 11
4589.4272365036267729
 21
255.3692460320332032
 31
0.0
  0
LINE
  5
2329E
  8
0
 10
4589.4383350403277291
 20
255.3692466887331989
 30
0.0
 11
4589.4827291873280046
 21
255.3692493155332102
 31
0.0
  0
LINE
  5
2329F
  8
0
 10
4589.4938277240280513
 20
255.3692499723331935
 30
0.0
 11
4589.5382218710283269
 21
255.3692525991332047
 31
0.0
  0
LINE
  5
232A0
  8
0
 10
4589.5493204077283735
 20
255.3692532558332005
 30
0.0
 11
4589.5937145547277396
 21
255.3692558826332117
 31
0.0
  0
LINE
  5
232A1
  8
0
 10
4589.5937140960277247
 20
255.3810669062332011
 30
0.0
 11
4589.5493199490283587
 21
255.3810642794331898
 31
0.0
  0
LINE
  5
232A2
  8
0
 10
4589.538221412328312
 20
255.3810636227331941
 30
0.0
 11
4589.4938272653280364
 21
255.3810609958331952
 31
0.0
  0
LINE
  5
232A3
  8
0
 10
4589.4827287286279898
 20
255.3810603391331995
 30
0.0
 11
4589.4383345816277142
 21
255.3810577123331882
 31
0.0
  0
LINE
  5
232A4
  8
0
 10
4589.427236044928577
 20
255.3810570556331925
 30
0.0
 11
4589.3828418979283015
 21
255.3810544288332096
 31
0.0
  0
LINE
  5
232A5
  8
0
 10
4589.3717433612282548
 20
255.3810537720331979
 30
0.0
 11
4589.3273492142279792
 21
255.3810511452331866
 31
0.0
  0
LINE
  5
232A6
  8
0
 10
4589.3162506775279326
 20
255.3810504885331909
 30
0.0
 11
4589.271856530527657
 21
255.381047861733208
 31
0.0
  0
LINE
  5
232A7
  8
0
 10
4589.2607579938276103
 20
255.3810472049331111
 30
0.0
 11
4589.2163638468282443
 21
255.3810445781332135
 31
0.0
  0
LINE
  5
232A8
  8
0
 10
4589.2052653101281976
 20
255.3810439214331893
 30
0.0
 11
4589.1608711631270126
 21
255.3810412946332065
 31
0.0
  0
LINE
  5
232A9
  8
0
 10
4589.1497726264269659
 20
255.3810406379332107
 30
0.0
 11
4589.1053784794294188
 21
255.3810380110332119
 31
0.0
  0
LINE
  5
232AA
  8
0
 10
4589.0942799427275531
 20
255.3810373543331877
 30
0.0
 11
4589.0498857957281871
 21
255.3810347275332049
 31
0.0
  0
LINE
  5
232AB
  8
0
 10
4589.0387872590281404
 20
255.3810340708332092
 30
0.0
 11
4588.9943931120269554
 21
255.3810314439332103
 31
0.0
  0
LINE
  5
232AC
  8
0
 10
4588.9832945753269087
 20
255.3810307872331862
 30
0.0
 11
4588.9605159662278311
 21
255.3810294394332061
 31
0.0
  0
LINE
  5
232AD
  8
0
 10
4588.9599156971271441
 20
255.4282734983331977
 30
0.0
 11
4588.9832927405277587
 21
255.4282748816332003
 31
0.0
  0
LINE
  5
232AE
  8
0
 10
4588.9943912772268959
 20
255.428275538333196
 30
0.0
 11
4589.038785424228081
 21
255.4282781651332073
 31
0.0
  0
LINE
  5
232AF
  8
0
 10
4589.0498839609272181
 20
255.428278821833203
 30
0.0
 11
4589.0942781079284032
 21
255.4282814487332018
 31
0.0
  0
LINE
  5
232B0
  8
0
 10
4589.1053766446284499
 20
255.4282821054331976
 30
0.0
 11
4589.1497707916269064
 21
255.4282847322332088
 31
0.0
  0
LINE
  5
232B1
  8
0
 10
4589.1608693283278626
 20
255.4282853889332046
 30
0.0
 11
4589.2052634753281382
 21
255.4282880158332034
 31
0.0
  0
LINE
  5
232B2
  8
0
 10
4589.2163620120281848
 20
255.4282886725331139
 30
0.0
 11
4589.2607561590293699
 21
255.4282912993332104
 31
0.0
  0
LINE
  5
232B3
  8
0
 10
4589.2718546957275976
 20
255.4282919560332061
 30
0.0
 11
4589.3162488427269636
 21
255.428294582933205
 31
0.0
  0
LINE
  5
232B4
  8
0
 10
4589.3273473794279198
 20
255.4282952396332007
 30
0.0
 11
4589.3717415264281954
 21
255.428297866433212
 31
0.0
  0
LINE
  5
232B5
  8
0
 10
4589.382840063128242
 20
255.4282985231332077
 30
0.0
 11
4589.4272342101294271
 21
255.4283011500332066
 31
0.0
  0
LINE
  5
232B6
  8
0
 10
4589.4383327468267453
 20
255.4283018067332023
 30
0.0
 11
4589.4827268938279303
 21
255.4283044335332136
 31
0.0
  0
LINE
  5
232B7
  8
0
 10
4589.493825430527977
 20
255.4283050902332093
 30
0.0
 11
4589.5382195775282526
 21
255.4283077171332081
 31
0.0
  0
LINE
  5
232B8
  8
0
 10
4589.5493181142292087
 20
255.4283083738332039
 30
0.0
 11
4589.5937122612285748
 21
255.4283110006331867
 31
0.0
  0
LINE
  5
232B9
  8
0
 10
4589.7433613731282094
 20
255.6704449052332109
 30
0.0
 11
4588.8665937751284218
 21
255.6703814505331991
 31
0.0
  0
LINE
  5
232BA
  8
0
 10
4588.9832949887277209
 20
255.3200503526331886
 30
0.0
 11
4588.9946586649293749
 21
255.3200454235332018
 31
0.0
  0
LINE
  5
232BB
  8
0
 10
4589.0387876163276815
 20
255.3199961653332082
 30
0.0
 11
4589.0503125169279883
 21
255.3199958935331892
 31
0.0
  0
LINE
  5
232BC
  8
0
 10
4589.094280243927642
 20
255.3199419780331993
 30
0.0
 11
4589.1055804490279115
 21
255.3199366046331988
 31
0.0
  0
LINE
  5
232BD
  8
0
 10
4589.1497714695278773
 20
255.3198729306332098
 30
0.0
 11
4589.1612177784281812
 21
255.3198630106332132
 31
0.0
  0
LINE
  5
232BE
  8
0
 10
4589.2052639999283201
 20
255.3197822997331912
 30
0.0
 11
4589.2169324969281661
 21
255.3197756351331975
 31
0.0
  0
LINE
  5
232BF
  8
0
 10
4589.260756530227809
 20
255.3196916689331886
 30
0.0
 11
4589.2721761529282958
 21
255.3196789384332135
 31
0.0
  0
LINE
  5
232C0
  8
0
 10
4591.3048102203283634
 20
258.5811831321332193
 30
0.0
 11
4591.3761700718278007
 21
258.6144665213330995
 31
0.0
  0
LINE
  5
232C1
  8
0
 10
4591.3849650249921979
 20
258.6185914512626027
 30
0.0
 11
4591.5416960348793509
 21
258.6917007032399169
 31
0.0
  0
LINE
  5
232C2
  8
0
 10
4583.4244968152279398
 20
253.3020126839332136
 30
0.0
 11
4583.4244968152279398
 21
253.2414266190332057
 31
0.0
  0
LINE
  5
232C3
  8
0
 10
4591.2553108193269509
 20
258.4451469192331956
 30
0.0
 11
4591.3480786262280162
 21
258.4884153253331078
 31
0.0
  0
LINE
  5
232C4
  8
0
 10
4591.3794636432558036
 20
257.6405460432440009
 30
0.0
 11
4591.4816853139445811
 21
257.6351985402462219
 31
0.0
  0
LINE
  5
232C5
  8
0
 10
4591.4602458749277503
 20
257.7151663085331847
 30
0.0
 11
4591.5644340881281096
 21
257.7097153479331837
 31
0.0
  0
LINE
  5
232C6
  8
0
 10
4591.2331376260681282
 20
257.5616312498588059
 30
0.0
 11
4591.3743477945781706
 21
257.5430453987963233
 31
0.0
  0
LINE
  5
232C7
  8
0
 10
4591.4761471255797005
 20
257.5296439259656154
 30
0.0
 11
4591.8822693009587965
 21
257.4761790157883183
 31
0.0
  0
LINE
  5
232C8
  8
0
 10
4586.9905564072269044
 20
252.2910424372331875
 30
0.0
 11
4586.4395467964277486
 21
253.1235274452332078
 31
0.0
  0
LINE
  5
232C9
  8
0
 10
4584.9823609715276689
 20
253.1508754379331094
 30
0.0
 11
4584.9823609715276689
 21
253.387095910333187
 31
0.0
  0
LINE
  5
232CA
  8
0
 10
4585.0832438386269132
 20
253.387095910333187
 30
0.0
 11
4585.0832438386269132
 21
253.2411418114328114
 31
0.0
  0
LINE
  5
232CB
  8
0
 10
4585.0912334581889809
 20
253.2271268314700023
 30
0.0
 11
4585.0912300557056369
 21
253.1904094257332076
 31
0.0
  0
LINE
  5
232CC
  8
0
 10
4591.4131053725313905
 20
257.9058883862983862
 30
0.0
 11
4591.3938331830568131
 21
257.9083553486713072
 31
0.0
  0
LINE
  5
232CD
  8
0
 10
4591.3759382951284351
 20
257.9701829874331906
 30
0.0
 11
4591.3946617759283981
 21
257.9677862632332221
 31
0.0
  0
LINE
  5
232CE
  8
0
 10
4591.641745987428294
 20
257.2959569930332009
 30
0.0
 11
4590.8747344272269402
 21
257.4312018256331953
 31
0.0
  0
LINE
  5
232CF
  8
0
 10
4589.5980105063272276
 20
253.1075683513332137
 30
0.0
 11
4589.5783254670268434
 21
253.1272533906332001
 31
0.0
  0
LINE
  5
232D0
  8
0
 10
4585.5129817492279471
 20
254.6640180534332103
 30
0.0
 11
4585.5534878729267803
 21
254.7344022349332135
 31
0.0
  0
LINE
  5
232D1
  8
0
 10
4585.6411728797065734
 20
254.8495398714892985
 30
0.0
 11
4585.653949029463547
 21
254.8716353984966929
 31
0.0
  0
LINE
  5
232D2
  8
0
 10
4591.5580884146284006
 20
259.2362982868331756
 30
0.0
 11
4591.6738793986269229
 21
259.3475339416331735
 31
0.0
  0
LINE
  5
232D3
  8
0
 10
4586.3412143236282645
 20
252.8863719065332134
 30
0.0
 11
4586.3412143236282645
 21
253.0721352804332014
 31
0.0
  0
LINE
  5
232D4
  8
0
 10
4586.3761084360276072
 20
253.1311903985331924
 30
0.0
 11
4586.3761084360276072
 21
253.103631343433193
 31
0.0
  0
LINE
  5
232D5
  8
0
 10
4586.4261620296283581
 20
253.1311903985331924
 30
0.0
 11
4586.4261620296283581
 21
253.1290624607331949
 31
0.0
  0
LINE
  5
232D6
  8
0
 10
4586.4395467964277486
 20
253.1235274452332078
 30
0.0
 11
4586.4395468011280173
 21
253.1311903985331924
 31
0.0
  0
LINE
  5
232D7
  8
0
 10
4586.4455350646294391
 20
253.1144801556710888
 30
0.0
 11
4586.4455350646294391
 21
253.103631343433193
 31
0.0
  0
LINE
  5
232D8
  8
0
 10
4586.4812700073807719
 20
252.7830864523934906
 30
0.0
 11
4586.4812704807018235
 21
252.7548875793050911
 31
0.0
  0
LINE
  5
232D9
  8
0
 10
4586.4879886644512226
 20
252.7315852338998923
 30
0.0
 11
4586.4879902527609374
 21
252.8106492635492941
 31
0.0
  0
LINE
  5
232DA
  8
0
 10
4586.5199140144268313
 20
253.0021057806953024
 30
0.0
 11
4586.5199211683357134
 21
252.7200343290002138
 31
0.0
  0
LINE
  5
232DB
  8
0
 10
4586.5266394329928517
 20
252.7201210288100128
 30
0.0
 11
4586.5266417575276137
 21
252.9919412660323985
 31
0.0
  0
LINE
  5
232DC
  8
0
 10
4586.5436974473277587
 20
252.9661729204694041
 30
0.0
 11
4586.5436977184281204
 21
252.7226279137331915
 31
0.0
  0
LINE
  5
232DD
  8
0
 10
4587.089490532626769
 20
253.7414266190332057
 30
0.0
 11
4587.089490532626769
 21
253.9382770127332094
 31
0.0
  0
LINE
  5
232DE
  8
0
 10
4587.1904127975276424
 20
253.9382770127332094
 30
0.0
 11
4587.1904127975276424
 21
253.7414266190332057
 31
0.0
  0
LINE
  5
232DF
  8
0
 10
4587.6128893805280313
 20
253.820166776533199
 30
0.0
 11
4587.6128893805280313
 21
253.9382770127332094
 31
0.0
  0
LINE
  5
232E0
  8
0
 10
4587.6351072245270188
 20
253.9382770127332094
 30
0.0
 11
4587.6351072245270188
 21
253.820166776533199
 31
0.0
  0
LINE
  5
232E1
  8
0
 10
4590.7773553995275506
 20
253.2697745112332086
 30
0.0
 11
4590.833981766028046
 21
253.2886706546331936
 31
0.0
  0
LINE
  5
232E2
  8
0
 10
4589.6961883752283029
 20
253.8027789075331953
 30
0.0
 11
4589.6742950632278735
 21
253.8397313137332105
 31
0.0
  0
LINE
  5
232E3
  8
0
 10
4589.6942303918276593
 20
254.0193385502331864
 30
0.0
 11
4589.6723512940279761
 21
254.0562669682331887
 31
0.0
  0
LINE
  5
232E4
  8
0
 10
4588.0599883082268207
 20
253.1311903985331924
 30
0.0
 11
4587.0486931565274062
 21
252.2826130097332111
 31
0.0
  0
LINE
  5
232E5
  8
0
 10
4587.3849788887591785
 20
252.5574207317621926
 30
0.0
 11
4588.0742476078294203
 21
253.1311903985331924
 31
0.0
  0
LINE
  5
232E6
  8
0
 10
4587.3849788887591785
 20
252.5574207317621926
 30
0.0
 11
4587.3741584620283902
 21
252.5486500373332035
 31
0.0
  0
LINE
  5
232E7
  8
0
 10
4591.9943692223268954
 20
253.2886707140332021
 30
0.0
 11
4591.6006684353778837
 21
253.1311903985331924
 31
0.0
  0
LINE
  5
232E8
  8
0
 10
4591.638029368828029
 20
253.1672513294332134
 30
0.0
 11
4591.5474589816376465
 21
253.1311903985331924
 31
0.0
  0
LINE
  5
232E9
  8
0
 10
4591.8243095462557903
 20
253.2414288537331117
 30
0.0
 11
4591.7941285638280533
 21
253.2294100137332009
 31
0.0
  0
LINE
  5
232EA
  8
0
 10
4591.3738234033280605
 20
257.9775033559332087
 30
0.0
 11
4591.4635336582268792
 21
257.9356707771331116
 31
0.0
  0
LINE
  5
232EB
  8
0
 10
4589.6922656875276516
 20
254.2358982195331976
 30
0.0
 11
4589.6704008185279235
 21
254.2728026235332095
 31
0.0
  0
LINE
  5
232EC
  8
0
 10
4589.6902941860280407
 20
254.4524579095331944
 30
0.0
 11
4589.6684435568267872
 21
254.4893382796331878
 31
0.0
  0
LINE
  5
232ED
  8
0
 10
4589.6883158114278558
 20
254.6690176144331872
 30
0.0
 11
4589.6664794297294065
 21
254.7058739365332087
 31
0.0
  0
LINE
  5
232EE
  8
0
 10
4589.6863304883281671
 20
254.8855773280332073
 30
0.0
 11
4589.66450835852811
 21
254.9224095941331996
 31
0.0
  0
LINE
  5
232EF
  8
0
 10
4589.6843381420294463
 20
255.1021370447332117
 30
0.0
 11
4589.6625302651282254
 21
255.1389452525332047
 31
0.0
  0
LINE
  5
232F0
  8
0
 10
4589.6823386986279729
 20
255.318696758433191
 30
0.0
 11
4589.6605450724282491
 21
255.3554809114332045
 31
0.0
  0
LINE
  5
232F1
  8
0
 10
4588.9608409816282801
 20
255.3554278777332058
 30
0.0
 11
4588.9612894310275806
 21
255.3200718407331919
 31
0.0
  0
LINE
  5
232F2
  8
0
 10
4588.9635804819281475
 20
255.1388918296331951
 30
0.0
 11
4588.9640264632280378
 21
255.1035240928331973
 31
0.0
  0
LINE
  5
232F3
  8
0
 10
4588.9663042802276323
 20
254.9223560933332067
 30
0.0
 11
4588.9667479152276428
 21
254.8869763157331931
 31
0.0
  0
LINE
  5
232F4
  8
0
 10
4588.9690131218276292
 20
254.7058163060331992
 30
0.0
 11
4588.9694544637277431
 21
254.6704284955332014
 31
0.0
  0
LINE
  5
232F5
  8
0
 10
4588.9717074643276646
 20
254.4892844363332074
 30
0.0
 11
4588.972146703227736
 21
254.4538806188332103
 31
0.0
  0
LINE
  5
232F6
  8
0
 10
4588.9743879930292678
 20
254.27274841413319
 30
0.0
 11
4588.9748251577293559
 21
254.2373326727332028
 31
0.0
  0
LINE
  5
232F7
  8
0
 10
4588.9770551256269755
 20
254.0562126578332141
 30
0.0
 11
4588.9774902910276069
 21
254.0207846453332081
 31
0.0
  0
LINE
  5
232F8
  8
0
 10
4588.9797092851267735
 20
253.8396768423332048
 30
0.0
 11
4588.9801425141267828
 21
253.8042365259331916
 31
0.0
  0
LINE
  5
232F9
  8
0
 10
4588.4490142188269601
 20
253.8647573216956914
 30
0.0
 11
4588.4490142188269601
 21
254.6774743492331936
 31
0.0
  0
LINE
  5
232FA
  8
0
 10
4588.9832927405277587
 20
255.4282748816332003
 30
0.0
 11
4588.9832945753269087
 21
255.3810307872331862
 31
0.0
  0
LINE
  5
232FB
  8
0
 10
4588.983295034027833
 20
255.3692197636331969
 30
0.0
 11
4588.983295569528309
 21
255.3554307800332026
 31
0.0
  0
LINE
  5
232FC
  8
0
 10
4588.9833007661281954
 20
255.2216213407332077
 30
0.0
 11
4588.9833014557279967
 21
255.203865433333192
 31
0.0
  0
LINE
  5
232FD
  8
0
 10
4588.9833019144280115
 20
255.1920544097332026
 30
0.0
 11
4588.983303749228071
 21
255.1448103153331886
 31
0.0
  0
LINE
  5
232FE
  8
0
 10
4588.9833091760283423
 20
255.0050744252332038
 30
0.0
 11
4588.9833106296282494
 21
254.9676449614331943
 31
0.0
  0
LINE
  5
232FF
  8
0
 10
4588.9833110883282643
 20
254.955833937833205
 30
0.0
 11
4588.9833123883281587
 21
254.9223580379332077
 31
0.0
  0
LINE
  5
23300
  8
0
 10
4588.9833179687284428
 20
254.7786685839332108
 30
0.0
 11
4588.9833198035275927
 21
254.7314244895331967
 31
0.0
  0
LINE
  5
23301
  8
0
 10
4588.9833202622276076
 20
254.7196134659332074
 30
0.0
 11
4588.9833207980273073
 21
254.7058151187331987
 31
0.0
  0
LINE
  5
23302
  8
0
 10
4588.9833259955294125
 20
254.5719845575331988
 30
0.0
 11
4588.9833266839268617
 21
254.5542591356332025
 31
0.0
  0
LINE
  5
23303
  8
0
 10
4588.9833271426268766
 20
254.5424481120332132
 30
0.0
 11
4588.9833289774278455
 21
254.4952040176331991
 31
0.0
  0
LINE
  5
23304
  8
0
 10
4588.983334405327696
 20
254.3554391315331884
 30
0.0
 11
4588.983335857828024
 21
254.3180386637332049
 31
0.0
  0
LINE
  5
23305
  8
0
 10
4588.9833363165280389
 20
254.3062276401331872
 30
0.0
 11
4588.9833376167280221
 21
254.2727492333332009
 31
0.0
  0
LINE
  5
23306
  8
0
 10
4588.9833431969282174
 20
254.1290622862331929
 30
0.0
 11
4588.9833450317282768
 21
254.0818181918332073
 31
0.0
  0
LINE
  5
23307
  8
0
 10
4588.9833454904282917
 20
254.0700071682331895
 30
0.0
 11
4588.983346026127947
 21
254.0562132280331866
 31
0.0
  0
LINE
  5
23308
  8
0
 10
4588.9833512248278566
 20
253.9223489917332017
 30
0.0
 11
4588.9833519121275458
 21
253.904652837933213
 31
0.0
  0
LINE
  5
23309
  8
0
 10
4588.9833523708275607
 20
253.8928418143331953
 30
0.0
 11
4588.9833542056294391
 21
253.8455977199332096
 31
0.0
  0
LINE
  5
2330A
  8
0
 10
4588.9944527423285763
 20
253.8455983766332054
 30
0.0
 11
4588.9944509075276073
 21
253.892842471033191
 31
0.0
  0
LINE
  5
2330B
  8
0
 10
4588.9944504488275925
 20
253.9046534946332088
 30
0.0
 11
4588.9944497620281254
 21
253.9223377728332025
 31
0.0
  0
LINE
  5
2330C
  8
0
 10
4588.9944445628270842
 20
254.0562142340332059
 30
0.0
 11
4588.9944440271283383
 21
254.0700078249332137
 31
0.0
  0
LINE
  5
2330D
  8
0
 10
4588.9944435684283235
 20
254.081818848533203
 30
0.0
 11
4588.9944417336273546
 21
254.1290629429331887
 31
0.0
  0
LINE
  5
2330E
  8
0
 10
4588.9944361534280688
 20
254.2727502492332121
 30
0.0
 11
4588.9944348532280856
 21
254.3062282968332113
 31
0.0
  0
LINE
  5
2330F
  8
0
 10
4588.9944343945271612
 20
254.3180393204332006
 30
0.0
 11
4588.9944329425279648
 21
254.3554273169332021
 31
0.0
  0
LINE
  5
23310
  8
0
 10
4588.9944275141278922
 20
254.4952046743331948
 30
0.0
 11
4588.9944256793269233
 21
254.5424487687332089
 31
0.0
  0
LINE
  5
23311
  8
0
 10
4588.9944252206278179
 20
254.5542597923331982
 30
0.0
 11
4588.9944245327269527
 21
254.5719730672331877
 31
0.0
  0
LINE
  5
23312
  8
0
 10
4588.9944193348283079
 20
254.7058141976332024
 30
0.0
 11
4588.9944187989276543
 21
254.7196141226332031
 31
0.0
  0
LINE
  5
23313
  8
0
 10
4588.9944183402276394
 20
254.7314251462331924
 30
0.0
 11
4588.99441650542758
 21
254.7786692406332065
 31
0.0
  0
LINE
  5
23314
  8
0
 10
4588.9944109251282498
 20
254.922359306733199
 30
0.0
 11
4588.994409625028311
 21
254.9558345945332007
 31
0.0
  0
LINE
  5
23315
  8
0
 10
4588.9944091663273866
 20
254.9676456181331901
 30
0.0
 11
4588.9944077132277016
 21
255.0050628221331124
 31
0.0
  0
LINE
  5
23316
  8
0
 10
4588.9944022859281176
 20
255.1448109720332127
 30
0.0
 11
4588.9944004511271487
 21
255.1920550664331984
 31
0.0
  0
LINE
  5
23317
  8
0
 10
4588.9943999924280433
 20
255.2038660900331877
 30
0.0
 11
4588.9943993033275547
 21
255.2216108067331959
 31
0.0
  0
LINE
  5
23318
  8
0
 10
4588.9943941062292652
 20
255.3554322145332094
 30
0.0
 11
4588.9943935707278797
 21
255.3692204203331926
 31
0.0
  0
LINE
  5
23319
  8
0
 10
4588.9943931120269554
 20
255.3810314439332103
 30
0.0
 11
4588.9943912772268959
 21
255.428275538333196
 31
0.0
  0
LINE
  5
2331A
  8
0
 10
4589.038785424228081
 20
255.4282781651332073
 30
0.0
 11
4589.0387872590281404
 21
255.3810340708332092
 31
0.0
  0
LINE
  5
2331B
  8
0
 10
4589.0387877177281553
 20
255.3692230472331914
 30
0.0
 11
4589.0387882530276329
 21
255.3554379525332081
 31
0.0
  0
LINE
  5
2331C
  8
0
 10
4589.0387934520276758
 20
255.2215686704331858
 30
0.0
 11
4589.0387941394292284
 21
255.203868716833199
 31
0.0
  0
LINE
  5
2331D
  8
0
 10
4589.0387945981283337
 20
255.1920576932332096
 30
0.0
 11
4589.0387964329283932
 21
255.1448135989332116
 31
0.0
  0
LINE
  5
2331E
  8
0
 10
4589.0388018620269577
 20
255.0050164096332139
 30
0.0
 11
4589.0388033133276622
 21
254.9676482449332013
 31
0.0
  0
LINE
  5
2331F
  8
0
 10
4589.0388037720267675
 20
254.955837221333212
 30
0.0
 11
4589.0388050719284365
 21
254.922364382333086
 31
0.0
  0
LINE
  5
23320
  8
0
 10
4589.0388106524278555
 20
254.7786718674331894
 30
0.0
 11
4589.038812487227915
 21
254.7314277730332037
 31
0.0
  0
LINE
  5
23321
  8
0
 10
4589.0388129459279298
 20
254.719616749533202
 30
0.0
 11
4589.0388134820268533
 21
254.705810513633196
 31
0.0
  0
LINE
  5
23322
  8
0
 10
4589.0388186816280722
 20
254.5719271058331969
 30
0.0
 11
4589.0388193676280935
 21
254.5542624191332095
 31
0.0
  0
LINE
  5
23323
  8
0
 10
4589.0388198263281083
 20
254.5424513955331918
 30
0.0
 11
4589.0388216611281678
 21
254.4952073012331937
 31
0.0
  0
LINE
  5
23324
  8
0
 10
4589.0388270914272653
 20
254.3553800582332087
 30
0.0
 11
4589.0388285415283462
 21
254.3180419472332119
 31
0.0
  0
LINE
  5
23325
  8
0
 10
4589.0388290002283611
 20
254.3062309236331942
 30
0.0
 11
4589.0388303003282999
 21
254.272753614533201
 31
0.0
  0
LINE
  5
23326
  8
0
 10
4589.0388358806276301
 20
254.1290655697331999
 30
0.0
 11
4589.0388377154276895
 21
254.0818214753331858
 31
0.0
  0
LINE
  5
23327
  8
0
 10
4589.0388381741267949
 20
254.0700104517331965
 30
0.0
 11
4589.0388387097282248
 21
254.056218257833109
 31
0.0
  0
LINE
  5
23328
  8
0
 10
4589.0388439109292449
 20
253.9222928975331968
 30
0.0
 11
4589.038844595827868
 21
253.9046561214331916
 31
0.0
  0
LINE
  5
23329
  8
0
 10
4589.0388450545278829
 20
253.8928450978332023
 30
0.0
 11
4589.0388468893270328
 21
253.8456010034331882
 31
0.0
  0
LINE
  5
2332A
  8
0
 10
4589.049945426027989
 20
253.8456016602330862
 30
0.0
 11
4589.0499435912279296
 21
253.892845754533198
 31
0.0
  0
LINE
  5
2332B
  8
0
 10
4589.0499431325279147
 20
253.9046567781331873
 30
0.0
 11
4589.0499424481267852
 21
253.9222816786331123
 31
0.0
  0
LINE
  5
2332C
  8
0
 10
4589.0499372464282715
 20
254.0562192638332135
 30
0.0
 11
4589.0499367108277511
 21
254.0700111085332082
 31
0.0
  0
LINE
  5
2332D
  8
0
 10
4589.0499362521268267
 20
254.08182213203321
 30
0.0
 11
4589.0499344173267673
 21
254.1290662264331957
 31
0.0
  0
LINE
  5
2332E
  8
0
 10
4589.0499288371293005
 20
254.2727528932331893
 30
0.0
 11
4589.0499275369293173
 21
254.3062315803331899
 31
0.0
  0
LINE
  5
2332F
  8
0
 10
4589.0499270782283929
 20
254.3180426039332076
 30
0.0
 11
4589.0499256286284435
 21
254.355368243633194
 31
0.0
  0
LINE
  5
23330
  8
0
 10
4589.0499201978282144
 20
254.4952079579331894
 30
0.0
 11
4589.049918363028155
 21
254.5424520522331875
 31
0.0
  0
LINE
  5
23331
  8
0
 10
4589.0499179043281401
 20
254.5542630758332052
 30
0.0
 11
4589.0499172188292505
 21
254.5719156154331984
 31
0.0
  0
LINE
  5
23332
  8
0
 10
4589.0499120188278539
 20
254.7058095925331997
 30
0.0
 11
4589.0499114826279765
 21
254.7196174062331977
 31
0.0
  0
LINE
  5
23333
  8
0
 10
4589.0499110239279617
 20
254.731428429833187
 30
0.0
 11
4589.0499091891269927
 21
254.7786725241332135
 31
0.0
  0
LINE
  5
23334
  8
0
 10
4589.0499036086275737
 20
254.922365651233207
 30
0.0
 11
4589.0499023087277237
 21
254.9558378781331953
 31
0.0
  0
LINE
  5
23335
  8
0
 10
4589.0499018500267994
 20
254.9676489017332131
 30
0.0
 11
4589.0499003993281804
 21
255.0050048065332078
 31
0.0
  0
LINE
  5
23336
  8
0
 10
4589.0498949696293494
 20
255.1448142556332073
 30
0.0
 11
4589.0498931348283804
 21
255.1920583500331929
 31
0.0
  0
LINE
  5
23337
  8
0
 10
4589.0498926761283656
 20
255.2038693735331947
 30
0.0
 11
4589.0498919892279446
 21
255.2215581363331864
 31
0.0
  0
LINE
  5
23338
  8
0
 10
4589.0498867897276796
 20
255.3554393870331864
 30
0.0
 11
4589.0498862544282019
 21
255.3692237039331872
 31
0.0
  0
LINE
  5
23339
  8
0
 10
4589.0498857957281871
 20
255.3810347275332049
 30
0.0
 11
4589.0498839609272181
 21
255.428278821833203
 31
0.0
  0
LINE
  5
2333A
  8
0
 10
4589.0942781079284032
 20
255.4282814487332018
 30
0.0
 11
4589.0942799427275531
 21
255.3810373543331877
 31
0.0
  0
LINE
  5
2333B
  8
0
 10
4589.094280401427568
 20
255.3692263307331984
 30
0.0
 11
4589.0942809366270012
 21
255.3554439767331132
 31
0.0
  0
LINE
  5
2333C
  8
0
 10
4589.0942861379271562
 20
255.2215160000332048
 30
0.0
 11
4589.0942868231277316
 21
255.2038720004331935
 31
0.0
  0
LINE
  5
2333D
  8
0
 10
4589.094287281826837
 20
255.1920609768332042
 30
0.0
 11
4589.0942891166268964
 21
255.1448168824331901
 31
0.0
  0
LINE
  5
2333E
  8
0
 10
4589.0942945481283459
 20
255.0049583940331956
 30
0.0
 11
4589.0942959970279844
 21
254.9676515285331959
 31
0.0
  0
LINE
  5
2333F
  8
0
 10
4589.0942964557279993
 20
254.9558405049332066
 30
0.0
 11
4589.0942977555278048
 21
254.9223707267331918
 31
0.0
  0
LINE
  5
23340
  8
0
 10
4589.0943033361281778
 20
254.7786751510332124
 30
0.0
 11
4589.0943051709282372
 21
254.7314310566331983
 31
0.0
  0
LINE
  5
23341
  8
0
 10
4589.0943056296282521
 20
254.719620033033209
 30
0.0
 11
4589.0943061658281295
 21
254.7058118453331872
 31
0.0
  0
LINE
  5
23342
  8
0
 10
4589.0943113676275971
 20
254.5718696540332076
 30
0.0
 11
4589.0943120513293252
 21
254.5542657027332041
 31
0.0
  0
LINE
  5
23343
  8
0
 10
4589.0943125100284306
 20
254.5424546791331863
 30
0.0
 11
4589.0943143448275805
 21
254.4952105847332007
 31
0.0
  0
LINE
  5
23344
  8
0
 10
4589.094319777527744
 20
254.3553209850331882
 30
0.0
 11
4589.0943212252268495
 21
254.3180452308332065
 31
0.0
  0
LINE
  5
23345
  8
0
 10
4589.0943216839268644
 20
254.3062342072331887
 30
0.0
 11
4589.0943229843278459
 21
254.2727500083331904
 31
0.0
  0
LINE
  5
23346
  8
0
 10
4589.0943285643270428
 20
254.1290688533331945
 30
0.0
 11
4589.0943303991271023
 21
254.0818247589332088
 31
0.0
  0
LINE
  5
23347
  8
0
 10
4589.0943308578280266
 20
254.0700137353331911
 30
0.0
 11
4589.0943313933294121
 21
254.0562232876332018
 31
0.0
  0
LINE
  5
23348
  8
0
 10
4589.0943365972279935
 20
253.9222270405331869
 30
0.0
 11
4589.0943372795281903
 21
253.9046594050331862
 31
0.0
  0
LINE
  5
23349
  8
0
 10
4589.0943377382282051
 20
253.8928483814331969
 30
0.0
 11
4589.0943395730282646
 21
253.8456042870332112
 31
0.0
  0
LINE
  5
2334A
  8
0
 10
4589.1054381097283112
 20
253.8456049437332069
 30
0.0
 11
4589.1054362749282518
 21
253.8928490381331926
 31
0.0
  0
LINE
  5
2334B
  8
0
 10
4589.1054358162282369
 20
253.9046600617332103
 30
0.0
 11
4589.1054351346283511
 21
253.9222119804331896
 31
0.0
  0
LINE
  5
2334C
  8
0
 10
4589.1054299301267747
 20
254.0562242936331927
 30
0.0
 11
4589.1054293945271638
 21
254.0700143920331868
 31
0.0
  0
LINE
  5
2334D
  8
0
 10
4589.1054289358280585
 20
254.0818254156332046
 30
0.0
 11
4589.105427101027999
 21
254.1290695100331902
 31
0.0
  0
LINE
  5
2334E
  8
0
 10
4589.105421521127937
 20
254.2727492871331947
 30
0.0
 11
4589.1054202206278205
 21
254.3062348639332129
 31
0.0
  0
LINE
  5
2334F
  8
0
 10
4589.1054197619268962
 20
254.3180458875332022
 30
0.0
 11
4589.1054183148280572
 21
254.3553091703331859
 31
0.0
  0
LINE
  5
23350
  8
0
 10
4589.1054128815276272
 20
254.4952112414331964
 30
0.0
 11
4589.1054110467293867
 21
254.5424553358332105
 31
0.0
  0
LINE
  5
23351
  8
0
 10
4589.1054105880275529
 20
254.5542663594331998
 30
0.0
 11
4589.1054099049270008
 21
254.5718572913332025
 31
0.0
  0
LINE
  5
23352
  8
0
 10
4589.1054047026273111
 20
254.7058126541332115
 30
0.0
 11
4589.1054041663273892
 21
254.7196206897332047
 31
0.0
  0
LINE
  5
23353
  8
0
 10
4589.1054037076282839
 20
254.731431713333194
 30
0.0
 11
4589.1054018728282244
 21
254.7786758077332081
 31
0.0
  0
LINE
  5
23354
  8
0
 10
4589.1053962923269864
 20
254.9223711780331882
 30
0.0
 11
4589.105394992428046
 21
254.9558411616332023
 31
0.0
  0
LINE
  5
23355
  8
0
 10
4589.1053945337280311
 20
254.9676521852331916
 30
0.0
 11
4589.1053930853267957
 21
255.0049467909331895
 31
0.0
  0
LINE
  5
23356
  8
0
 10
4589.1053876533278526
 20
255.1448175391331858
 30
0.0
 11
4589.1053858185277932
 21
255.1920616335331999
 31
0.0
  0
LINE
  5
23357
  8
0
 10
4589.1053853598277783
 20
255.2038726571331893
 30
0.0
 11
4589.1053846750282901
 21
255.2215054659332054
 31
0.0
  0
LINE
  5
23358
  8
0
 10
4589.1053794734280018
 20
255.3554447514331969
 30
0.0
 11
4589.1053789381276147
 21
255.3692269874331942
 31
0.0
  0
LINE
  5
23359
  8
0
 10
4589.1053784794294188
 20
255.3810380110332119
 30
0.0
 11
4589.1053766446284499
 21
255.4282821054331976
 31
0.0
  0
LINE
  5
2335A
  8
0
 10
4589.1497707916269064
 20
255.4282847322332088
 30
0.0
 11
4589.1497726264269659
 21
255.3810406379332107
 31
0.0
  0
LINE
  5
2335B
  8
0
 10
4589.1497730851278902
 20
255.369229614333193
 30
0.0
 11
4589.1497736203282329
 21
255.3554478505332099
 31
0.0
  0
LINE
  5
2335C
  8
0
 10
4589.1497788247279459
 20
255.2214375656332095
 30
0.0
 11
4589.1497795068280539
 21
255.2038752839332005
 31
0.0
  0
LINE
  5
2335D
  8
0
 10
4589.1497799655280687
 20
255.1920642603332112
 30
0.0
 11
4589.1497818003281282
 21
255.1448201660332131
 31
0.0
  0
LINE
  5
2335E
  8
0
 10
4589.1497872343279596
 20
255.0048970881331911
 30
0.0
 11
4589.1497886807283066
 21
254.9676548120332029
 31
0.0
  0
LINE
  5
2335F
  8
0
 10
4589.149789139429231
 20
254.9558437884332136
 30
0.0
 11
4589.1497904395282603
 21
254.9223673088332021
 31
0.0
  0
LINE
  5
23360
  8
0
 10
4589.1497960198275905
 20
254.778678434533191
 30
0.0
 11
4589.1497978546276499
 21
254.7314343401332053
 31
0.0
  0
LINE
  5
23361
  8
0
 10
4589.1497983133276648
 20
254.7196233165331876
 30
0.0
 11
4589.1497988495284517
 21
254.7058158892332074
 31
0.0
  0
LINE
  5
23362
  8
0
 10
4589.1498040544283867
 20
254.571794059833195
 30
0.0
 11
4589.1498047350278284
 21
254.5542689862332111
 31
0.0
  0
LINE
  5
23363
  8
0
 10
4589.1498051937269338
 20
254.5424579626331933
 30
0.0
 11
4589.1498070285279027
 21
254.4952138682332077
 31
0.0
  0
LINE
  5
23364
  8
0
 10
4589.1498124643276242
 20
254.3552453948331902
 30
0.0
 11
4589.1498139089271717
 21
254.3180485143332135
 31
0.0
  0
LINE
  5
23365
  8
0
 10
4589.1498143676280961
 20
254.3062374907331957
 30
0.0
 11
4589.1498156677271254
 21
254.2727593625332076
 31
0.0
  0
LINE
  5
23366
  8
0
 10
4589.1498212480282746
 20
254.1290721368332015
 30
0.0
 11
4589.149823082828334
 21
254.0818280424331874
 31
0.0
  0
LINE
  5
23367
  8
0
 10
4589.1498235415283489
 20
254.0700170188331981
 30
0.0
 11
4589.1498240770279153
 21
254.0562281169331982
 31
0.0
  0
LINE
  5
23368
  8
0
 10
4589.1498292840278737
 20
253.9221517403331916
 30
0.0
 11
4589.149829963227603
 21
253.9046626885331932
 31
0.0
  0
LINE
  5
23369
  8
0
 10
4589.1498304219276179
 20
253.8928516649332039
 30
0.0
 11
4589.1498322567276773
 21
253.8456075705331898
 31
0.0
  0
LINE
  5
2336A
  8
0
 10
4589.160930793427724
 20
253.8456082272332139
 30
0.0
 11
4589.1609289586276645
 21
253.8928523216331996
 31
0.0
  0
LINE
  5
2336B
  8
0
 10
4589.1609284999276497
 20
253.9046633452331889
 30
0.0
 11
4589.1609278214282313
 21
253.9221352805332117
 31
0.0
  0
LINE
  5
2336C
  8
0
 10
4589.160922613727962
 20
254.0562285686332018
 30
0.0
 11
4589.1609220782283955
 21
254.0700176755331938
 31
0.0
  0
LINE
  5
2336D
  8
0
 10
4589.1609216195283807
 20
254.0818286991332116
 30
0.0
 11
4589.1609197847283212
 21
254.1290727935331972
 31
0.0
  0
LINE
  5
2336E
  8
0
 10
4589.1609142043271277
 20
254.2727638872331966
 30
0.0
 11
4589.1609129043281428
 21
254.3062381474331914
 31
0.0
  0
LINE
  5
2336F
  8
0
 10
4589.1609124456281279
 20
254.3180491710332092
 30
0.0
 11
4589.1609110017270723
 21
254.3552293921331966
 31
0.0
  0
LINE
  5
23370
  8
0
 10
4589.1609055652279494
 20
254.495214525033191
 30
0.0
 11
4589.1609037304269805
 21
254.5424586193331891
 31
0.0
  0
LINE
  5
23371
  8
0
 10
4589.1609032717278751
 20
254.5542696429332068
 30
0.0
 11
4589.1609025918269253
 21
254.5717782519332104
 31
0.0
  0
LINE
  5
23372
  8
0
 10
4589.1608973861284539
 20
254.7058204515332136
 30
0.0
 11
4589.160896850026802
 21
254.7196239733331993
 31
0.0
  0
LINE
  5
23373
  8
0
 10
4589.1608963913267871
 20
254.7314349969331886
 30
0.0
 11
4589.1608945565276372
 21
254.7786790912331867
 31
0.0
  0
LINE
  5
23374
  8
0
 10
4589.1608889763283514
 20
254.9223663415332055
 30
0.0
 11
4589.1608876761283682
 21
254.9558444452331969
 31
0.0
  0
LINE
  5
23375
  8
0
 10
4589.1608872174283533
 20
254.9676554687331986
 30
0.0
 11
4589.1608857718283616
 21
255.0048783221332087
 31
0.0
  0
LINE
  5
23376
  8
0
 10
4589.1608803370281748
 20
255.1448208227332088
 30
0.0
 11
4589.1608785022281154
 21
255.1920649170332069
 31
0.0
  0
LINE
  5
23377
  8
0
 10
4589.1608780435281005
 20
255.2038759406331963
 30
0.0
 11
4589.1608773622283479
 21
255.2214197795331927
 31
0.0
  0
LINE
  5
23378
  8
0
 10
4589.1608721570282796
 20
255.3554486253331959
 30
0.0
 11
4589.1608716218270274
 21
255.3692302710331887
 31
0.0
  0
LINE
  5
23379
  8
0
 10
4589.1608711631270126
 20
255.3810412946332065
 30
0.0
 11
4589.1608693283278626
 21
255.4282853889332046
 31
0.0
  0
LINE
  5
2337A
  8
0
 10
4589.2052634753281382
 20
255.4282880158332034
 30
0.0
 11
4589.2052653101281976
 21
255.3810439214331893
 31
0.0
  0
LINE
  5
2337B
  8
0
 10
4589.2052657688282125
 20
255.3692328978332
 30
0.0
 11
4589.2052663040285552
 21
255.3554509944331983
 31
0.0
  0
LINE
  5
2337C
  8
0
 10
4589.2052715120271387
 20
255.2213486349332072
 30
0.0
 11
4589.2052721905283761
 21
255.2038785675331951
 31
0.0
  0
LINE
  5
2337D
  8
0
 10
4589.2052726492293004
 20
255.1920675439332058
 30
0.0
 11
4589.2052744840293599
 21
255.1448234495331917
 31
0.0
  0
LINE
  5
2337E
  8
0
 10
4589.2052799218281507
 20
255.0048032581331938
 30
0.0
 11
4589.2052813644268099
 21
254.9676580956331975
 31
0.0
  0
LINE
  5
2337F
  8
0
 10
4589.2052818231277342
 20
254.9558470720332082
 30
0.0
 11
4589.2052831235268968
 21
254.9223624723331909
 31
0.0
  0
LINE
  5
23380
  8
0
 10
4589.2052887035270032
 20
254.778681718133214
 30
0.0
 11
4589.2052905383279722
 21
254.7314376237331999
 31
0.0
  0
LINE
  5
23381
  8
0
 10
4589.205290997027987
 20
254.7196266001332106
 30
0.0
 11
4589.2052915324293281
 21
254.7058387506332053
 31
0.0
  0
LINE
  5
23382
  8
0
 10
4589.2052967413292208
 20
254.5717150203331869
 30
0.0
 11
4589.2052974187281507
 21
254.5542722698332057
 31
0.0
  0
LINE
  5
23383
  8
0
 10
4589.2052978774281655
 20
254.5424612462331879
 30
0.0
 11
4589.2052997122291345
 21
254.4952171518332023
 31
0.0
  0
LINE
  5
23384
  8
0
 10
4589.2053051512275488
 20
254.3551653814332099
 30
0.0
 11
4589.2053065926284035
 21
254.318051797933208
 31
0.0
  0
LINE
  5
23385
  8
0
 10
4589.2053070513293278
 20
254.3062407743331903
 30
0.0
 11
4589.2053083507271367
 21
254.272781985933193
 31
0.0
  0
LINE
  5
23386
  8
0
 10
4589.2053139317267778
 20
254.1290754204331961
 30
0.0
 11
4589.2053157665277467
 21
254.0818313260332104
 31
0.0
  0
LINE
  5
23387
  8
0
 10
4589.2053162252268521
 20
254.0700203024331927
 30
0.0
 11
4589.2053167607282376
 21
254.0562303755332039
 31
0.0
  0
LINE
  5
23388
  8
0
 10
4589.2053219711269776
 20
253.9220664516332135
 30
0.0
 11
4589.2053226469279252
 21
253.9046659721331878
 31
0.0
  0
LINE
  5
23389
  8
0
 10
4589.2053231056279401
 20
253.8928549485331985
 30
0.0
 11
4589.2053249404279995
 21
253.8456108541332128
 31
0.0
  0
LINE
  5
2338A
  8
0
 10
4589.2164234771280462
 20
253.8456115108332085
 30
0.0
 11
4589.2164216423279868
 21
253.8928556052331942
 31
0.0
  0
LINE
  5
2338B
  8
0
 10
4589.2164211836270624
 20
253.9046666288332119
 30
0.0
 11
4589.2164205086282891
 21
253.9220492443332091
 31
0.0
  0
LINE
  5
2338C
  8
0
 10
4589.2164152975283287
 20
254.0562308272332075
 30
0.0
 11
4589.2164147619268988
 21
254.0700209591331884
 31
0.0
  0
LINE
  5
2338D
  8
0
 10
4589.2164143032277934
 20
254.0818319827332061
 30
0.0
 11
4589.2164124684268245
 21
254.1290760771331918
 31
0.0
  0
LINE
  5
2338E
  8
0
 10
4589.216406887327139
 20
254.2727865106332104
 30
0.0
 11
4589.2164055880275555
 21
254.306241431033186
 31
0.0
  0
LINE
  5
2338F
  8
0
 10
4589.2164051293284501
 20
254.3180524546332038
 30
0.0
 11
4589.2164036886269969
 21
254.3551493788332039
 31
0.0
  0
LINE
  5
23390
  8
0
 10
4589.2163982489282716
 20
254.495217808533198
 30
0.0
 11
4589.2163964141282122
 21
254.5424619029332121
 31
0.0
  0
LINE
  5
23391
  8
0
 10
4589.2163959554272878
 20
254.5542729265332014
 30
0.0
 11
4589.2163952787277594
 21
254.5716992124332023
 31
0.0
  0
LINE
  5
23392
  8
0
 10
4589.2163900690293303
 20
254.7058433254331931
 30
0.0
 11
4589.2163895337280337
 21
254.7196272568332063
 31
0.0
  0
LINE
  5
23393
  8
0
 10
4589.2163890750280189
 20
254.7314382804331956
 30
0.0
 11
4589.2163872402270499
 21
254.7786823748332097
 31
0.0
  0
LINE
  5
23394
  8
0
 10
4589.2163816603269879
 20
254.9223615050331944
 30
0.0
 11
4589.2163803598277809
 21
254.9558477287332039
 31
0.0
  0
LINE
  5
23395
  8
0
 10
4589.2163799011268566
 20
254.9676587523331932
 30
0.0
 11
4589.2163784593285527
 21
255.0047844921332114
 31
0.0
  0
LINE
  5
23396
  8
0
 10
4589.2163730207275876
 20
255.1448241062331874
 30
0.0
 11
4589.2163711859284376
 21
255.1920682006332015
 31
0.0
  0
LINE
  5
23397
  8
0
 10
4589.2163707272266038
 20
255.2038792242331908
 30
0.0
 11
4589.2163700495293597
 21
255.2213308487332029
 31
0.0
  0
LINE
  5
23398
  8
0
 10
4589.2163648408277368
 20
255.3554497914331876
 30
0.0
 11
4589.2163643055282591
 21
255.3692335545331957
 31
0.0
  0
LINE
  5
23399
  8
0
 10
4589.2163638468282443
 20
255.3810445781332135
 30
0.0
 11
4589.2163620120281848
 21
255.4282886725331139
 31
0.0
  0
LINE
  5
2339A
  8
0
 10
4589.2607561590293699
 20
255.4282912993332104
 30
0.0
 11
4589.2607579938276103
 21
255.3810472049331111
 31
0.0
  0
LINE
  5
2339B
  8
0
 10
4589.2607584525276252
 20
255.369236181333207
 30
0.0
 11
4589.2607589881272361
 21
255.355444979233198
 31
0.0
  0
LINE
  5
2339C
  8
0
 10
4589.2607641993281504
 20
255.2212589700332046
 30
0.0
 11
4589.2607648742277888
 21
255.2038818510332021
 31
0.0
  0
LINE
  5
2339D
  8
0
 10
4589.2607653329278037
 20
255.1920708274332128
 30
0.0
 11
4589.2607671677278631
 21
255.1448267331331863
 31
0.0
  0
LINE
  5
2339E
  8
0
 10
4589.2607726093274323
 20
255.0047094281331965
 30
0.0
 11
4589.2607740481280416
 21
254.9676613791332045
 31
0.0
  0
LINE
  5
2339F
  8
0
 10
4589.2607745068280565
 20
254.9558503555331868
 30
0.0
 11
4589.260775807328173
 21
254.9223619607332125
 31
0.0
  0
LINE
  5
233A0
  8
0
 10
4589.260781387228235
 20
254.7786850016331925
 30
0.0
 11
4589.2607832220282944
 21
254.7314409072332069
 31
0.0
  0
LINE
  5
233A1
  8
0
 10
4589.2607836807283093
 20
254.7196298836331891
 30
0.0
 11
4589.2607842154284299
 21
254.7058598536331999
 31
0.0
  0
LINE
  5
233A2
  8
0
 10
4589.2607894287275485
 20
254.5716216723332082
 30
0.0
 11
4589.2607901024275634
 21
254.5542755533332127
 31
0.0
  0
LINE
  5
233A3
  8
0
 10
4589.2607905611275783
 20
254.5424645297331949
 30
0.0
 11
4589.2607923959276377
 21
254.4952204353332093
 31
0.0
  0
LINE
  5
233A4
  8
0
 10
4589.2607978387268304
 20
254.3550730216331885
 30
0.0
 11
4589.2607992763278162
 21
254.3180550814331866
 31
0.0
  0
LINE
  5
233A5
  8
0
 10
4589.260799735027831
 20
254.306244057833112
 30
0.0
 11
4589.2608010348276366
 21
254.2727748718332066
 31
0.0
  0
LINE
  5
233A6
  8
0
 10
4589.2608066154280095
 20
254.1290787039332031
 30
0.0
 11
4589.2608084502271595
 21
254.081834609533189
 31
0.0
  0
LINE
  5
233A7
  8
0
 10
4589.2608089089271743
 20
254.0700235859331997
 30
0.0
 11
4589.2608094445267852
 21
254.0562326341332096
 31
0.0
  0
LINE
  5
233A8
  8
0
 10
4589.2608146585280338
 20
253.9219762743331898
 30
0.0
 11
4589.2608153306282475
 21
253.9046692556331948
 31
0.0
  0
LINE
  5
233A9
  8
0
 10
4589.2608157893282623
 20
253.8928582320332055
 30
0.0
 11
4589.2608176241283218
 21
253.8456141376331914
 31
0.0
  0
LINE
  5
233AA
  8
0
 10
4589.2719161608283684
 20
253.8456147943331871
 30
0.0
 11
4589.2719143260292185
 21
253.8928588887332012
 31
0.0
  0
LINE
  5
233AB
  8
0
 10
4589.2719138673282941
 20
253.9046699123331905
 30
0.0
 11
4589.2719131960284358
 21
253.9219555320331949
 31
0.0
  0
LINE
  5
233AC
  8
0
 10
4589.2719079812277414
 20
254.0562330858332132
 30
0.0
 11
4589.2719074456281305
 21
254.0700242426331954
 31
0.0
  0
LINE
  5
233AD
  8
0
 10
4589.2719069869281157
 20
254.0818352662332131
 30
0.0
 11
4589.2719051521280562
 21
254.1290793606331988
 31
0.0
  0
LINE
  5
233AE
  8
0
 10
4589.2718995717277721
 20
254.2727711063332094
 30
0.0
 11
4589.2718982717278777
 21
254.306244714533193
 31
0.0
  0
LINE
  5
233AF
  8
0
 10
4589.2718978130278629
 20
254.3180557381332108
 30
0.0
 11
4589.2718963762281419
 21
254.3550521549331904
 31
0.0
  0
LINE
  5
233B0
  8
0
 10
4589.2718909326276844
 20
254.4952210921331925
 30
0.0
 11
4589.2718890978294439
 21
254.5424651864331906
 31
0.0
  0
LINE
  5
233B1
  8
0
 10
4589.2718886391276101
 20
254.5542762100332084
 30
0.0
 11
4589.2718879663279949
 21
254.5716007560332059
 31
0.0
  0
LINE
  5
233B2
  8
0
 10
4589.2718827521275671
 20
254.7058636482331906
 30
0.0
 11
4589.2718822174283559
 21
254.7196305404332008
 31
0.0
  0
LINE
  5
233B3
  8
0
 10
4589.2718817587292506
 20
254.7314415639332026
 30
0.0
 11
4589.2718799239282816
 21
254.7786856583331883
 31
0.0
  0
LINE
  5
233B4
  8
0
 10
4589.2718743440282196
 20
254.9223647030331108
 30
0.0
 11
4589.2718730435281032
 21
254.9558510122332109
 31
0.0
  0
LINE
  5
233B5
  8
0
 10
4589.2718725848280883
 20
254.9676620358332002
 30
0.0
 11
4589.2718711468269248
 21
255.0046906621332141
 31
0.0
  0
LINE
  5
233B6
  8
0
 10
4589.2718657044279098
 20
255.1448273898332104
 30
0.0
 11
4589.2718638696278504
 21
255.1920714841332085
 31
0.0
  0
LINE
  5
233B7
  8
0
 10
4589.271863410926926
 20
255.2038825077331978
 30
0.0
 11
4589.2718627369276874
 21
255.221239030033189
 31
0.0
  0
LINE
  5
233B8
  8
0
 10
4589.2718575249282367
 20
255.3554437762331872
 30
0.0
 11
4589.2718569892267624
 21
255.3692368381331903
 31
0.0
  0
LINE
  5
233B9
  8
0
 10
4589.271856530527657
 20
255.381047861733208
 30
0.0
 11
4589.2718546957275976
 21
255.4282919560332061
 31
0.0
  0
LINE
  5
233BA
  8
0
 10
4589.3162488427269636
 20
255.428294582933205
 30
0.0
 11
4589.3162506775279326
 21
255.3810504885331909
 31
0.0
  0
LINE
  5
233BB
  8
0
 10
4589.3162511362270379
 20
255.3692394649332016
 30
0.0
 11
4589.3162516721267821
 21
255.3554389640331976
 31
0.0
  0
LINE
  5
233BC
  8
0
 10
4589.3162568870293399
 20
255.2211592699331959
 30
0.0
 11
4589.3162575579281111
 21
255.2038851346331967
 31
0.0
  0
LINE
  5
233BD
  8
0
 10
4589.3162580166281259
 20
255.1920741110332074
 30
0.0
 11
4589.3162598514281854
 21
255.1448300166331933
 31
0.0
  0
LINE
  5
233BE
  8
0
 10
4589.3162652968294424
 20
255.0046155981331992
 30
0.0
 11
4589.3162667318283638
 21
254.9676646627331991
 31
0.0
  0
LINE
  5
233BF
  8
0
 10
4589.3162671905283787
 20
254.9558536391332098
 30
0.0
 11
4589.316268490629227
 21
254.9223756720332119
 31
0.0
  0
LINE
  5
233C0
  8
0
 10
4589.3162740709276477
 20
254.7786882852331871
 30
0.0
 11
4589.3162759057267976
 21
254.7314441908332014
 31
0.0
  0
LINE
  5
233C1
  8
0
 10
4589.3162763644268125
 20
254.7196331672332121
 30
0.0
 11
4589.3162768985275761
 21
254.7058788265331941
 31
0.0
  0
LINE
  5
233C2
  8
0
 10
4589.3162821166279173
 20
254.571517090833197
 30
0.0
 11
4589.3162827861278856
 21
254.5542788369332072
 31
0.0
  0
LINE
  5
233C3
  8
0
 10
4589.3162832448279005
 20
254.5424678133331895
 30
0.0
 11
4589.3162850796279599
 21
254.4952237189332038
 31
0.0
  0
LINE
  5
233C4
  8
0
 10
4589.3162905265280642
 20
254.3549686884331891
 30
0.0
 11
4589.3162919600272289
 21
254.3180583650332096
 31
0.0
  0
LINE
  5
233C5
  8
0
 10
4589.3162924187281533
 20
254.3062473414331919
 30
0.0
 11
4589.3162937193283142
 21
254.2727572883331959
 31
0.0
  0
LINE
  5
233C6
  8
0
 10
4589.3162992991283318
 20
254.1290819875331977
 30
0.0
 11
4589.3163011339283912
 21
254.081837893133212
 31
0.0
  0
LINE
  5
233C7
  8
0
 10
4589.3163015926284061
 20
254.0700268695331943
 30
0.0
 11
4589.316302128228017
 21
254.0562348927331868
 31
0.0
  0
LINE
  5
233C8
  8
0
 10
4589.3163073463292676
 20
253.9218725626332116
 30
0.0
 11
4589.3163080143267507
 21
253.9046725392331894
 31
0.0
  0
LINE
  5
233C9
  8
0
 10
4589.3163084730267656
 20
253.8928615156332
 30
0.0
 11
4589.3163103078277345
 21
253.845617421233186
 31
0.0
  0
LINE
  5
233CA
  8
0
 10
4589.3274088445268717
 20
253.8456180779332101
 30
0.0
 11
4589.3274070097277217
 21
253.8928621723331958
 31
0.0
  0
LINE
  5
233CB
  8
0
 10
4589.3274065510267974
 20
253.9046731959332135
 30
0.0
 11
4589.327405883927895
 21
253.9218518202332007
 31
0.0
  0
LINE
  5
233CC
  8
0
 10
4589.3274006649271541
 20
254.0562354238331864
 30
0.0
 11
4589.3274001293284527
 21
254.07002752623319
 31
0.0
  0
LINE
  5
233CD
  8
0
 10
4589.3273996706284379
 20
254.0818385498332077
 30
0.0
 11
4589.3273978358292879
 21
254.1290826442331934
 31
0.0
  0
LINE
  5
233CE
  8
0
 10
4589.3273922559283164
 20
254.2727605229331971
 30
0.0
 11
4589.3273909554272905
 21
254.3062479981331876
 31
0.0
  0
LINE
  5
233CF
  8
0
 10
4589.3273904967281851
 20
254.3180590217332053
 30
0.0
 11
4589.3273890641294201
 21
254.3549478217331909
 31
0.0
  0
LINE
  5
233D0
  8
0
 10
4589.3273836163270971
 20
254.4952243756331995
 30
0.0
 11
4589.3273817815279472
 21
254.5424684700332136
 31
0.0
  0
LINE
  5
233D1
  8
0
 10
4589.3273813228279323
 20
254.5542794936332029
 30
0.0
 11
4589.3273806542283637
 21
254.5714961745331948
 31
0.0
  0
LINE
  5
233D2
  8
0
 10
4589.3273754352276228
 20
254.7058817571331986
 30
0.0
 11
4589.3273749011268592
 21
254.7196338239332079
 31
0.0
  0
LINE
  5
233D3
  8
0
 10
4589.3273744424277538
 20
254.7314448475331972
 30
0.0
 11
4589.3273726076276944
 21
254.7786889419332113
 31
0.0
  0
LINE
  5
233D4
  8
0
 10
4589.3273670273283642
 20
254.9223784143331955
 30
0.0
 11
4589.3273657272266064
 21
254.9558542958332055
 31
0.0
  0
LINE
  5
233D5
  8
0
 10
4589.32736526852932
 20
254.9676653194331948
 30
0.0
 11
4589.3273638344280698
 21
255.0045939068332075
 31
0.0
  0
LINE
  5
233D6
  8
0
 10
4589.3273583881273225
 20
255.144830673333189
 30
0.0
 11
4589.3273565533290821
 21
255.1920747677332031
 31
0.0
  0
LINE
  5
233D7
  8
0
 10
4589.3273560946281577
 20
255.2038857913331924
 30
0.0
 11
4589.3273554246279673
 21
255.2211393299332087
 31
0.0
  0
LINE
  5
233D8
  8
0
 10
4589.3273502089277827
 20
255.3554398693331962
 30
0.0
 11
4589.3273496729270846
 21
255.3692401216331973
 31
0.0
  0
LINE
  5
233D9
  8
0
 10
4589.3273492142279792
 20
255.3810511452331866
 30
0.0
 11
4589.3273473794279198
 21
255.4282952396332007
 31
0.0
  0
LINE
  5
233DA
  8
0
 10
4589.3717415264281954
 20
255.428297866433212
 30
0.0
 11
4589.3717433612282548
 21
255.3810537720331979
 31
0.0
  0
LINE
  5
233DB
  8
0
 10
4589.3717438199282697
 20
255.3692427484332086
 30
0.0
 11
4589.3717443557279694
 21
255.3554457560331912
 31
0.0
  0
LINE
  5
233DC
  8
0
 10
4589.3717495747278008
 20
255.2210595699332032
 30
0.0
 11
4589.3717502416284333
 21
255.2038884181332037
 31
0.0
  0
LINE
  5
233DD
  8
0
 10
4589.3717507003293576
 20
255.192077394533186
 30
0.0
 11
4589.3717525351275981
 21
255.1448333001332003
 31
0.0
  0
LINE
  5
233DE
  8
0
 10
4589.3717579852291237
 20
255.0044971902331952
 30
0.0
 11
4589.3717594155268671
 21
254.9676679462332061
 31
0.0
  0
LINE
  5
233DF
  8
0
 10
4589.3717598742277914
 20
254.9558569226331883
 30
0.0
 11
4589.3717611739275526
 21
254.9223893833332113
 31
0.0
  0
LINE
  5
233E0
  8
0
 10
4589.3717667546279699
 20
254.7786915687331941
 30
0.0
 11
4589.3717685894280294
 21
254.7314474743332084
 31
0.0
  0
LINE
  5
233E1
  8
0
 10
4589.3717690481280442
 20
254.7196364507331907
 30
0.0
 11
4589.371769582628076
 21
254.7058722725332132
 31
0.0
  0
LINE
  5
233E2
  8
0
 10
4589.3717748048284193
 20
254.5714062830332125
 30
0.0
 11
4589.3717754698272984
 21
254.5542821204331858
 31
0.0
  0
LINE
  5
233E3
  8
0
 10
4589.3717759285282227
 20
254.5424710968331965
 30
0.0
 11
4589.3717777633282822
 21
254.4952270024332108
 31
0.0
  0
LINE
  5
233E4
  8
0
 10
4589.3717832147285662
 20
254.3548581705331912
 30
0.0
 11
4589.3717846437275512
 21
254.3180616485331882
 31
0.0
  0
LINE
  5
233E5
  8
0
 10
4589.371785102427566
 20
254.3062506249331989
 30
0.0
 11
4589.3717864025284143
 21
254.2727734615332054
 31
0.0
  0
LINE
  5
233E6
  8
0
 10
4589.371791982826835
 20
254.1290852710332047
 30
0.0
 11
4589.3717938176278039
 21
254.0818411766331906
 31
0.0
  0
LINE
  5
233E7
  8
0
 10
4589.3717942763278188
 20
254.0700301530332013
 30
0.0
 11
4589.3717948119283392
 21
254.0562388601331918
 31
0.0
  0
LINE
  5
233E8
  8
0
 10
4589.3718000345279506
 20
253.9217593877332035
 30
0.0
 11
4589.3718006980270729
 21
253.9046758227331964
 31
0.0
  0
LINE
  5
233E9
  8
0
 10
4589.3718029915280567
 20
253.845620704733193
 30
0.0
 11
4589.3718011567279973
 21
253.892864799133207
 31
0.0
  0
LINE
  5
233EA
  8
0
 10
4589.3829015282271939
 20
253.8456213614331887
 30
0.0
 11
4589.382899693428044
 21
253.8928654558332028
 31
0.0
  0
LINE
  5
233EB
  8
0
 10
4589.3828992347280291
 20
253.9046764794331921
 30
0.0
 11
4589.3828985722284415
 21
253.9217353223332054
 31
0.0
  0
LINE
  5
233EC
  8
0
 10
4589.3828933486283859
 20
254.05623971923319
 30
0.0
 11
4589.3828928130278655
 21
254.070030809733197
 31
0.0
  0
LINE
  5
233ED
  8
0
 10
4589.3828923543278506
 20
254.0818418333331863
 30
0.0
 11
4589.3828905195268817
 21
254.1290859277332004
 31
0.0
  0
LINE
  5
233EE
  8
0
 10
4589.3828849391284166
 20
254.2727766961332065
 30
0.0
 11
4589.3828836391276127
 21
254.3062512816331946
 31
0.0
  0
LINE
  5
233EF
  8
0
 10
4589.3828831804275978
 20
254.3180623052332123
 30
0.0
 11
4589.3828817524281476
 21
254.3548335029331895
 31
0.0
  0
LINE
  5
233F0
  8
0
 10
4589.3828763000283288
 20
254.4952276591332065
 30
0.0
 11
4589.3828744652282694
 21
254.5424717535331922
 31
0.0
  0
LINE
  5
233F1
  8
0
 10
4589.3828740065282545
 20
254.5542827771332099
 30
0.0
 11
4589.3828733425280006
 21
254.571382059733196
 31
0.0
  0
LINE
  5
233F2
  8
0
 10
4589.382868119527302
 20
254.7058699014332035
 30
0.0
 11
4589.3828675848280909
 21
254.7196371074331864
 31
0.0
  0
LINE
  5
233F3
  8
0
 10
4589.3828671261280761
 20
254.7314481310332042
 30
0.0
 11
4589.3828652913271071
 21
254.7786922254331898
 31
0.0
  0
LINE
  5
233F4
  8
0
 10
4589.3828597106275993
 20
254.9223921256331948
 30
0.0
 11
4589.3828584109269286
 21
254.9558575793332125
 31
0.0
  0
LINE
  5
233F5
  8
0
 10
4589.3828579522278233
 20
254.9676686029332018
 30
0.0
 11
4589.3828565229268861
 21
255.0044730111332001
 31
0.0
  0
LINE
  5
233F6
  8
0
 10
4589.3828510718276448
 20
255.144833956933212
 30
0.0
 11
4589.3828492370275853
 21
255.1920780512332101
 31
0.0
  0
LINE
  5
233F7
  8
0
 10
4589.3828487783293895
 20
255.2038890748331994
 30
0.0
 11
4589.3828481123282472
 21
255.2210396299331876
 31
0.0
  0
LINE
  5
233F8
  8
0
 10
4589.3828428924280161
 20
255.3554472276331921
 30
0.0
 11
4589.3828423566283163
 21
255.3692434052331919
 31
0.0
  0
LINE
  5
233F9
  8
0
 10
4589.3828418979283015
 20
255.3810544288332096
 30
0.0
 11
4589.382840063128242
 21
255.4282985231332077
 31
0.0
  0
LINE
  5
233FA
  8
0
 10
4589.4272342101294271
 20
255.4283011500332066
 30
0.0
 11
4589.427236044928577
 21
255.3810570556331925
 31
0.0
  0
LINE
  5
233FB
  8
0
 10
4589.4272365036267729
 20
255.3692460320332032
 30
0.0
 11
4589.4272370392272933
 21
255.3554531143331872
 31
0.0
  0
LINE
  5
233FC
  8
0
 10
4589.4272422631283916
 20
255.2209423146331915
 30
0.0
 11
4589.4272429253269365
 21
255.2038917017331983
 31
0.0
  0
LINE
  5
233FD
  8
0
 10
4589.4272433840278609
 20
255.1920806781332089
 30
0.0
 11
4589.4272452188279203
 21
255.1448365837331949
 31
0.0
  0
LINE
  5
233FE
  8
0
 10
4589.42725067372794
 20
255.0043762945331878
 30
0.0
 11
4589.4272520992280988
 21
254.9676712298332006
 31
0.0
  0
LINE
  5
233FF
  8
0
 10
4589.4272525579281137
 20
254.9558602062332113
 30
0.0
 11
4589.4272538576269653
 21
254.9223929242332076
 31
0.0
  0
LINE
  5
23400
  8
0
 10
4589.4272594383282922
 20
254.7786948523331887
 30
0.0
 11
4589.4272612731292611
 21
254.731450757933203
 31
0.0
  0
LINE
  5
23401
  8
0
 10
4589.4272617318283665
 20
254.7196397343332137
 30
0.0
 11
4589.4272622669268458
 21
254.7058604161331914
 31
0.0
  0
LINE
  5
23402
  8
0
 10
4589.4272674933281451
 20
254.5712851664331993
 30
0.0
 11
4589.4272681535276206
 21
254.5542854040332088
 31
0.0
  0
LINE
  5
23403
  8
0
 10
4589.4272686122294544
 20
254.5424743804331911
 30
0.0
 11
4589.4272704470276949
 21
254.4952302860332054
 31
0.0
  0
LINE
  5
23404
  8
0
 10
4589.4272759033283364
 20
254.3547348328332021
 30
0.0
 11
4589.4272773274278734
 21
254.3180649321332112
 31
0.0
  0
LINE
  5
23405
  8
0
 10
4589.4272777861278882
 20
254.3062539085331935
 30
0.0
 11
4589.4272790859267843
 21
254.2727837325332132
 31
0.0
  0
LINE
  5
23406
  8
0
 10
4589.4272846665280667
 20
254.1290885545332117
 30
0.0
 11
4589.4272865013290357
 21
254.0818444602332136
 31
0.0
  0
LINE
  5
23407
  8
0
 10
4589.4272869600272315
 20
254.0700334366331958
 30
0.0
 11
4589.427287495526798
 21
254.0562431555331955
 31
0.0
  0
LINE
  5
23408
  8
0
 10
4589.4272927231277208
 20
253.9216387847332044
 30
0.0
 11
4589.4272933817283047
 21
253.9046791063331909
 31
0.0
  0
LINE
  5
23409
  8
0
 10
4589.427293840429229
 20
253.8928680827332016
 30
0.0
 11
4589.427295675228379
 21
253.8456239883331875
 31
0.0
  0
LINE
  5
2340A
  8
0
 10
4589.4383942119284256
 20
253.8456246450332117
 30
0.0
 11
4589.4383923771283662
 21
253.8928687394331973
 31
0.0
  0
LINE
  5
2340B
  8
0
 10
4589.4383919184283513
 20
253.9046797630331866
 30
0.0
 11
4589.4383912609282561
 21
253.9216119980331996
 31
0.0
  0
LINE
  5
2340C
  8
0
 10
4589.4383860323277986
 20
254.0562440146331937
 30
0.0
 11
4589.4383854967281877
 21
254.0700340933331915
 31
0.0
  0
LINE
  5
2340D
  8
0
 10
4589.4383850380281729
 20
254.0818451169332093
 30
0.0
 11
4589.4383832032281134
 21
254.129089211333195
 31
0.0
  0
LINE
  5
2340E
  8
0
 10
4589.4383776227277849
 20
254.2727849509331861
 30
0.0
 11
4589.4383763228279349
 21
254.3062545652331892
 31
0.0
  0
LINE
  5
2340F
  8
0
 10
4589.4383758641279201
 20
254.3180655888332069
 30
0.0
 11
4589.4383744410270083
 21
254.3547101652332003
 31
0.0
  0
LINE
  5
23410
  8
0
 10
4589.4383689837268321
 20
254.4952309427332011
 30
0.0
 11
4589.4383671489276821
 21
254.5424750371331868
 31
0.0
  0
LINE
  5
23411
  8
0
 10
4589.4383666902276673
 20
254.5542860607332045
 30
0.0
 11
4589.4383660310277264
 21
254.5712609431332112
 31
0.0
  0
LINE
  5
23412
  8
0
 10
4589.4383608038278908
 20
254.7058580087332018
 30
0.0
 11
4589.4383602685293226
 21
254.7196403910332094
 31
0.0
  0
LINE
  5
23413
  8
0
 10
4589.4383598098283983
 20
254.7314514146331987
 30
0.0
 11
4589.4383579750283388
 21
254.7786955090332128
 31
0.0
  0
LINE
  5
23414
  8
0
 10
4589.4383523944270564
 20
254.9223927051332055
 30
0.0
 11
4589.4383510946281604
 21
254.955860862933207
 31
0.0
  0
LINE
  5
23415
  8
0
 10
4589.4383506359281455
 20
254.9676718865331964
 30
0.0
 11
4589.4383492114293404
 21
255.0043521154331927
 31
0.0
  0
LINE
  5
23416
  8
0
 10
4589.438343755527967
 20
255.1448372404331906
 30
0.0
 11
4589.4383419207279076
 21
255.1920813348332047
 31
0.0
  0
LINE
  5
23417
  8
0
 10
4589.4383414620269832
 20
255.203892358433194
 30
0.0
 11
4589.4383408009280174
 21
255.2209152328331925
 31
0.0
  0
LINE
  5
23418
  8
0
 10
4589.4383355759282495
 20
255.3554545982331945
 30
0.0
 11
4589.4383350403277291
 21
255.3692466887331989
 31
0.0
  0
LINE
  5
23419
  8
0
 10
4589.4383345816277142
 20
255.3810577123331882
 30
0.0
 11
4589.4383327468267453
 21
255.4283018067332023
 31
0.0
  0
LINE
  5
2341A
  8
0
 10
4589.4827268938279303
 20
255.4283044335332136
 30
0.0
 11
4589.4827287286279898
 21
255.3810603391331995
 31
0.0
  0
LINE
  5
2341B
  8
0
 10
4589.4827291873280046
 20
255.3692493155332102
 30
0.0
 11
4589.4827297227284362
 21
255.3554617318332021
 31
0.0
  0
LINE
  5
2341C
  8
0
 10
4589.4827349522292934
 20
255.2208069057332125
 30
0.0
 11
4589.4827356090281683
 21
255.2038949852332053
 31
0.0
  0
LINE
  5
2341D
  8
0
 10
4589.4827360677281831
 20
255.1920839616331875
 30
0.0
 11
4589.4827379025273331
 21
255.1448398672332019
 31
0.0
  0
LINE
  5
2341E
  8
0
 10
4589.4827433622276658
 20
255.0042553988332088
 30
0.0
 11
4589.482744782928421
 21
254.9676745133332076
 31
0.0
  0
LINE
  5
2341F
  8
0
 10
4589.4827452416284359
 20
254.9558634897331899
 30
0.0
 11
4589.4827465415282859
 21
254.9223918288332129
 31
0.0
  0
LINE
  5
23420
  8
0
 10
4589.4827521220277049
 20
254.7786981358331957
 30
0.0
 11
4589.4827539568268548
 21
254.73145404143321
 31
0.0
  0
LINE
  5
23421
  8
0
 10
4589.4827544155268697
 20
254.7196430178331923
 30
0.0
 11
4589.482754951228344
 21
254.7058483793331902
 31
0.0
  0
LINE
  5
23422
  8
0
 10
4589.4827601821280041
 20
254.5711564219332104
 30
0.0
 11
4589.4827608372279428
 21
254.5542886875331874
 31
0.0
  0
LINE
  5
23423
  8
0
 10
4589.4827612959279577
 20
254.5424776639331981
 30
0.0
 11
4589.4827631307271076
 21
254.4952335695332124
 31
0.0
  0
LINE
  5
23424
  8
0
 10
4589.4827685921281955
 20
254.354605343133187
 30
0.0
 11
4589.4827700111281956
 21
254.3180682156331898
 31
0.0
  0
LINE
  5
23425
  8
0
 10
4589.482770469827301
 20
254.3062571920332005
 30
0.0
 11
4589.4827717695270621
 21
254.272789690833207
 31
0.0
  0
LINE
  5
23426
  8
0
 10
4589.482777350228389
 20
254.1290918381332062
 30
0.0
 11
4589.4827791850284484
 21
254.0818477437331921
 31
0.0
  0
LINE
  5
23427
  8
0
 10
4589.4827796437275538
 20
254.0700367201332028
 30
0.0
 11
4589.4827801792280297
 21
254.0562474509331992
 31
0.0
  0
LINE
  5
23428
  8
0
 10
4589.4827854121285782
 20
253.9215048513331965
 30
0.0
 11
4589.4827860654277174
 21
253.9046823898331979
 31
0.0
  0
LINE
  5
23429
  8
0
 10
4589.4827865241268228
 20
253.8928713662332086
 30
0.0
 11
4589.4827883589268822
 21
253.8456272718331093
 31
0.0
  0
LINE
  5
2342A
  8
0
 10
4589.4938868956278384
 20
253.8456279285331902
 30
0.0
 11
4589.4938850608277789
 21
253.8928720229332043
 31
0.0
  0
LINE
  5
2342B
  8
0
 10
4589.4938846021268546
 20
253.9046830465331936
 30
0.0
 11
4589.4938839499282039
 21
253.9214780646331917
 31
0.0
  0
LINE
  5
2342C
  8
0
 10
4589.4938787159280764
 20
254.0562483100331974
 30
0.0
 11
4589.4938781804276005
 21
254.0700373768331986
 31
0.0
  0
LINE
  5
2342D
  8
0
 10
4589.4938777217275856
 20
254.0818484004331879
 30
0.0
 11
4589.4938758869293451
 21
254.129092494833202
 31
0.0
  0
LINE
  5
2342E
  8
0
 10
4589.4938703063280627
 20
254.2727905337332004
 30
0.0
 11
4589.4938690065282572
 21
254.3062578487331962
 31
0.0
  0
LINE
  5
2342F
  8
0
 10
4589.4938685478282423
 20
254.3180688723332139
 30
0.0
 11
4589.4938671301279101
 21
254.354575283933201
 31
0.0
  0
LINE
  5
23430
  8
0
 10
4589.4938616674280638
 20
254.4952342262332081
 30
0.0
 11
4589.4938598326280044
 21
254.5424783206331938
 31
0.0
  0
LINE
  5
23431
  8
0
 10
4589.4938593739279895
 20
254.5542893442332115
 30
0.0
 11
4589.4938587200276743
 21
254.5711266692331947
 31
0.0
  0
LINE
  5
23432
  8
0
 10
4589.49385348812757
 20
254.7058459719332006
 30
0.0
 11
4589.4938529522278259
 21
254.719643674533188
 31
0.0
  0
LINE
  5
23433
  8
0
 10
4589.493852493527811
 20
254.7314546981332057
 30
0.0
 11
4589.4938506587277516
 21
254.7786987925331914
 31
0.0
  0
LINE
  5
23434
  8
0
 10
4589.4938450783292865
 20
254.9223916097332108
 30
0.0
 11
4589.4938437783293921
 21
254.955864146433214
 31
0.0
  0
LINE
  5
23435
  8
0
 10
4589.4938433196293772
 20
254.9676751700332034
 30
0.0
 11
4589.4938418999281566
 21
255.0042312196331977
 31
0.0
  0
LINE
  5
23436
  8
0
 10
4589.4938364392282892
 20
255.1448405240332136
 30
0.0
 11
4589.4938346044282298
 21
255.1920846183332117
 31
0.0
  0
LINE
  5
23437
  8
0
 10
4589.4938341457282149
 20
255.203895641933201
 30
0.0
 11
4589.4938334900280097
 21
255.2207798239332135
 31
0.0
  0
LINE
  5
23438
  8
0
 10
4589.4938282594293923
 20
255.3554635152331969
 30
0.0
 11
4589.4938277240280513
 21
255.3692499723331935
 31
0.0
  0
LINE
  5
23439
  8
0
 10
4589.4938272653280364
 20
255.3810609958331952
 30
0.0
 11
4589.493825430527977
 21
255.4283050902332093
 31
0.0
  0
LINE
  5
2343A
  8
0
 10
4589.5382195775282526
 20
255.4283077171332081
 30
0.0
 11
4589.538221412328312
 21
255.3810636227331941
 31
0.0
  0
LINE
  5
2343B
  8
0
 10
4589.5382218710283269
 20
255.3692525991332047
 30
0.0
 11
4589.5382224062277601
 21
255.3554706488332045
 31
0.0
  0
LINE
  5
2343C
  8
0
 10
4589.5382276413292857
 20
255.2206714967331891
 30
0.0
 11
4589.538228292727581
 21
255.2038982688331998
 31
0.0
  0
LINE
  5
2343D
  8
0
 10
4589.5382287514275959
 20
255.1920872452332105
 30
0.0
 11
4589.5382305862267458
 21
255.1448431508331964
 31
0.0
  0
LINE
  5
2343E
  8
0
 10
4589.5382360516277913
 20
255.0041128217332016
 30
0.0
 11
4589.5382374666269243
 21
254.9676777969332022
 31
0.0
  0
LINE
  5
2343F
  8
0
 10
4589.5382379253269391
 20
254.9558667733332129
 30
0.0
 11
4589.5382392253268335
 21
254.9223919634331992
 31
0.0
  0
LINE
  5
23440
  8
0
 10
4589.5382448057280271
 20
254.7787014194331903
 30
0.0
 11
4589.5382466405280866
 21
254.7314573250332046
 31
0.0
  0
LINE
  5
23441
  8
0
 10
4589.5382470992281014
 20
254.7196463014331869
 30
0.0
 11
4589.5382476355280232
 21
254.7058363424332015
 31
0.0
  0
LINE
  5
23442
  8
0
 10
4589.5382528717291279
 20
254.5710076585332047
 30
0.0
 11
4589.5382535209282651
 21
254.5542919711332104
 31
0.0
  0
LINE
  5
23443
  8
0
 10
4589.5382539796282799
 20
254.5424809475331926
 30
0.0
 11
4589.5382558144283394
 21
254.495236853133207
 31
0.0
  0
LINE
  5
23444
  8
0
 10
4589.5382612818293637
 20
254.3544550472331878
 30
0.0
 11
4589.5382626948276084
 21
254.3180714992332128
 31
0.0
  0
LINE
  5
23445
  8
0
 10
4589.5382631535276232
 20
254.306260475633195
 30
0.0
 11
4589.5382644532282939
 21
254.2727939053332022
 31
0.0
  0
LINE
  5
23446
  8
0
 10
4589.5382700339268922
 20
254.1290951216332132
 30
0.0
 11
4589.5382718687278611
 21
254.0818510273331867
 31
0.0
  0
LINE
  5
23447
  8
0
 10
4589.538272327427876
 20
254.0700400037331974
 30
0.0
 11
4589.5382728628283076
 21
254.0562527917331863
 31
0.0
  0
LINE
  5
23448
  8
0
 10
4589.5382781015268847
 20
253.9213612575331922
 30
0.0
 11
4589.5382787491271301
 21
253.9046856733332049
 31
0.0
  0
LINE
  5
23449
  8
0
 10
4589.5382792078280545
 20
253.8928746498332032
 30
0.0
 11
4589.5382810426281139
 21
253.8456305554331891
 31
0.0
  0
LINE
  5
2344A
  8
0
 10
4589.5493795793281606
 20
253.8456312121332132
 30
0.0
 11
4589.5493777445271917
 21
253.8928753065331989
 31
0.0
  0
LINE
  5
2344B
  8
0
 10
4589.5493772858280863
 20
253.9046863301331882
 30
0.0
 11
4589.5493766395284183
 21
253.9213297813332133
 31
0.0
  0
LINE
  5
2344C
  8
0
 10
4589.5493713995283542
 20
254.0562539652331964
 30
0.0
 11
4589.5493708641279227
 21
254.0700406604331931
 31
0.0
  0
LINE
  5
2344D
  8
0
 10
4589.5493704054269983
 20
254.0818516840332109
 30
0.0
 11
4589.5493685706278484
 21
254.1290957784331965
 31
0.0
  0
LINE
  5
2344E
  8
0
 10
4589.5493629899283405
 20
254.2727947482331956
 30
0.0
 11
4589.5493616902267604
 21
254.3062611323331907
 31
0.0
  0
LINE
  5
2344F
  8
0
 10
4589.549361231527655
 20
254.3180721559332085
 30
0.0
 11
4589.5493598197281244
 21
254.3544249881331893
 31
0.0
  0
LINE
  5
23450
  8
0
 10
4589.549354351128386
 20
254.4952375098332027
 30
0.0
 11
4589.5493525163283266
 21
254.5424816042331884
 31
0.0
  0
LINE
  5
23451
  8
0
 10
4589.5493520576283117
 20
254.5542926278332061
 30
0.0
 11
4589.5493514096278886
 21
254.570977905833189
 31
0.0
  0
LINE
  5
23452
  8
0
 10
4589.5493461722280699
 20
254.7058387403332063
 30
0.0
 11
4589.5493456359281481
 21
254.719646958133211
 31
0.0
  0
LINE
  5
23453
  8
0
 10
4589.5493451772281333
 20
254.7314579817332003
 30
0.0
 11
4589.5493433424289833
 21
254.778702076133186
 31
0.0
  0
LINE
  5
23454
  8
0
 10
4589.5493377620277897
 20
254.9223935131331871
 30
0.0
 11
4589.5493364620269858
 21
254.9558674300332086
 31
0.0
  0
LINE
  5
23455
  8
0
 10
4589.5493360033278805
 20
254.9676784536331979
 30
0.0
 11
4589.5493345896284154
 21
255.004081716533193
 31
0.0
  0
LINE
  5
23456
  8
0
 10
4589.5493291229267925
 20
255.1448438075331921
 30
0.0
 11
4589.5493272881276425
 21
255.1920879019332062
 31
0.0
  0
LINE
  5
23457
  8
0
 10
4589.5493268294294467
 20
255.2038989255331956
 30
0.0
 11
4589.5493261792280464
 21
255.2206412416331887
 31
0.0
  0
LINE
  5
23458
  8
0
 10
4589.5493209429278068
 20
255.3554724321332117
 30
0.0
 11
4589.5493204077283735
 21
255.3692532558332005
 31
0.0
  0
LINE
  5
23459
  8
0
 10
4589.5493199490283587
 20
255.3810642794331898
 30
0.0
 11
4589.5493181142292087
 21
255.4283083738332039
 31
0.0
  0
LINE
  5
2345A
  8
0
 10
4589.5783254670268434
 20
253.1272533906332001
 30
0.0
 11
4589.5783254670268434
 21
253.1311903985331924
 31
0.0
  0
LINE
  5
2345B
  8
0
 10
4589.5937122612285748
 20
255.4283110006331867
 30
0.0
 11
4589.5937140960277247
 21
255.3810669062332011
 31
0.0
  0
LINE
  5
2345C
  8
0
 10
4589.5937145547277396
 20
255.3692558826332117
 30
0.0
 11
4589.5937150898280379
 21
255.3554759343332137
 31
0.0
  0
LINE
  5
2345D
  8
0
 10
4589.5937203312278143
 20
255.2205150408331917
 30
0.0
 11
4589.5937209764269937
 21
255.2039015523332068
 31
0.0
  0
LINE
  5
2345E
  8
0
 10
4589.5937214351279181
 20
255.1920905287331891
 30
0.0
 11
4589.5937232699279775
 21
255.1448464343332034
 31
0.0
  0
LINE
  5
2345F
  8
0
 10
4589.5937287415281389
 20
255.0039572953332083
 30
0.0
 11
4589.593730150328156
 21
254.9676810804332092
 31
0.0
  0
LINE
  5
23460
  8
0
 10
4589.5937306090281709
 20
254.9558700568331915
 30
0.0
 11
4589.5937319088279764
 21
254.9223997119331955
 31
0.0
  0
LINE
  5
23461
  8
0
 10
4589.5937374894283494
 20
254.7787047029331973
 30
0.0
 11
4589.5937393242284088
 21
254.7314606085332116
 31
0.0
  0
LINE
  5
23462
  8
0
 10
4589.5937397829284237
 20
254.7196495849331939
 30
0.0
 11
4589.5937403187281234
 21
254.7058520800331962
 31
0.0
  0
LINE
  5
23463
  8
0
 10
4589.5937455614293867
 20
254.570856184333195
 30
0.0
 11
4589.5937462046267683
 21
254.554295254633189
 31
0.0
  0
LINE
  5
23464
  8
0
 10
4589.5937466633276927
 20
254.5424842310331996
 30
0.0
 11
4589.5937484981277521
 21
254.495240136633214
 31
0.0
  0
LINE
  5
23465
  8
0
 10
4589.593753971526894
 20
254.3543027494332023
 30
0.0
 11
4589.5937553785279306
 21
254.3180747827331913
 31
0.0
  0
LINE
  5
23466
  8
0
 10
4589.5937558372279454
 20
254.306263759133202
 30
0.0
 11
4589.5937571369277066
 21
254.2727978192332046
 31
0.0
  0
LINE
  5
23467
  8
0
 10
4589.5937627176281239
 20
254.1290984052332078
 30
0.0
 11
4589.5937645524281834
 21
254.0818543108331937
 31
0.0
  0
LINE
  5
23468
  8
0
 10
4589.5937650111281982
 20
254.0700432872332044
 30
0.0
 11
4589.5937655464267664
 21
254.0562586591331922
 31
0.0
  0
LINE
  5
23469
  8
0
 10
4589.5937707914281418
 20
253.9212038766332
 30
0.0
 11
4589.5937714328283619
 21
253.9046889569331995
 31
0.0
  0
LINE
  5
2346A
  8
0
 10
4589.5937718915283767
 20
253.8928779333332102
 30
0.0
 11
4589.5937737263293457
 21
253.8456338389331961
 31
0.0
  0
LINE
  5
2346B
  8
0
 10
4589.6159096405281161
 20
255.4204382984331971
 30
0.0
 11
4589.6159121633281757
 21
255.3554775874331142
 31
0.0
  0
LINE
  5
2346C
  8
0
 10
4589.615917407228153
 20
255.2204519404332075
 30
0.0
 11
4589.6159205728272354
 21
255.1389388692331863
 31
0.0
  0
LINE
  5
2346D
  8
0
 10
4589.6159258174293427
 20
255.0038950848332036
 30
0.0
 11
4589.6159289822280698
 21
254.9224028113331997
 31
0.0
  0
LINE
  5
2346E
  8
0
 10
4589.6159342273267612
 20
254.7873460092332039
 30
0.0
 11
4589.6159373920281723
 21
254.7058587498331974
 31
0.0
  0
LINE
  5
2346F
  8
0
 10
4589.6159426374279064
 20
254.5707922922331932
 30
0.0
 11
4589.6159458011279639
 21
254.4893301282332061
 31
0.0
  0
LINE
  5
23470
  8
0
 10
4589.6159510475281422
 20
254.3542387200332087
 30
0.0
 11
4589.6159542103268905
 21
254.2727992106331953
 31
0.0
  0
LINE
  5
23471
  8
0
 10
4589.6159594575283336
 20
254.1376901929332064
 30
0.0
 11
4589.6159626199269042
 21
254.0562610061332123
 31
0.0
  0
LINE
  5
23472
  8
0
 10
4589.6159678675294344
 20
253.9211392608332005
 30
0.0
 11
4589.6159710292267846
 21
253.8397273009331911
 31
0.0
  0
LINE
  5
23473
  8
0
 10
4589.758422842629443
 20
253.0681982722331895
 30
0.0
 11
4589.758422842629443
 21
253.1075683513332137
 31
0.0
  0
LINE
  5
23474
  8
0
 10
4589.8266883159285499
 20
253.1075683513332137
 30
0.0
 11
4589.8266883159285499
 21
253.0681982722331895
 31
0.0
  0
LINE
  5
23475
  8
0
 10
4589.8337164955291883
 20
253.1311903985331924
 30
0.0
 11
4589.8337164955291883
 21
253.1412905290600008
 31
0.0
  0
LINE
  5
23476
  8
0
 10
4590.1491916087279606
 20
253.1075683513332137
 30
0.0
 11
4590.1688766480283448
 21
253.1272533906332001
 31
0.0
  0
LINE
  5
23477
  8
0
 10
4590.3225384023826336
 20
253.387095910333187
 30
0.0
 11
4590.3106761065282626
 21
253.5788444073332073
 31
0.0
  0
LINE
  5
23478
  8
0
 10
4590.345342249526766
 20
253.5831335677331992
 30
0.0
 11
4590.3574698892025481
 21
253.387095910333187
 31
0.0
  0
LINE
  5
23479
  8
0
 10
4589.9887792725294275
 20
253.0681982724331931
 30
0.0
 11
4589.9887792725294275
 21
253.1075683513332137
 31
0.0
  0
LINE
  5
2347A
  8
0
 10
4590.1688766480283448
 20
253.1272533906332001
 30
0.0
 11
4590.1688766480283448
 21
253.1311903985331924
 31
0.0
  0
LINE
  5
2347B
  8
0
 10
4590.0281525506343314
 20
253.387095910333187
 30
0.0
 11
4590.0402801906293462
 21
253.5831335710331871
 31
0.0
  0
LINE
  5
2347C
  8
0
 10
4590.074946333027583
 20
253.5788444004332121
 30
0.0
 11
4590.0630840374888066
 21
253.387095910333187
 31
0.0
  0
LINE
  5
2347D
  8
0
 10
4591.0803116227280043
 20
253.5170171702332027
 30
0.0
 11
4591.0803018870283267
 21
253.544576225333202
 31
0.0
  0
LINE
  5
2347E
  8
0
 10
4590.6774668469279277
 20
253.3555998473331954
 30
0.0
 11
4590.6774668255284269
 21
253.387095910333187
 31
0.0
  0
LINE
  5
2347F
  8
0
 10
4590.729781440428269
 20
253.3595368552331877
 30
0.0
 11
4590.729781440428269
 21
253.5170171702332027
 31
0.0
  0
LINE
  5
23480
  8
0
 10
4590.776308181625609
 20
253.2729221969331945
 30
0.0
 11
4590.7763107882283293
 21
253.3555998473331954
 31
0.0
  0
LINE
  5
23481
  8
0
 10
4590.8339818002114043
 20
253.3713478788332054
 30
0.0
 11
4590.833981766028046
 21
253.2886706546331936
 31
0.0
  0
LINE
  5
23482
  8
0
 10
4591.1024283933293191
 20
253.544576225333202
 30
0.0
 11
4591.1024249150268588
 21
253.5170171702332027
 31
0.0
  0
LINE
  5
23483
  8
0
 10
4591.2990482344503107
 20
257.610665239167588
 30
0.0
 11
4591.2960405643443664
 21
257.5533520681643722
 31
0.0
  0
LINE
  5
23484
  8
0
 10
4591.3743477945781706
 20
257.5430453987963233
 30
0.0
 11
4591.3794636432558036
 21
257.6405460432440009
 31
0.0
  0
LINE
  5
23485
  8
0
 10
4591.6412029623506896
 20
257.5079147616348223
 30
0.0
 11
4591.641745987428294
 21
257.2959569930332009
 31
0.0
  0
LINE
  5
23486
  8
0
 10
4591.8871060657293128
 20
253.5170171702332027
 30
0.0
 11
4591.8871060939281961
 21
253.544576225333202
 31
0.0
  0
LINE
  5
23487
  8
0
 10
4591.9038180416282557
 20
253.5170171702332027
 30
0.0
 11
4591.9038180416282557
 21
253.544576225333202
 31
0.0
  0
LINE
  5
23488
  8
0
 10
4591.9943692223268954
 20
253.5170171702332027
 30
0.0
 11
4591.9943692223268954
 21
253.2886707140332021
 31
0.0
  0
LINE
  5
23489
  8
0
 10
4591.9955762801591845
 20
253.9382743533288078
 30
0.0
 11
4591.9966459191282411
 21
256.8435059246331775
 31
0.0
  0
LINE
  5
2348A
  8
0
 10
4592.0565420530283518
 20
253.5445761931331958
 30
0.0
 11
4592.0565420530283518
 21
253.9382770127332094
 31
0.0
  0
LINE
  5
2348B
  8
0
 10
4591.7399506163283149
 20
253.544576225333202
 30
0.0
 11
4591.7399487469283486
 21
253.5170171702332027
 31
0.0
  0
LINE
  5
2348C
  8
0
 10
4591.7199470893292528
 20
253.5170171702332027
 30
0.0
 11
4591.71995448972757
 21
253.544576225333202
 31
0.0
  0
LINE
  5
2348D
  8
0
 10
4591.4657993021191942
 20
257.8215630024066058
 30
0.0
 11
4591.4602458749277503
 21
257.7151663085331847
 31
0.0
  0
LINE
  5
2348E
  8
0
 10
4591.4816853139445811
 20
257.6351985402462219
 30
0.0
 11
4591.4761471255797005
 21
257.5296439259656154
 31
0.0
  0
LINE
  5
2348F
  8
0
 10
4591.5548398216124042
 20
257.5266791833781781
 30
0.0
 11
4591.5644340881281096
 21
257.7097153479331837
 31
0.0
  0
LINE
  5
23490
  8
0
 10
4591.3480786262280162
 20
258.4884153253331078
 30
0.0
 11
4591.3048102203283634
 21
258.5811831321332193
 31
0.0
  0
LINE
  5
23491
  8
0
 10
4591.3761700718278007
 20
258.6144665213330995
 30
0.0
 11
4591.4527218667280977
 21
258.4503388632331848
 31
0.0
  0
LINE
  5
23492
  8
0
 10
4591.9966459191282411
 20
256.8435059246331775
 30
0.0
 11
4591.9964850893284165
 21
256.8441523068332231
 31
0.0
  0
LINE
  5
23493
  8
0
 10
4591.4612171979269988
 20
258.0444008583331765
 30
0.0
 11
4591.4104722754300383
 21
258.4265179312790224
 31
0.0
  0
LINE
  5
23494
  8
0
 10
4591.3892317827321676
 20
258.5864621091009212
 30
0.0
 11
4591.3211799649279783
 21
259.098902765833202
 31
0.0
  0
ARC
  5
23495
  8
0
 10
4588.7041681524269734
 20
-66.7259553237668399
 30
0.0
 40
321.8295878505999781
 50
89.825498676817503
 51
89.953737050103058
  0
ARC
  5
23496
  8
0
 10
4588.7064276623268597
 20
-64.0218077607667908
 30
0.0
 40
318.9088923871000247
 50
89.8239485191221263
 51
89.9532303622180081
  0
ARC
  5
23497
  8
0
 10
4588.7143962975278555
 20
-61.8676026109668271
 30
0.0
 40
317.0893448644999921
 50
89.8249350689982293
 51
89.9551630108016553
  0
ARC
  5
23498
  8
0
 10
4588.7031329074279711
 20
-62.5380656289667911
 30
0.0
 40
316.9920613397000011
 50
89.8215719851905732
 51
89.9513762057044204
  0
ARC
  5
23499
  8
0
 10
4588.7206919792279223
 20
-59.8921249627668217
 30
0.0
 40
315.3304085995000037
 50
89.8254664880885372
 51
89.9565557603768013
  0
ARC
  5
2349A
  8
0
 10
4588.7164447805280361
 20
-59.2426136159668104
 30
0.0
 40
314.2478071058999944
 50
89.8233616051154371
 51
89.9546333465908248
  0
ARC
  5
2349B
  8
0
 10
4588.7098566869281058
 20
-58.5103574717668025
 30
0.0
 40
312.8659181845000035
 50
89.8202859089835215
 51
89.9517430174054482
  0
ARC
  5
2349C
  8
0
 10
4588.7081020312280089
 20
-56.7453299451668514
 30
0.0
 40
310.6678002547999995
 50
89.8179659157930672
 51
89.9500946803050567
  0
ARC
  5
2349D
  8
0
 10
4588.7146744719293565
 20
-55.2413294448667997
 30
0.0
 40
309.4787712742000281
 50
89.8190120075150844
 51
89.9518366387944468
  0
ARC
  5
2349E
  8
0
 10
4588.7084882606268366
 20
-55.5729349820668119
 30
0.0
 40
309.3772896144000129
 50
89.8170804909186415
 51
89.949690412075725
  0
ARC
  5
2349F
  8
0
 10
4588.7193288921271233
 20
-54.3305899950667879
 30
0.0
 40
308.9026898098999823
 50
89.8201034696740948
 51
89.9533789876151673
  0
ARC
  5
234A0
  8
0
 10
4578.1227286722933059
 20
216.7834137603256863
 30
0.0
 40
36.8198192105983111
 50
76.3528141058963001
 51
76.7213529059312833
  0
ARC
  5
234A1
  8
0
 10
4579.0717706298009944
 20
220.8088725263199024
 30
0.0
 40
32.6840003139175792
 50
76.7197281733525642
 51
77.027919966476972
  0
ARC
  5
234A2
  8
0
 10
4573.1230281079278939
 20
306.2574220926331918
 30
0.0
 40
55.8512875614999871
 50
287.9717582171804793
 51
288.4269471176118032
  0
ARC
  5
234A3
  8
0
 10
4570.8004182440281511
 20
263.0582973670332194
 30
0.0
 40
16.8828813844999992
 50
325.2955926584097028
 51
326.1248507231035205
  0
ARC
  5
234A4
  8
0
 10
4578.4566175276268041
 20
246.5076637876331915
 30
0.0
 40
9.4429503940000004
 50
44.5414877288993907
 51
45.3832572858986794
  0
ARC
  5
234A5
  8
0
 10
4572.1239769080302722
 20
253.7685686075217859
 30
0.0
 40
0.3878394299191995
 50
150.478847163420113
 51
168.3896035624306933
  0
ARC
  5
234A6
  8
0
 10
4574.0932948096269683
 20
253.320166776533199
 30
0.0
 40
0.031496063
 50
90.0000000008858763
 51
270.0
  0
ARC
  5
234A7
  8
0
 10
4575.2880576843281233
 20
253.320166776533199
 30
0.0
 40
0.031496063
 50
270.0
 51
90.0
  0
ARC
  5
234A8
  8
0
 10
4574.0932948096269683
 20
253.4146549655332024
 30
0.0
 40
0.031496063
 50
90.0
 51
269.9999999991140953
  0
ARC
  5
234A9
  8
0
 10
4575.2880576843281233
 20
253.4146549655332024
 30
0.0
 40
0.031496063
 50
270.0
 51
90.0
  0
ARC
  5
234AA
  8
0
 10
4581.6396085613951072
 20
242.6510912624561911
 30
0.0
 40
10.7111966083143209
 50
89.419429528500487
 51
91.1719305917680458
  0
ARC
  5
234AB
  8
0
 10
4584.6470584099270127
 20
260.9904454382331096
 30
0.0
 40
6.2013408836000004
 50
279.8492631952232159
 51
280.3028024397539184
  0
ARC
  5
234AC
  8
0
 10
4583.5193680906277223
 20
260.1355674273332284
 30
0.0
 40
5.7911430123000001
 50
299.30968975590838
 51
300.4299748748321122
  0
ARC
  5
234AD
  8
0
 10
4585.2254095475282156
 20
257.6435340880331069
 30
0.0
 40
2.804829483699999
 50
278.788430645649612
 51
279.9041043112862894
  0
ARC
  5
234AE
  8
0
 10
4586.4465704295280375
 20
253.2015637058331947
 30
0.0
 40
0.0782536545
 50
247.8941502572824049
 51
254.1799032628840962
  0
ARC
  5
234AF
  8
0
 10
4586.4556138178277251
 20
253.2015347763332045
 30
0.0
 40
0.0782282825
 50
244.0556306251843921
 51
246.3015081792784997
  0
ARC
  5
234B0
  8
0
 10
4586.4411266456272642
 20
253.201503523533205
 30
0.0
 40
0.0781903831
 50
244.0603661314245016
 51
251.6478225011022118
  0
ARC
  5
234B1
  8
0
 10
4586.3633678654277901
 20
253.2014587106332044
 30
0.0
 40
0.0781431129
 50
247.8891249560151095
 51
271.9964663017354951
  0
ARC
  5
234B2
  8
0
 10
4586.3543246905283013
 20
253.2014449541331942
 30
0.0
 40
0.0781291452
 50
244.0544974669043086
 51
247.8875351465850088
  0
ARC
  5
234B3
  8
0
 10
4586.3687814999284456
 20
253.2014330092331988
 30
0.0
 40
0.0781157118
 50
244.0547230428059891
 51
266.0480445797820153
  0
ARC
  5
234B4
  8
0
 10
4586.4465224241275791
 20
253.2013946695331867
 30
0.0
 40
0.0780779338
 50
254.1799801720819971
 51
264.8742542220043106
  0
ARC
  5
234B5
  8
0
 10
4586.4410900582279282
 20
253.2013788298332031
 30
0.0
 40
0.0780605117
 50
251.6444944533112107
 51
268.9625833352118889
  0
ARC
  5
234B6
  8
0
 10
4586.455481280728236
 20
253.2012328600332012
 30
0.0
 40
0.0778985561
 50
246.3015180069166092
 51
247.8905334517195911
  0
ARC
  5
234B7
  8
0
 10
4586.3687841946275512
 20
253.2011279459331945
 30
0.0
 40
0.0778115632
 50
266.0305835449258893
 51
269.9980137837820848
  0
ARC
  5
234B8
  8
0
 10
4587.4043629593570586
 20
252.8514049421704897
 30
0.0
 40
0.3282084241888612
 50
97.6400672658206901
 51
101.9916687225075975
  0
ARC
  5
234B9
  8
0
 10
4587.1818582303503717
 20
252.7942706720425008
 30
0.0
 40
0.3119437053345599
 50
299.1387366858845098
 51
308.0579468092017237
  0
ARC
  5
234BA
  8
0
 10
4587.1822664428500502
 20
252.8052295292476117
 30
0.0
 40
0.3201586104378133
 50
299.2004832521574258
 51
309.2838379348827971
  0
ARC
  5
234BB
  8
0
 10
4587.0233865577283723
 20
252.3127722398332082
 30
0.0
 40
0.0393700787
 50
213.4999999490860887
 51
309.9999999838997837
  0
ARC
  5
234BC
  8
0
 10
4587.292762525427861
 20
255.178434493033194
 30
0.0
 40
0.8464566929
 50
42.8620538219320011
 51
44.2687562277967999
  0
ARC
  5
234BD
  8
0
 10
4587.2922717724277391
 20
255.178434493033194
 30
0.0
 40
0.7874015748000001
 50
44.0142678730506631
 51
45.5709508347457017
  0
ARC
  5
234BE
  8
0
 10
4585.7143997577268237
 20
254.8558334906331879
 30
0.0
 40
0.0196850396
 50
106.5361617906149974
 51
149.9256951636108113
  0
ARC
  5
234BF
  8
0
 10
4588.3327841101281592
 20
253.9255792244331928
 30
0.0
 40
0.1290371849
 50
276.6310344488397277
 51
283.0637292301823891
  0
ARC
  5
234C0
  8
0
 10
4588.3034412606739352
 20
253.9548994376094129
 30
0.0
 40
0.0952257206149072
 50
152.9509803677306934
 51
156.2862312847919952
  0
ARC
  5
234C1
  8
0
 10
4588.2654604787276185
 20
253.9438179786332057
 30
0.0
 40
0.0823126451
 50
254.8012830493993022
 51
269.9547556395945094
  0
ARC
  5
234C2
  8
0
 10
4588.3176701025276998
 20
254.63636894063319
 30
0.0
 40
0.1326323311
 50
77.3224892030934825
 51
79.575651899397883
  0
ARC
  5
234C3
  8
0
 10
4588.3178031658280815
 20
254.6371215702332051
 30
0.0
 40
0.1318680479
 50
79.5733440470949915
 51
83.4805765305645764
  0
ARC
  5
234C4
  8
0
 10
4583.1213762408278853
 20
272.9302069807332032
 30
0.0
 40
20.2023120674999994
 50
281.4676363002370181
 51
282.0420401552121916
  0
ARC
  5
234C5
  8
0
 10
4582.7221104724840188
 20
267.8001027136260745
 30
0.0
 40
14.5150942499357996
 50
272.7736296228371771
 51
273.8750844883737727
  0
ARC
  5
234C6
  8
0
 10
4581.684697738529394
 20
268.4457559863332108
 30
0.0
 40
14.1321449777999995
 50
289.6917527941961907
 51
290.3403302963756119
  0
ARC
  5
234C7
  8
0
 10
4581.8438964811939513
 20
267.6803192809758229
 30
0.0
 40
13.5297093531917803
 50
285.0054592030151071
 51
285.6841039373159106
  0
ARC
  5
234C8
  8
0
 10
4581.5968162289282191
 20
266.867639573033216
 30
0.0
 40
12.7995000944000008
 50
301.4452053153875113
 51
301.5918313417158743
  0
ARC
  5
234C9
  8
0
 10
4581.6347754370581242
 20
266.8058888360445735
 30
0.0
 40
12.7270154349437803
 50
301.444439116015019
 51
301.9281105127441265
  0
ARC
  5
234CA
  8
0
 10
4582.4338536189061415
 20
265.5181997315406193
 30
0.0
 40
11.2115418496823303
 50
301.9424864391215237
 51
303.9816799671614262
  0
ARC
  5
234CB
  8
0
 10
4583.1807857482281179
 20
264.7269662968332113
 30
0.0
 40
10.1230720347999998
 50
292.7684748062162043
 51
295.4319572346100244
  0
ARC
  5
234CC
  8
0
 10
4584.2958152726332628
 20
263.6218016408486164
 30
0.0
 40
9.0481175355140522
 50
277.657126031018322
 51
278.1737074981995761
  0
ARC
  5
234CD
  8
0
 10
4598.3271508388334041
 20
260.0471901780542794
 30
0.0
 40
6.9387748510610461
 50
201.3909942329711953
 51
201.7481911511538044
  0
ARC
  5
234CE
  8
0
 10
4590.973864887894706
 20
257.9933951230459002
 30
0.0
 40
0.5708661418298772
 50
232.708467780039598
 51
259.9999393153042888
  0
ARC
  5
234CF
  8
0
 10
4590.9733741350282799
 20
257.979615595433188
 30
0.0
 40
0.4921259843
 50
234.1013852279039895
 51
337.4407308979049844
  0
ARC
  5
234D0
  8
0
 10
4590.9733741350282799
 20
257.979615595433188
 30
0.0
 40
0.4921259843
 50
354.8768643941023129
 51
7.5645835131965251
  0
ARC
  5
234D1
  8
0
 10
4591.3943057072283409
 20
257.9618564260331937
 30
0.0
 40
0.2362110612
 50
270.1451416235049123
 51
286.4761768486253004
  0
ARC
  5
234D2
  8
0
 10
4591.3942931793280877
 20
257.9618669382331859
 30
0.0
 40
0.1574748234
 50
280.557706222964498
 51
68.2056401085479536
  0
ARC
  5
234D3
  8
0
 10
4591.3942970339276144
 20
257.9618683235332242
 30
0.0
 40
0.1082677165
 50
278.0042237121426183
 51
52.0791896609171587
  0
ARC
  5
234D4
  8
0
 10
4591.3942970339276144
 20
257.9618683235332242
 30
0.0
 40
0.0590551181
 50
271.0187608730095121
 51
340.4082415449042855
  0
ARC
  5
234D5
  8
0
 10
4619.8464377640038947
 20
265.9668459074562747
 30
0.0
 40
29.2247522161409883
 50
194.4146649282405974
 51
196.8896882509995976
  0
ARC
  5
234D6
  8
0
 10
4612.3719128573284252
 20
253.7111520004332021
 30
0.0
 40
20.3781076100999989
 50
179.5134258233003948
 51
179.7377163804003999
  0
ARC
  5
234D7
  8
0
 10
4612.1809153990579944
 20
253.7121822188175884
 30
0.0
 40
20.1871074376800408
 50
179.7381588021831078
 51
179.892649594814003
  0
LINE
  5
234D8
  8
0
 10
4586.5055226933282029
 20
252.6711218619331873
 30
0.0
 11
4586.5049789684280768
 21
252.670560477333197
 31
0.0
  0
LINE
  5
234D9
  8
0
 10
4589.876465310328058
 20
253.0712441568331883
 30
0.0
 11
4589.8736148533207597
 21
253.0693460525149021
 31
0.0
  0
LINE
  5
234DA
  8
0
 10
4591.5613838185336135
 20
253.1311903985331924
 30
0.0
 11
4591.8378351796282004
 21
253.2414288537331117
 31
0.0
  0
LINE
  5
234DB
  8
0
 10
4591.7941285638280533
 20
253.2294100137332009
 30
0.0
 11
4591.638029368828029
 21
253.167251329533201
 31
0.0
  0
LINE
  5
234DC
  8
0
 10
4591.5548398216124042
 20
257.5266791833781781
 30
0.0
 11
4591.8663662898852635
 21
257.5164077998543917
 31
0.0
  0
LINE
  5
234DD
  8
0
 10
4591.3406342215830591
 20
257.6520365771083902
 30
0.0
 11
4591.5615010816627546
 21
257.6537604447722742
 31
0.0
  0
LINE
  5
234DE
  8
0
 10
4589.6162186540277617
 20
255.3554777793331994
 30
0.0
 11
4589.5493467700280235
 21
255.3554725578331954
 31
0.0
  0
LINE
  5
234DF
  8
0
 10
4589.5493467700280235
 20
255.3554725578331954
 30
0.0
 11
4589.4941513905268948
 21
255.3554648878331932
 31
0.0
  0
LINE
  5
234E0
  8
0
 10
4589.4941513905268948
 20
255.3554648878331932
 30
0.0
 11
4588.9609827803269582
 21
255.3554269784332007
 31
0.0
  0
LINE
  5
234E1
  8
0
 10
4588.9637549724284327
 20
255.1388914649332094
 30
0.0
 11
4589.616341997228119
 21
255.1389388379332104
 31
0.0
  0
LINE
  5
234E2
  8
0
 10
4589.616341997228119
 20
255.1389388379332104
 30
0.0
 11
4589.6625302630282022
 21
255.1389452528331958
 31
0.0
  0
LINE
  5
234E3
  8
0
 10
4588.9664744551282638
 20
254.9223557521331998
 30
0.0
 11
4589.5495666493279714
 21
254.9223921457331983
 31
0.0
  0
LINE
  5
234E4
  8
0
 10
4589.5495666493279714
 20
254.9223921457331983
 30
0.0
 11
4589.6163717479275874
 21
254.9224026963331937
 31
0.0
  0
LINE
  5
234E5
  8
0
 10
4589.6163717479275874
 20
254.9224026963331937
 30
0.0
 11
4589.6645083562279979
 21
254.9224095945332067
 31
0.0
  0
LINE
  5
234E6
  8
0
 10
4588.9691212066281878
 20
254.70581840483311
 30
0.0
 11
4589.549460992627246
 21
254.7058373961332052
 31
0.0
  0
LINE
  5
234E7
  8
0
 10
4589.549460992627246
 20
254.7058373961332052
 30
0.0
 11
4589.6163468509275845
 21
254.7058604280331906
 31
0.0
  0
LINE
  5
234E8
  8
0
 10
4589.6163468509275845
 20
254.7058604280331906
 30
0.0
 11
4589.6664794273283405
 21
254.7058739368331999
 31
0.0
  0
LINE
  5
234E9
  8
0
 10
4588.9718787991268982
 20
254.4892842076332045
 30
0.0
 11
4589.6164018388280965
 21
254.4893298568331943
 31
0.0
  0
LINE
  5
234EA
  8
0
 10
4589.6164018388280965
 20
254.4893298568331943
 30
0.0
 11
4589.6684435543284053
 21
254.4893382798331913
 31
0.0
  0
LINE
  5
234EB
  8
0
 10
4588.9744620229275824
 20
254.2727487425331958
 30
0.0
 11
4589.6162158724273468
 21
254.2727991290331886
 31
0.0
  0
LINE
  5
234EC
  8
0
 10
4588.9945142638280231
 20
254.1388850343332138
 30
0.0
 11
4589.0389271192279921
 21
254.1388407368332025
 31
0.0
  0
LINE
  5
234ED
  8
0
 10
4589.0499928387271211
 20
254.1388288189332059
 30
0.0
 11
4589.0944396567292642
 21
254.1387774423332075
 31
0.0
  0
LINE
  5
234EE
  8
0
 10
4589.1055487820276539
 20
254.138763682733213
 30
0.0
 11
4589.1495642555282757
 21
254.1387051890332032
 31
0.0
  0
LINE
  5
234EF
  8
0
 10
4589.1609835801282316
 20
254.1386889126331994
 30
0.0
 11
4589.2054635020276692
 21
254.1386211422332053
 31
0.0
  0
LINE
  5
234F0
  8
0
 10
4589.2165373585276029
 20
254.1386032119332015
 30
0.0
 11
4589.2609296963291854
 21
254.13852724513319
 31
0.0
  0
LINE
  5
234F1
  8
0
 10
4589.2720765672293055
 20
254.1385071753331886
 30
0.0
 11
4589.3164627861278859
 21
254.1384235701331988
 31
0.0
  0
LINE
  5
234F2
  8
0
 10
4589.3275076638283281
 20
254.1384018976332015
 30
0.0
 11
4589.3719972382268679
 21
254.1383113062331915
 31
0.0
  0
LINE
  5
234F3
  8
0
 10
4589.383140559628373
 20
254.1382877409332082
 30
0.0
 11
4589.4274946062278104
 21
254.1381898908331891
 31
0.0
  0
LINE
  5
234F4
  8
0
 10
4589.4385270997281623
 20
254.138164444833194
 30
0.0
 11
4589.4830088862290722
 21
254.1380568390331973
 31
0.0
  0
LINE
  5
234F5
  8
0
 10
4589.4830088862290722
 20
254.1380568390331973
 30
0.0
 11
4589.6931595725282023
 21
254.1374620158331936
 31
0.0
  0
LINE
  5
234F6
  8
0
 10
4588.9798221701275907
 20
253.8396768477331875
 30
0.0
 11
4589.6742950614279835
 21
253.8397313136331945
 31
0.0
  0
LINE
  5
234F7
  8
0
 10
4589.8078347529281018
 20
255.5917102134332026
 30
0.0
 11
4589.8247894118276236
 21
253.6232043498332018
 31
0.0
  0
LINE
  5
234F8
  8
0
 10
4588.9597896657278397
 20
255.4381887868331091
 30
0.0
 11
4588.960841006627561
 21
255.3554278804332114
 31
0.0
  0
LINE
  5
234F9
  8
0
 10
4588.9625355149282768
 20
255.22164104903311
 30
0.0
 11
4588.9635805057278048
 21
255.1388918322332131
 31
0.0
  0
LINE
  5
234FA
  8
0
 10
4588.9652653755283609
 20
255.0050932895331925
 30
0.0
 11
4588.966304302926801
 21
254.9223560958332087
 31
0.0
  0
LINE
  5
234FB
  8
0
 10
4588.9679799746281788
 20
254.7885454945331958
 30
0.0
 11
4588.9690131435281728
 21
254.7058163083331124
 31
0.0
  0
LINE
  5
234FC
  8
0
 10
4589.6872337355280251
 20
254.7871410926331919
 30
0.0
 11
4589.5385229303283268
 21
254.7875641633332009
 31
0.0
  0
LINE
  5
234FD
  8
0
 10
4589.5385229303283268
 20
254.7875641633332009
 30
0.0
 11
4589.4940791766275652
 21
254.7876823380331928
 31
0.0
  0
LINE
  5
234FE
  8
0
 10
4589.4940791766275652
 20
254.7876823380331928
 30
0.0
 11
4589.4829088697279076
 21
254.7877107048331879
 31
0.0
  0
LINE
  5
234FF
  8
0
 10
4589.4829088697279076
 20
254.7877107048331879
 30
0.0
 11
4589.4385699868271331
 21
254.7878161003332025
 31
0.0
  0
LINE
  5
23500
  8
0
 10
4589.4275240113292966
 20
254.7878406519332088
 30
0.0
 11
4589.3831152898292203
 21
254.7879345947332013
 31
0.0
  0
LINE
  5
23501
  8
0
 10
4589.3831152898292203
 20
254.7879345947332013
 30
0.0
 11
4589.3719580348279123
 21
254.7879573576331893
 31
0.0
  0
LINE
  5
23502
  8
0
 10
4589.3719580348279123
 20
254.7879573576331893
 30
0.0
 11
4589.3275422994283872
 21
254.7880465914331864
 31
0.0
  0
LINE
  5
23503
  8
0
 10
4589.3165066258279694
 20
254.788068479833214
 30
0.0
 11
4589.2721559666279063
 21
254.7881538920331934
 31
0.0
  0
LINE
  5
23504
  8
0
 10
4589.2610178634267868
 20
254.7881744348331949
 30
0.0
 11
4589.216473399726965
 21
254.7882514029332128
 31
0.0
  0
LINE
  5
23505
  8
0
 10
4589.2054516156276804
 20
254.7882689923332009
 30
0.0
 11
4589.161178166928039
 21
254.7883342631332084
 31
0.0
  0
LINE
  5
23506
  8
0
 10
4589.1500648676283163
 20
254.7883494245332088
 30
0.0
 11
4589.1054415083281128
 21
254.7884061406332137
 31
0.0
  0
LINE
  5
23507
  8
0
 10
4589.1054415083281128
 20
254.7884061406332137
 30
0.0
 11
4589.0943489324281472
 21
254.7884193301331948
 31
0.0
  0
LINE
  5
23508
  8
0
 10
4589.0943489324281472
 20
254.7884193301331948
 30
0.0
 11
4589.0501613984279174
 21
254.7884685779332017
 31
0.0
  0
LINE
  5
23509
  8
0
 10
4589.039075075826986
 20
254.7884800886332073
 30
0.0
 11
4588.9945811046272865
 21
254.7885227570332063
 31
0.0
  0
LINE
  5
2350A
  8
0
 10
4588.9834219014283008
 20
254.7885325525332121
 30
0.0
 11
4588.9679799712275781
 21
254.7885454943331922
 31
0.0
  0
LINE
  5
2350B
  8
0
 10
4588.9706799498280816
 20
254.5719976502331861
 30
0.0
 11
4588.9717074852269434
 21
254.4892844385331898
 31
0.0
  0
LINE
  5
2350C
  8
0
 10
4588.9733658622280927
 20
254.3554497435331996
 30
0.0
 11
4588.9743880131281912
 21
254.2727484162332132
 31
0.0
  0
LINE
  5
2350D
  8
0
 10
4588.9760382075282905
 20
254.138901761933198
 30
0.0
 11
4588.9770551450283165
 21
254.0562126599332089
 31
0.0
  0
LINE
  5
2350E
  8
0
 10
4588.9786974244279918
 20
253.9223536940332053
 30
0.0
 11
4588.9797093040278924
 21
253.8396768443332121
 31
0.0
  0
LINE
  5
2350F
  8
0
 10
4588.9612894284282447
 20
255.3200718406332044
 30
0.0
 11
4588.9834847662268658
 21
255.3200544823332052
 31
0.0
  0
LINE
  5
23510
  8
0
 10
4588.9946586649293749
 20
255.3200454235332018
 30
0.0
 11
4589.0392114440282967
 21
255.3200064625332004
 31
0.0
  0
LINE
  5
23511
  8
0
 10
4589.0503125169279883
 20
255.3199958935331892
 30
0.0
 11
4589.0945595285284071
 21
255.3199494194331862
 31
0.0
  0
LINE
  5
23512
  8
0
 10
4589.1055804490279115
 20
255.3199366046331988
 30
0.0
 11
4589.1500219312283662
 21
255.3198790203331896
 31
0.0
  0
LINE
  5
23513
  8
0
 10
4589.1612177784281812
 20
255.3198630106332132
 30
0.0
 11
4589.2058259044279112
 21
255.3197939822331932
 31
0.0
  0
LINE
  5
23514
  8
0
 10
4589.2169324969281661
 20
255.3197756351331975
 30
0.0
 11
4589.2611671306276548
 21
255.3196988338332005
 31
0.0
  0
LINE
  5
23515
  8
0
 10
4589.2721761529282958
 20
255.3196789384332135
 30
0.0
 11
4589.3164882823275548
 21
255.3195965830331886
 31
0.0
  0
LINE
  5
23516
  8
0
 10
4589.3164882823275548
 20
255.3195965830331886
 30
0.0
 11
4589.3277269694281131
 21
255.3195751831331108
 31
0.0
  0
LINE
  5
23517
  8
0
 10
4589.3277269694281131
 20
255.3195751831331108
 30
0.0
 11
4589.3724730407284369
 21
255.3194874418331892
 31
0.0
  0
LINE
  5
23518
  8
0
 10
4589.3724730407284369
 20
255.3194874418331892
 30
0.0
 11
4589.3836060390267448
 21
255.3194648749332032
 31
0.0
  0
LINE
  5
23519
  8
0
 10
4589.3836060390267448
 20
255.3194648749332032
 30
0.0
 11
4589.4279159642283048
 21
255.3193715053332085
 31
0.0
  0
LINE
  5
2351A
  8
0
 10
4589.4279159642283048
 20
255.3193715053332085
 30
0.0
 11
4589.4389366157283803
 21
255.3193472916331928
 31
0.0
  0
LINE
  5
2351B
  8
0
 10
4589.4389366157283803
 20
255.3193472916331928
 30
0.0
 11
4589.4827841460282798
 21
255.3192463794331957
 31
0.0
  0
LINE
  5
2351C
  8
0
 10
4589.4827841460282798
 20
255.3192463794331957
 30
0.0
 11
4589.4939645899276002
 21
255.3192193643332075
 31
0.0
  0
LINE
  5
2351D
  8
0
 10
4589.4939645899276002
 20
255.3192193643332075
 30
0.0
 11
4589.5389701215281093
 21
255.3191053065332028
 31
0.0
  0
LINE
  5
2351E
  8
0
 10
4589.5389701215281093
 20
255.3191053065332028
 30
0.0
 11
4589.6823386667292652
 21
255.318696757333214
 31
0.0
  0
LINE
  5
2351F
  8
0
 10
4589.6823386986279729
 20
255.318696758433191
 30
0.0
 11
4589.6812450757279294
 21
255.4368202352331991
 31
0.0
  0
LINE
  5
23520
  8
0
 10
4589.6843381420294463
 20
255.1021370447332117
 30
0.0
 11
4589.6832484210272014
 21
255.2202605256331935
 31
0.0
  0
LINE
  5
23521
  8
0
 10
4589.6863304883281671
 20
254.8855773280332073
 30
0.0
 11
4589.6852446293278263
 21
255.003700809933207
 31
0.0
  0
LINE
  5
23522
  8
0
 10
4589.6883158114278558
 20
254.6690176144331872
 30
0.0
 11
4589.6872337740278454
 21
254.7871410938332133
 31
0.0
  0
LINE
  5
23523
  8
0
 10
4589.6902941860280407
 20
254.4524579095331944
 30
0.0
 11
4589.6892159295275633
 21
254.5705813834331934
 31
0.0
  0
LINE
  5
23524
  8
0
 10
4589.6883158110267686
 20
254.669017627833199
 30
0.0
 11
4589.5384647372284235
 21
254.6694240715332
 31
0.0
  0
LINE
  5
23525
  8
0
 10
4589.5384647372284235
 20
254.6694240715332
 30
0.0
 11
4589.4941625720275624
 21
254.6695510996331961
 31
0.0
  0
LINE
  5
23526
  8
0
 10
4589.4941625720275624
 20
254.6695510996331961
 30
0.0
 11
4589.4830271996270312
 21
254.6695832211331947
 31
0.0
  0
LINE
  5
23527
  8
0
 10
4589.4830271996270312
 20
254.6695832211331947
 30
0.0
 11
4589.4384290142279497
 21
254.669709200633207
 31
0.0
  0
LINE
  5
23528
  8
0
 10
4589.427408098827982
 20
254.6697391340331933
 30
0.0
 11
4589.3830996090282497
 21
254.6698518027332057
 31
0.0
  0
LINE
  5
23529
  8
0
 10
4589.371967375526765
 20
254.6698777216332132
 30
0.0
 11
4589.3274664145283168
 21
254.6699691469331981
 31
0.0
  0
LINE
  5
2352A
  8
0
 10
4589.316418052928384
 20
254.6699886850331893
 30
0.0
 11
4589.2720171062283043
 21
254.6700574122332057
 31
0.0
  0
LINE
  5
2352B
  8
0
 10
4589.2608665217294401
 20
254.6700727976331962
 30
0.0
 11
4589.2165199570281402
 21
254.6701298364332047
 31
0.0
  0
LINE
  5
2352C
  8
0
 10
4589.2054308439282977
 20
254.6701435009331931
 30
0.0
 11
4589.1616353397294006
 21
254.670197390133211
 31
0.0
  0
LINE
  5
2352D
  8
0
 10
4589.1498608939282349
 20
254.6702122364332013
 30
0.0
 11
4589.1055288437282798
 21
254.6702695054331969
 31
0.0
  0
LINE
  5
2352E
  8
0
 10
4589.0944039462283399
 20
254.6702840228331866
 30
0.0
 11
4589.0500214603280256
 21
254.670341305633201
 31
0.0
  0
LINE
  5
2352F
  8
0
 10
4589.0389537524270054
 20
254.6703550818332076
 30
0.0
 11
4588.9945333295281671
 21
254.6704053609331879
 31
0.0
  0
LINE
  5
23530
  8
0
 10
4589.6922656875276516
 20
254.2358982195331976
 30
0.0
 11
4589.6911911706283718
 21
254.35402168463321
 31
0.0
  0
LINE
  5
23531
  8
0
 10
4588.9945312410281986
 20
254.0207690991331901
 30
0.0
 11
4589.0389963289280786
 21
254.0207246826331868
 31
0.0
  0
LINE
  5
23532
  8
0
 10
4589.0500752438283598
 20
254.0207126778331883
 30
0.0
 11
4589.0944144513268839
 21
254.020660493333196
 31
0.0
  0
LINE
  5
23533
  8
0
 10
4589.1055660091278696
 20
254.0206462948331989
 30
0.0
 11
4589.1500052819283155
 21
254.0205857475332039
 31
0.0
  0
LINE
  5
23534
  8
0
 10
4589.1610717987268799
 20
254.0205697547332022
 30
0.0
 11
4589.2054419393280114
 21
254.020502380833193
 31
0.0
  0
LINE
  5
23535
  8
0
 10
4589.2165966018283143
 20
254.0204846306332058
 30
0.0
 11
4589.2610250147281477
 21
254.0204101531332128
 31
0.0
  0
LINE
  5
23536
  8
0
 10
4589.2720830037269479
 20
254.020390571733202
 30
0.0
 11
4589.3164274006276173
 21
254.0203072495332037
 31
0.0
  0
LINE
  5
23537
  8
0
 10
4589.3275782193277337
 20
254.0202850730331932
 30
0.0
 11
4589.3719712059282756
 21
254.0201925991331962
 31
0.0
  0
LINE
  5
23538
  8
0
 10
4589.3830157970278378
 20
254.0201686886331913
 30
0.0
 11
4589.4274558908282415
 21
254.0200695278331864
 31
0.0
  0
LINE
  5
23539
  8
0
 10
4589.4385869301268031
 20
254.0200438942331971
 30
0.0
 11
4589.4828822467279679
 21
254.0199377350332099
 31
0.0
  0
LINE
  5
2353A
  8
0
 10
4589.4828822467279679
 20
254.0199377350332099
 30
0.0
 11
4589.6942303537271073
 21
254.0193385490331934
 31
0.0
  0
LINE
  5
2353B
  8
0
 10
4589.6942303918276593
 20
254.0193385502331864
 30
0.0
 11
4589.6931595729283799
 21
254.1374620033332121
 31
0.0
  0
LINE
  5
2353C
  8
0
 10
4589.6961883752283029
 20
253.8027789075331953
 30
0.0
 11
4589.6951212128278712
 21
253.9209023453331895
 31
0.0
  0
LINE
  5
2353D
  8
0
 10
4586.5375285318268652
 20
252.7202006362331872
 30
0.0
 11
4586.5266394329928517
 21
252.7201210288100128
 31
0.0
  0
LINE
  5
2353E
  8
0
 10
4586.538041286617954
 20
252.6587512739291128
 30
0.0
 11
4586.7961780869509312
 21
252.5847161487970141
 31
0.0
  0
LINE
  5
2353F
  8
0
 10
4589.9467391453699747
 20
253.2052061585332012
 30
0.0
 11
4589.8158563332281119
 21
253.1311903985331924
 31
0.0
  0
LINE
  5
23540
  8
0
 10
4587.4925020531263726
 20
253.1311903985331924
 30
0.0
 11
4587.4762570465281897
 21
253.1574696410332024
 31
0.0
  0
LINE
  5
23541
  8
0
 10
4590.776308181625609
 20
253.2729221969331945
 30
0.0
 11
4585.1630042608276199
 21
253.272922194233189
 31
0.0
  0
LINE
  5
23542
  8
0
 10
4589.9229649227290793
 20
253.1311903985331924
 30
0.0
 11
4590.0539724524996927
 21
253.2052061585332012
 31
0.0
  0
LINE
  5
23543
  8
0
 10
4590.6878206008423149
 20
253.544576225333202
 30
0.0
 11
4590.6902211632977924
 21
253.387095910333187
 31
0.0
  0
LINE
  5
23544
  8
0
 10
4586.8033289474278718
 20
254.7453636741331877
 30
0.0
 11
4586.8270846185268965
 21
253.8201666621332038
 31
0.0
  0
LINE
  5
23545
  8
0
 10
4587.8305265270282689
 20
253.9382770177332134
 30
0.0
 11
4587.8340628829291745
 21
253.7414266227332007
 31
0.0
  0
LINE
  5
23546
  8
0
 10
4588.4631722264275595
 20
254.6115053780332005
 30
0.0
 11
4588.4727172700277151
 21
253.9540250661331982
 31
0.0
  0
LINE
  5
23547
  8
0
 10
4588.2062213162280386
 20
254.6115053619332116
 30
0.0
 11
4588.2146868655281651
 21
254.0910277211332016
 31
0.0
  0
LINE
  5
23548
  8
0
 10
4588.2161660725278125
 20
253.9988034182331944
 30
0.0
 11
4588.216882863626779
 21
253.9540250461332107
 31
0.0
  0
LINE
  5
23549
  8
0
 10
4587.0409802357280569
 20
253.9382770903332016
 30
0.0
 11
4587.0457464531282312
 21
253.7414266655331971
 31
0.0
  0
LINE
  5
2354A
  8
0
 10
4591.641745987428294
 20
257.2959569930332009
 30
0.0
 11
4591.6429351732267605
 21
256.8868690710331748
 31
0.0
  0
LINE
  5
2354B
  8
0
 10
4591.9950474201277757
 20
253.9363036170331895
 30
0.0
 11
4591.9945400724282081
 21
253.8842073604332086
 31
0.0
  0
LINE
  5
2354C
  8
0
 10
4591.9938433942270422
 20
253.7500051250331978
 30
0.0
 11
4591.9934408214730865
 21
253.5445761940453906
 31
0.0
  0
LINE
  5
2354D
  8
0
 10
4589.9963236023268109
 20
253.5831335712331907
 30
0.0
 11
4589.987002045423651
 21
253.387095910333187
 31
0.0
  0
LINE
  5
2354E
  8
0
 10
4588.7522353720278261
 20
253.820166752533197
 30
0.0
 11
4588.7398986900279851
 21
254.7453636316332108
 31
0.0
  0
LINE
  5
2354F
  8
0
 10
4585.0912300557056369
 20
253.1904094257332076
 30
0.0
 11
4585.0486959850240964
 21
253.1508754379331094
 31
0.0
  0
LINE
  5
23550
  8
0
 10
4590.258419825528108
 20
253.5788444716332037
 30
0.0
 11
4590.2718429211063267
 21
253.387095910333187
 31
0.0
  0
LINE
  5
23551
  8
0
 10
4588.502561880727626
 20
253.9540250630332139
 30
0.0
 11
4588.492986656227913
 21
254.6115053737331948
 31
0.0
  0
LINE
  5
23552
  8
0
 10
4587.8637500326276495
 20
253.7414266202331987
 30
0.0
 11
4587.8602108991281057
 21
253.9382770145332131
 31
0.0
  0
LINE
  5
23553
  8
0
 10
4588.7262970308283911
 20
254.7453636309332126
 30
0.0
 11
4588.7386121956278657
 21
253.8201667604332101
 31
0.0
  0
LINE
  5
23554
  8
0
 10
4591.373823119228291
 20
257.9775033624331968
 30
0.0
 11
4591.4278457012278523
 21
257.7908195879331856
 31
0.0
  0
LINE
  5
23555
  8
0
 10
4571.6665420530280244
 20
253.4698073012332031
 30
0.0
 11
4571.7440731586293623
 21
253.846623489433199
 31
0.0
  0
LINE
  5
23556
  8
0
 10
4579.5103204907291001
 20
253.3205486281331957
 30
0.0
 11
4579.1826153984284247
 21
253.326311288133212
 31
0.0
  0
LINE
  5
23557
  8
0
 10
4576.3072127188670493
 20
253.4461510284332064
 30
0.0
 11
4576.415540999228142
 21
253.4394336838331867
 31
0.0
  0
LINE
  5
23558
  8
0
 10
4591.8663662898852635
 20
257.5164077998543917
 30
0.0
 11
4591.5416960348793509
 21
258.6917007032399169
 31
0.0
  0
ARC
  5
23559
  8
0
 10
4573.9336806023693498
 20
253.2414256630835041
 30
0.0
 40
0.0078749717904175
 50
90.0108337906088565
 51
221.8586572588413901
  0
ARC
  5
2355A
  8
0
 10
4574.0299425804078055
 20
253.1526879424093863
 30
0.0
 40
0.0215127899922073
 50
223.7360576079846055
 51
267.8427795762391952
  0
ARC
  5
2355B
  8
0
 10
4574.4725549399063311
 20
253.1451709892552913
 30
0.0
 40
0.0140364630719164
 50
275.1138903915917808
 51
340.8375518318051149
  0
ARC
  5
2355C
  8
0
 10
4575.3530456472290098
 20
253.1538329694830907
 30
0.0
 40
0.0226796588203565
 50
273.2771364244466099
 51
314.2643580379607897
  0
ARC
  5
2355D
  8
0
 10
4575.4526005662137322
 20
253.2412875580733953
 30
0.0
 40
0.0080194735025019
 50
319.8948714412608751
 51
87.7113656603268765
  0
ARC
  5
2355E
  8
0
 10
4574.4897159680822369
 20
253.2413216874703039
 30
0.0
 40
0.0083677558370965
 50
331.3096631793554252
 51
72.4653466364417369
  0
ARC
  5
2355F
  8
0
 10
4585.4976301966553365
 20
388.1117991127375717
 30
0.0
 40
134.9782588212129895
 50
266.1419058692005137
 51
266.459135420940413
  0
ARC
  5
23560
  8
0
 10
4579.4035341434373549
 20
294.4489252483541009
 30
0.0
 40
41.1188916017963919
 50
266.8741049906096805
 51
267.9329228580132281
  0
ARC
  5
23561
  8
0
 10
4579.1581494829542862
 20
281.5245932536620899
 30
0.0
 40
28.1949845132095582
 50
267.4839221096351025
 51
268.6631206652893979
  0
ARC
  5
23562
  8
0
 10
4579.9280334091336044
 20
329.6813161131616994
 30
0.0
 40
76.3573810555919152
 50
268.9286466143910275
 51
269.1576627409069147
  0
ARC
  5
23563
  8
0
 10
4574.4394742139802474
 20
-39.0077301461340369
 30
0.0
 40
292.3725178083388982
 50
89.0704533534576086
 51
89.1443647732253055
  0
LINE
  5
23564
  8
0
 10
4578.5003371214279468
 20
253.3372834388331967
 30
0.0
 11
4578.4732458412872802
 21
253.4461510284332064
 31
0.0
  0
ARC
  5
23565
  8
0
 10
4582.1921347641682587
 20
169.8342285816443962
 30
0.0
 40
83.529382631010435
 50
90.5292742574247882
 51
91.8398681435011781
  0
ARC
  5
23566
  8
0
 10
4577.07434095867211
 20
98.6230408639406448
 30
0.0
 40
154.8092658812180105
 50
87.6491120493632963
 51
88.2699371392915282
  0
ARC
  5
23567
  8
0
 10
4583.2783796233688918
 20
260.2605017932746136
 30
0.0
 40
6.9552857569732982
 50
273.5005916589224171
 51
277.9654805032648142
  0
ARC
  5
23568
  8
0
 10
4583.7941016092399877
 20
256.4450507450021064
 30
0.0
 40
3.1052323399859101
 50
278.2973400579663803
 51
285.037339192845991
  0
ARC
  5
23569
  8
0
 10
4578.3387603143337401
 20
278.1609635391213828
 30
0.0
 40
25.4949057490016493
 50
284.4428468936804961
 51
285.0059525430459075
  0
ARC
  5
2356A
  8
0
 10
4705.1572286840537345
 20
188.1847741142404971
 30
0.0
 40
136.993023080122299
 50
150.9944299823004883
 51
151.4543805544541044
  0
ARC
  5
2356B
  8
0
 10
4712.2634423652607438
 20
181.907195492621014
 30
0.0
 40
146.088723372256112
 50
150.0388755417235132
 51
150.7060069992529066
  0
ARC
  5
2356C
  8
0
 10
4585.1607522875337963
 20
253.1091560007253918
 30
0.0
 40
0.1637816763857838
 50
89.2121668662561831
 51
107.8477082274683028
  0
ARC
  5
2356D
  8
0
 10
4585.1263224688309492
 20
253.2119237647632133
 30
0.0
 40
0.055422019601302
 50
106.5286786721512016
 51
133.4275514976476131
  0
ARC
  5
2356E
  8
0
 10
4585.097517426592276
 20
253.241338836093405
 30
0.0
 40
0.0142749477090084
 50
130.6228749808776115
 51
194.2350862313840878
  0
ARC
  5
2356F
  8
0
 10
4585.1020396730946231
 20
253.243409697198814
 30
0.0
 40
0.0191884608413854
 50
196.9092293083940035
 51
227.103070770408209
  0
ARC
  5
23570
  8
0
 10
4587.4456990439421133
 20
253.1345121267605123
 30
0.0
 40
0.0382209233749256
 50
36.9166833765572235
 51
67.8180879184660057
  0
ARC
  5
23571
  8
0
 10
4587.4118737611879624
 20
253.0475209710328102
 30
0.0
 40
0.1315533310225656
 50
68.4807704233968053
 51
87.9979660062868589
  0
ARC
  5
23572
  8
0
 10
4587.4005274169167024
 20
252.8880170563853085
 30
0.0
 40
0.2914133391236424
 50
86.8639921663360752
 51
97.8496713127080966
  0
ARC
  5
23573
  8
0
 10
4586.3456525206720471
 20
252.6724381766368879
 30
0.0
 40
0.0024318954535565
 50
200.6337282861020128
 51
230.5440602721573953
  0
ARC
  5
23574
  8
0
 10
4584.3941808440604291
 20
252.0867934621199993
 30
0.0
 40
2.035028473452742
 50
16.7000262338534995
 51
16.9965248337049992
  0
ARC
  5
23575
  8
0
 10
4586.2344229665450257
 20
252.6390102944774867
 30
0.0
 40
0.1141670341550056
 50
21.93622497652051
 51
30.8008087958464891
  0
ARC
  5
23576
  8
0
 10
4586.4579075232122705
 20
252.7682565941190092
 30
0.0
 40
0.1440174465026225
 50
195.9462054564409073
 51
209.4400994685337878
  0
ARC
  5
23577
  8
0
 10
4586.460068377305106
 20
252.7689884412721995
 30
0.0
 40
0.1462962562633081
 50
170.8563471152534987
 51
195.9892955320034957
  0
ARC
  5
23578
  8
0
 10
4586.45994327563767
 20
252.7689988654130104
 30
0.0
 40
0.1461710880720849
 50
153.6790669538395093
 51
170.8525887312898135
  0
ARC
  5
23579
  8
0
 10
4586.2226926874946002
 20
252.8863632417809981
 30
0.0
 40
0.1185216364499994
 50
333.6790840795213171
 51
0.0041887181430243
  0
ARC
  5
2357A
  8
0
 10
4586.6042890830613032
 20
253.0733239221339943
 30
0.0
 40
0.2630774450203011
 50
175.4870744488019909
 51
180.2588758018520991
  0
ARC
  5
2357B
  8
0
 10
4586.3834285079074107
 20
253.0919500536309954
 30
0.0
 40
0.0414531354917625
 50
165.2295495766254874
 51
177.1323619139110122
  0
ARC
  5
2357C
  8
0
 10
4586.3466427899329574
 20
253.1015212579899014
 30
0.0
 40
0.0034450646155299
 50
147.7190562184578084
 51
163.1753465715385971
  0
ARC
  5
2357D
  8
0
 10
4586.3441955929984033
 20
253.1031099085695075
 30
0.0
 40
0.0005288906862897
 50
99.6319444584173368
 51
151.6362049028105048
  0
ARC
  5
2357E
  8
0
 10
4586.4087864922094013
 20
252.6595786311031873
 30
0.0
 40
0.0008488096891647
 50
220.963394285805407
 51
253.9297996818822867
  0
ARC
  5
2357F
  8
0
 10
4586.410230843055615
 20
252.6608666257561993
 30
0.0
 40
0.0027839783938031
 50
205.8867441087361101
 51
221.4927082075309102
  0
ARC
  5
23580
  8
0
 10
4586.4207127323752502
 20
252.6654617026360938
 30
0.0
 40
0.0142271614500714
 50
191.3463635031467902
 51
204.1051291560773961
  0
ARC
  5
23581
  8
0
 10
4586.4851199103659383
 20
252.6787207565874098
 30
0.0
 40
0.0799848066069139
 50
185.8556680707141879
 51
191.5816612573366911
  0
ARC
  5
23582
  8
0
 10
4586.5000323518243022
 20
252.7276158573691021
 30
0.0
 40
0.0382223628177638
 50
348.8135612540150987
 51
0.8500288974687896
  0
ARC
  5
23583
  8
0
 10
4586.0120280906166954
 20
252.719737467268601
 30
0.0
 40
0.5316774847763945
 50
355.1288308919477004
 51
0.3114880803793236
  0
ARC
  5
23584
  8
0
 10
4586.5025883066200549
 20
252.6754935039122074
 30
0.0
 40
0.0392073469589989
 50
334.7215576081821951
 51
358.6792193112564178
  0
ARC
  5
23585
  8
0
 10
4586.4929667619680913
 20
258.3845325944593014
 30
0.0
 40
5.6529495524646212
 50
269.9342642836302844
 51
270.0350434703627798
  0
ARC
  5
23586
  8
0
 10
4586.4964247695370432
 20
252.7118250476621029
 30
0.0
 40
0.0197590516781486
 50
61.6645954212723666
 51
90.0015325293231001
  0
ARC
  5
23587
  8
0
 10
4586.4964101163423038
 20
252.7117623978629126
 30
0.0
 40
0.019821157073972
 50
36.5734293502170473
 51
61.7132682593007118
  0
ARC
  5
23588
  8
0
 10
4586.4961766928181532
 20
252.7115366817010056
 30
0.0
 40
0.0201431557935399
 50
24.8044984228921983
 51
36.6934224636777415
  0
ARC
  5
23589
  8
0
 10
4586.491007376916059
 20
252.7095758079420023
 30
0.0
 40
0.025661150140308
 50
4.4649663574229361
 51
23.9366354428016983
  0
ARC
  5
2358A
  8
0
 10
4586.4243583351044435
 20
252.7027104805914064
 30
0.0
 40
0.0926571802164174
 50
350.9951906446524958
 51
5.4889660890508303
  0
ARC
  5
2358B
  8
0
 10
4586.4957639999865933
 20
252.6928604007003969
 30
0.0
 40
0.0206406881937089
 50
316.8070780327742
 51
346.9736928504348157
  0
ARC
  5
2358C
  8
0
 10
4586.4962797306516222
 20
252.6924899693457007
 30
0.0
 40
0.0200113206002474
 50
300.731355738286311
 51
316.5696309955529841
  0
LINE
  5
2358D
  8
0
 10
4586.507871747828176
 20
253.0202996673542941
 30
0.0
 11
4586.5078717474279983
 21
252.879712930133195
 31
0.0
  0
ARC
  5
2358E
  8
0
 10
4586.3893505267960791
 20
252.8797040905446067
 30
0.0
 40
0.1185212209614365
 50
341.2161762437056041
 51
0.0042732526268964
  0
ARC
  5
2358F
  8
0
 10
4586.3893650760255696
 20
252.8797003134336876
 30
0.0
 40
0.1185062304013306
 50
332.1555444339517749
 51
341.2156401156547076
  0
ARC
  5
23590
  8
0
 10
4586.5989152210386237
 20
252.7690063928961877
 30
0.0
 40
0.1184840802123997
 50
152.1543508533117119
 51
160.4977750596401052
  0
ARC
  5
23591
  8
0
 10
4586.5989359073028027
 20
252.7689982737016976
 30
0.0
 40
0.1185062902167318
 50
160.4974136993124887
 51
171.7802752199492033
  0
ARC
  5
23592
  8
0
 10
4586.5990477281320636
 20
252.7689884545029031
 30
0.0
 40
0.118618366331545
 50
171.7833031470055118
 51
186.933454550081791
  0
ARC
  5
23593
  8
0
 10
4586.5988832864941287
 20
252.7689555560706935
 30
0.0
 40
0.1184511565608884
 50
186.9272596864186937
 51
198.389702999867211
  0
ARC
  5
23594
  8
0
 10
4586.6272772377187721
 20
252.7803750224547912
 30
0.0
 40
0.1490095449557063
 50
199.1120733981545072
 51
210.6982544343094901
  0
ARC
  5
23595
  8
0
 10
4586.437824716891555
 20
252.6729438056904087
 30
0.0
 40
0.0688770126589859
 50
23.0466770915796211
 51
27.0839100365814609
  0
ARC
  5
23596
  8
0
 10
4586.4372871367368134
 20
252.6693238474468046
 30
0.0
 40
0.0708575799870578
 50
14.7241925749488392
 51
25.5708121843891583
  0
ARC
  5
23597
  8
0
 10
4586.4807065069207965
 20
252.6798571132532913
 30
0.0
 40
0.0262006167784988
 50
349.9586057637018826
 51
16.5797710023025502
  0
ARC
  5
23598
  8
0
 10
4586.4875745316830944
 20
252.6775557522259987
 30
0.0
 40
0.0190665007470541
 50
340.2787302250317225
 51
353.1714932756942176
  0
LINE
  5
23599
  8
0
 10
4586.4804291777281833
 20
253.0617608828057996
 30
0.0
 11
4586.4804291777281833
 21
252.8863719065332134
 31
0.0
  0
ARC
  5
2359A
  8
0
 10
4586.3619053741840617
 20
252.8863634921083872
 30
0.0
 40
0.1185238038425852
 50
333.679440255118493
 51
0.0040676304277511
  0
ARC
  5
2359B
  8
0
 10
4586.5992106426583632
 20
252.7689858932791935
 30
0.0
 40
0.1462237952877033
 50
153.6836345003794975
 51
207.239991571394512
  0
ARC
  5
2359C
  8
0
 10
4586.3672269312428398
 20
252.6429468117345891
 30
0.0
 40
0.1178693273516531
 50
21.0059388543748291
 51
30.0983117857570903
  0
ARC
  5
2359D
  8
0
 10
4586.4591475816414459
 20
252.6769255266665937
 30
0.0
 40
0.0199152536187429
 50
351.1909284549843733
 51
24.5460385153005909
  0
ARC
  5
2359E
  8
0
 10
4586.4737095278742345
 20
252.6739511089685095
 30
0.0
 40
0.0051189460555875
 50
318.5211908994397731
 51
359.1554658982213937
  0
LINE
  5
2359F
  8
0
 10
4586.5382505083280194
 20
252.7281828960134078
 30
0.0
 11
4586.5382504693270675
 21
252.9744024094565873
 31
0.0
  0
LINE
  5
235A0
  8
0
 10
4586.5382504756726121
 20
252.9343400048331887
 30
0.0
 11
4586.5411555244281772
 21
252.9343400048331887
 31
0.0
  0
LINE
  5
235A1
  8
0
 10
4586.5411555244281772
 20
252.9343400048331887
 30
0.0
 11
4586.5411555244281772
 21
252.8949699261332
 31
0.0
  0
LINE
  5
235A2
  8
0
 10
4586.5407923922275586
 20
252.9343400048331887
 30
0.0
 11
4586.5407923922275586
 21
252.8949699261332
 31
0.0
  0
LINE
  5
235A3
  8
0
 10
4586.5407923922275586
 20
252.8949699261332
 30
0.0
 11
4586.543697526586584
 21
252.8949699261332
 31
0.0
  0
ARC
  5
235A4
  8
0
 10
4589.8991382858212091
 20
253.0674836651035093
 30
0.0
 40
0.140717257707599
 50
179.7090325010898937
 51
195.622069350734904
  0
ARC
  5
235A5
  8
0
 10
4589.8377196984629336
 20
253.0487869795850884
 30
0.0
 40
0.0765467444963806
 50
194.524279596769702
 51
218.6377429818334122
  0
ARC
  5
235A6
  8
0
 10
4589.8013095157102725
 20
253.0188410681348046
 30
0.0
 40
0.0294156870125961
 50
217.35847777379891
 51
267.2967428355656807
  0
ARC
  5
235A7
  8
0
 10
4589.9679033089369113
 20
253.0674800743705077
 30
0.0
 40
0.1412168193197413
 50
179.7086049382824058
 51
194.6258436849678048
  0
ARC
  5
235A8
  8
0
 10
4589.9087948865953877
 20
253.0503314579113976
 30
0.0
 40
0.0797111053081377
 50
193.4270245286705858
 51
218.182336147021914
  0
ARC
  5
235A9
  8
0
 10
4589.8694855088197073
 20
253.0186831871272943
 30
0.0
 40
0.0292538762575946
 50
217.0515410342970029
 51
267.4572176050776875
  0
ARC
  5
235AA
  8
0
 10
4589.945902163935898
 20
253.0189240732017026
 30
0.0
 40
0.0294981516889688
 50
272.677096146644601
 51
323.8157791129145835
  0
ARC
  5
235AB
  8
0
 10
4589.8978535389242097
 20
253.0548816049351046
 30
0.0
 40
0.0895104258566853
 50
323.396484808219725
 51
350.8454145131054247
  0
ARC
  5
235AC
  8
0
 10
4589.8398184906618553
 20
253.0681141397967053
 30
0.0
 40
0.1489608056255796
 50
349.3718295719315279
 51
0.0323604939257381
  0
ARC
  5
235AD
  8
0
 10
4589.8371953334071804
 20
253.1044377775606051
 30
0.0
 40
0.051419330454032
 50
319.7932617107293822
 51
3.4905095262696748
  0
ARC
  5
235AE
  8
0
 10
4589.8787489425030799
 20
253.0801681639142942
 30
0.0
 40
0.011978187127562
 50
230.5667175692697128
 51
267.8674712892060938
  0
ARC
  5
235AF
  8
0
 10
4589.8941549195506013
 20
253.0954695760634081
 30
0.0
 40
0.0336526924762974
 50
195.0379254674558069
 51
226.8527144118154126
  0
ARC
  5
235B0
  8
0
 10
4589.9308080128221263
 20
253.1072313172589077
 30
0.0
 40
0.0721259609512145
 50
179.7322642217557132
 51
196.506904758859207
  0
ARC
  5
235B1
  8
0
 10
4589.9370203982225576
 20
253.0790410632081944
 30
0.0
 40
0.0108437464313718
 50
270.7607198332108283
 51
301.280029551151074
  0
ARC
  5
235B2
  8
0
 10
4589.9325528909603236
 20
253.0860432737663928
 30
0.0
 40
0.0191486082736237
 50
301.8258480097230176
 51
325.8946011727787777
  0
ARC
  5
235B3
  8
0
 10
4589.906205975593366
 20
253.10228925471759
 30
0.0
 40
0.0500908814162329
 50
327.4062074297863205
 51
345.663750587572224
  0
ARC
  5
235B4
  8
0
 10
4589.8795402797813949
 20
253.1075542836219938
 30
0.0
 40
0.0772444705274172
 50
346.7776822872701246
 51
0.0104346689639388
  0
LINE
  5
235B5
  8
0
 10
4590.776308181625609
 20
253.2729221969331945
 30
0.0
 11
4590.3444572486696416
 21
253.1311903985331924
 31
0.0
  0
ARC
  5
235B6
  8
0
 10
4587.1084515863258275
 20
253.8259283175748919
 30
0.0
 40
0.2814259537878526
 50
181.1730929529948924
 51
268.6872734975265189
  0
ARC
  5
235B7
  8
0
 10
4587.0686134772586229
 20
254.7554843564585099
 30
0.0
 40
0.2654775131318994
 50
90.4361460528526635
 51
182.1847911928282997
  0
ARC
  5
235B8
  8
0
 10
4588.4566850505716502
 20
254.7530500054427876
 30
0.0
 40
0.2697215235211051
 50
358.3669955469778756
 51
83.3450716994552039
  0
ARC
  5
235B9
  8
0
 10
4588.4729427730226234
 20
254.7542712160746134
 30
0.0
 40
0.2671044864545309
 50
358.0889065256620256
 51
86.7806693930291289
  0
ARC
  5
235BA
  8
0
 10
4588.4635900644552748
 20
253.8131702068338882
 30
0.0
 40
0.2887300906311348
 50
317.898320261413005
 51
1.3885348113230771
  0
ARC
  5
235BB
  8
0
 10
4588.5077768355613443
 20
253.7747760732933102
 30
0.0
 40
0.2302069718916845
 50
270.450753787098904
 51
317.6150386681364921
  0
ARC
  5
235BC
  8
0
 10
4588.4925480958563639
 20
253.7760527273129014
 30
0.0
 40
0.2321028338163448
 50
274.2101480032598033
 51
312.7214909570378722
  0
ARC
  5
235BD
  8
0
 10
4588.4626838184885855
 20
253.8060160155251879
 30
0.0
 40
0.2743813827020535
 50
313.0580957333208971
 51
344.0832022681988747
  0
ARC
  5
235BE
  8
0
 10
4588.4332284163483564
 20
253.8158732239353981
 30
0.0
 40
0.3054139602755818
 50
343.8202965440322032
 51
0.8054949433339441
  0
ARC
  5
235BF
  8
0
 10
4588.3050594931182786
 20
253.9507620560922874
 30
0.0
 40
0.1676895267822565
 50
329.144092071573823
 51
1.114968284670123
  0
ARC
  5
235C0
  8
0
 10
4588.3288622888248938
 20
253.9351439745400114
 30
0.0
 40
0.1392507349417857
 50
283.746088734547186
 51
329.637641463702721
  0
ARC
  5
235C1
  8
0
 10
4588.3342104742187075
 20
253.9509608144315109
 30
0.0
 40
0.1683792911640048
 50
329.101191010277887
 51
1.042754150055295
  0
ARC
  5
235C2
  8
0
 10
4588.357149696507804
 20
253.9366320578265004
 30
0.0
 40
0.1413384921138558
 50
292.4076936679535947
 51
329.3100952204084138
  0
ARC
  5
235C3
  8
0
 10
4588.3625839493870444
 20
253.9257935045536954
 30
0.0
 40
0.1292498783555881
 50
263.3805286894174742
 51
292.0121202213688889
  0
ARC
  5
235C4
  8
0
 10
4588.3646130042998266
 20
253.9354784666167006
 30
0.0
 40
0.1391070814295156
 50
228.4504958935405057
 51
263.0102036915969279
  0
ARC
  5
235C5
  8
0
 10
4588.3750911024371817
 20
253.9487529265666979
 30
0.0
 40
0.1559942081428381
 50
212.7410945773227127
 51
228.8041585249854961
  0
ARC
  5
235C6
  8
0
 10
4588.3871157381818193
 20
253.9564097750456142
 30
0.0
 40
0.1702495771511024
 50
180.8025833693980928
 51
212.7198599227114073
  0
ARC
  5
235C7
  8
0
 10
4588.298165057620281
 20
253.9493655833016135
 30
0.0
 40
0.0887052402526276
 50
218.3291393929160051
 51
236.856902347241288
  0
ARC
  5
235C8
  8
0
 10
4588.2952697517375782
 20
253.944827586427607
 30
0.0
 40
0.0833226036861024
 50
236.8178404601825093
 51
269.8277599878596789
  0
ARC
  5
235C9
  8
0
 10
4588.300675876987043
 20
253.9564528958613039
 30
0.0
 40
0.0920564676872322
 50
135.2342220499056111
 51
153.0293851321509067
  0
ARC
  5
235CA
  8
0
 10
4588.2973674682152705
 20
253.9596717173945137
 30
0.0
 40
0.0874408097923116
 50
120.1775204453705044
 51
135.2050767190818874
  0
ARC
  5
235CB
  8
0
 10
4588.2954422353077462
 20
253.9629521392373022
 30
0.0
 40
0.083637200412018
 50
100.7032723027265035
 51
120.1670357432540044
  0
ARC
  5
235CC
  8
0
 10
4588.2950665563839721
 20
253.9643844157463093
 30
0.0
 40
0.0821601349936497
 50
90.0329749777030344
 51
100.6313481851621958
  0
ARC
  5
235CD
  8
0
 10
4588.2669833462077804
 20
253.9607825023634007
 30
0.0
 40
0.0860973762961617
 50
117.259828076407203
 51
129.43874344483649
  0
ARC
  5
235CE
  8
0
 10
4588.2656467991246245
 20
253.9634638395650086
 30
0.0
 40
0.0831016679699209
 50
101.059000697999295
 51
117.287417034283294
  0
ARC
  5
235CF
  8
0
 10
4588.2654458083661666
 20
253.9644218456813007
 30
0.0
 40
0.0821228989738333
 50
90.0351135954995954
 51
101.0495862147831048
  0
ARC
  5
235D0
  8
0
 10
4588.2950093095059856
 20
253.8721838523229906
 30
0.0
 40
0.0106783055365431
 50
270.053451403849806
 51
277.4077048108454733
  0
ARC
  5
235D1
  8
0
 10
4588.294740224268935
 20
253.8736093153765978
 30
0.0
 40
0.0121268487411007
 50
277.80012273192051
 51
297.4089064136330194
  0
ARC
  5
235D2
  8
0
 10
4588.2871392849810945
 20
253.8852841641958094
 30
0.0
 40
0.026026380911128
 50
300.4335910777406866
 51
330.5949302248899926
  0
ARC
  5
235D3
  8
0
 10
4588.2032867108428036
 20
253.9296095707616132
 30
0.0
 40
0.1208661931031492
 50
331.8062130022290148
 51
352.9005196536151061
  0
ARC
  5
235D4
  8
0
 10
4588.0757592602549266
 20
253.9517576609688092
 30
0.0
 40
0.2502304746960802
 50
351.4768887230911218
 51
0.0958317211105598
  0
ARC
  5
235D5
  8
0
 10
4588.0774183895637179
 20
253.956433566604602
 30
0.0
 40
0.2485715731664378
 50
359.8985698703917819
 51
8.4211891199437261
  0
ARC
  5
235D6
  8
0
 10
4588.174322235145155
 20
253.9720633150112974
 30
0.0
 40
0.1504289216799598
 50
7.9375485972742217
 51
19.3862516752538703
  0
ARC
  5
235D7
  8
0
 10
4588.2462823029909487
 20
253.9973066048358987
 30
0.0
 40
0.0741697324600791
 50
19.4434132512128208
 51
30.1072450257730218
  0
ARC
  5
235D8
  8
0
 10
4588.2816368757721648
 20
254.0182584101403052
 30
0.0
 40
0.0330773747476751
 50
29.430659561540029
 51
48.7539814500904427
  0
ARC
  5
235D9
  8
0
 10
4588.2935369049146175
 20
254.0315791063979987
 30
0.0
 40
0.0152170189391895
 50
49.3760550082885388
 51
72.5041866382019293
  0
ARC
  5
235DA
  8
0
 10
4588.2949859301097604
 20
254.0355204237818896
 30
0.0
 40
0.0110241637699246
 50
73.5285720412088608
 51
89.8267152250309806
  0
CIRCLE
  5
235DB
  8
0
 10
4588.3259903273192322
 20
253.9540848570377989
 30
0.0
 40
0.0019086662443297
  0
ARC
  5
235DC
  8
0
 10
4588.2949783914828004
 20
253.9540507641411011
 30
0.0
 40
0.0925454139368564
 50
270.0253092334421012
 51
281.1316936764991965
  0
ARC
  5
235DD
  8
0
 10
4588.2950447138746313
 20
253.9537705408284012
 30
0.0
 40
0.0922576588771475
 50
281.1248787709474755
 51
308.9917284214299116
  0
ARC
  5
235DE
  8
0
 10
4588.2949109419532761
 20
253.9539715589395996
 30
0.0
 40
0.0924980706806498
 50
308.9777852616114728
 51
339.4612564289824945
  0
ARC
  5
235DF
  8
0
 10
4588.2948101547899569
 20
253.954020538236108
 30
0.0
 40
0.0926096358495293
 50
339.4547567576498182
 51
4.8473258472913896
  0
ARC
  5
235E0
  8
0
 10
4588.2948235381118138
 20
253.954033142670994
 30
0.0
 40
0.0925952360128849
 50
4.8402541874636169
 51
34.5957540286879208
  0
ARC
  5
235E1
  8
0
 10
4588.2949353944395625
 20
253.9541049796656011
 30
0.0
 40
0.092462370591807
 50
34.5984653319268531
 51
63.573264287783779
  0
ARC
  5
235E2
  8
0
 10
4588.2950067741248859
 20
253.9541801007910067
 30
0.0
 40
0.0923633365916276
 50
63.5921768529667872
 51
89.9092969300733671
  0
ARC
  5
235E3
  8
0
 10
4588.4761304222347462
 20
254.0490902756106095
 30
0.0
 40
0.2647843422272674
 50
170.8868118392003908
 51
190.9491329495928085
  0
ARC
  5
235E4
  8
0
 10
4588.1292509482709647
 20
254.0475623111665868
 30
0.0
 40
0.0958568611064162
 50
26.9646561338796111
 51
55.4522763781199188
  0
ARC
  5
235E5
  8
0
 10
4588.1354669720940365
 20
254.0567118961062931
 30
0.0
 40
0.0847957352717559
 50
55.405783922223641
 51
90.1952327184363583
  0
ARC
  5
235E6
  8
0
 10
4588.1356683922267621
 20
254.058879409408803
 30
0.0
 40
0.0826291847069142
 50
90.3400197933905389
 51
126.8001658578562996
  0
ARC
  5
235E7
  8
0
 10
4588.140242602885337
 20
254.0523032323513064
 30
0.0
 40
0.0906354173519965
 50
126.6253145730415071
 51
150.4119190429863124
  0
ARC
  5
235E8
  8
0
 10
4588.1494817682496432
 20
254.047190192950012
 30
0.0
 40
0.1011944593908282
 50
150.4774007389925998
 51
181.1571722610968038
  0
ARC
  5
235E9
  8
0
 10
4588.1521609315586829
 20
254.0469141403359004
 30
0.0
 40
0.1038680259474882
 50
180.9750806269452994
 51
205.2233925618710089
  0
ARC
  5
235EA
  8
0
 10
4588.146036408573309
 20
254.0434464407055941
 30
0.0
 40
0.0968511357752268
 50
204.9115613109466096
 51
234.50523084306991
  0
ARC
  5
235EB
  8
0
 10
4588.1393899821496234
 20
254.033677112677907
 30
0.0
 40
0.0850385515287781
 50
234.3293514264553892
 51
273.780373596451625
  0
ARC
  5
235EC
  8
0
 10
4588.138737060387939
 20
254.0320859086486962
 30
0.0
 40
0.0834972845765321
 50
274.2994304414473845
 51
313.0721330252827102
  0
ARC
  5
235ED
  8
0
 10
4588.1325700315701397
 20
254.0390025980202893
 30
0.0
 40
0.092761724149631
 50
312.9371389628885254
 51
334.3152052124985971
  0
ARC
  5
235EE
  8
0
 10
4588.1286536914385579
 20
254.0372243442571119
 30
0.0
 40
0.0694672510024062
 50
213.5418211689122927
 51
266.0345772727513918
  0
ARC
  5
235EF
  8
0
 10
4588.1361017886620175
 20
254.0425891497191913
 30
0.0
 40
0.0786402166411235
 50
172.0953453492809047
 51
213.8012407072070005
  0
ARC
  5
235F0
  8
0
 10
4588.1339115847922585
 20
254.0434335767156142
 30
0.0
 40
0.076356569270262
 50
136.1775490858518936
 51
172.496944127248895
  0
ARC
  5
235F1
  8
0
 10
4588.1281581951679982
 20
254.0492501901543108
 30
0.0
 40
0.0681783203350626
 50
93.6179243954447742
 51
136.3564045072467934
  0
ARC
  5
235F2
  8
0
 10
4588.1276227246889903
 20
254.0500579227098967
 30
0.0
 40
0.0673401431734847
 50
50.4204327261852185
 51
93.2065959220234959
  0
ARC
  5
235F3
  8
0
 10
4588.1220652368710944
 20
254.0435734371467902
 30
0.0
 40
0.0758790994743688
 50
7.2992696427893042
 51
50.3058122417052189
  0
ARC
  5
235F4
  8
0
 10
4588.1190158151930518
 20
254.0426060063421119
 30
0.0
 40
0.0790287939984728
 50
332.4377591321273826
 51
7.7140855203747876
  0
ARC
  5
235F5
  8
0
 10
4588.1251490779513915
 20
254.0391542342152889
 30
0.0
 40
0.0719947696457238
 50
296.2626157098645194
 51
332.6145077207343093
  0
ARC
  5
235F6
  8
0
 10
4588.1277083641389254
 20
254.0345060955582142
 30
0.0
 40
0.0666944108038174
 50
266.6832691323338054
 51
296.0578385356856757
  0
ARC
  5
235F7
  8
0
 10
4588.2937913664673033
 20
254.6096572615336129
 30
0.0
 40
0.1693909421402441
 50
0.6251300985693402
 51
41.540721165231858
  0
ARC
  5
235F8
  8
0
 10
4588.3145519713052636
 20
254.6273491763033974
 30
0.0
 40
0.1421204882785783
 50
41.7525018901793601
 51
76.8940961123874871
  0
ARC
  5
235F9
  8
0
 10
4588.3724460592084142
 20
254.6147992739510073
 30
0.0
 40
0.166257375935644
 50
150.9331875657493924
 51
181.1352263868334092
  0
ARC
  5
235FA
  8
0
 10
4588.3562039324897341
 20
254.6238660731017944
 30
0.0
 40
0.1476559720164834
 50
123.9637066810993957
 51
150.9463694914535949
  0
ARC
  5
235FB
  8
0
 10
4588.3482502291044511
 20
254.6353352770923948
 30
0.0
 40
0.1337001675334429
 50
96.6464399062836037
 51
123.8826005617621036
  0
ARC
  5
235FC
  8
0
 10
4588.3210589188329322
 20
254.6092367858379077
 30
0.0
 40
0.1719427037603014
 50
0.7559744056025256
 51
29.1550905550635484
  0
ARC
  5
235FD
  8
0
 10
4588.3355521744933867
 20
254.6174028762964099
 30
0.0
 40
0.1553073812451843
 50
29.1289987969979087
 51
52.0809473275445782
  0
ARC
  5
235FE
  8
0
 10
4588.3451038694956878
 20
254.6294367219591095
 30
0.0
 40
0.1399442227466115
 50
52.1381711577105023
 51
73.5157419084285237
  0
ARC
  5
235FF
  8
0
 10
4588.3476603687840907
 20
254.6373569412255904
 30
0.0
 40
0.1316242890846418
 50
73.6045619171631387
 51
96.4932566274796528
  0
ARC
  5
23600
  8
0
 10
4587.7184013764526753
 20
253.8201518674856914
 30
0.0
 40
0.0832941532596849
 50
179.9897444722319904
 51
202.6441753935164058
  0
ARC
  5
23601
  8
0
 10
4587.7138181954060201
 20
253.8181271723836971
 30
0.0
 40
0.0782848202746799
 50
202.5680136241801961
 51
229.4972466363435046
  0
ARC
  5
23602
  8
0
 10
4587.7094450227696143
 20
253.8128534878730989
 30
0.0
 40
0.0714346053644594
 50
229.4170980511096047
 51
268.442954045428678
  0
ARC
  5
23603
  8
0
 10
4587.695646467651386
 20
253.8200673963870031
 30
0.0
 40
0.0827571467947708
 50
179.9311954975395054
 51
207.7315132628633876
  0
ARC
  5
23604
  8
0
 10
4587.6904549055079769
 20
253.8172278321889905
 30
0.0
 40
0.076840629357557
 50
207.6587223185308062
 51
237.3489885280800991
  0
ARC
  5
23605
  8
0
 10
4587.6871728352216451
 20
253.812442519389208
 30
0.0
 40
0.0710410157264824
 50
237.4954825024393017
 51
258.6192293400230255
  0
ARC
  5
23606
  8
0
 10
4587.6869412721507615
 20
253.8113947568483013
 30
0.0
 40
0.0699681638393314
 50
258.6358172434324274
 51
269.9505830544388232
  0
ARC
  5
23607
  8
0
 10
4587.8909735770739644
 20
254.0377128772651076
 30
0.0
 40
0.0602438232528789
 50
50.2019605731437721
 51
84.9698750681660044
  0
ARC
  5
23608
  8
0
 10
4587.89350572717467
 20
254.0434868522939951
 30
0.0
 40
0.0542151226179036
 50
14.1666899663433892
 51
48.3518176323225077
  0
ARC
  5
23609
  8
0
 10
4587.8871808604681064
 20
254.0425332719061942
 30
0.0
 40
0.0605842263764794
 50
341.4037423835571872
 51
13.5771249796508098
  0
ARC
  5
2360A
  8
0
 10
4587.8884668418968431
 20
254.0436769819050085
 30
0.0
 40
0.0597487968899924
 50
309.2092166274082956
 51
339.9708415706660958
  0
ARC
  5
2360B
  8
0
 10
4587.8980349058001593
 20
254.0326251517601861
 30
0.0
 40
0.0451388987588732
 50
269.3035309965670763
 51
308.6668433794943098
  0
ARC
  5
2360C
  8
0
 10
4587.8976133857731838
 20
254.0362940094896942
 30
0.0
 40
0.0488056018650121
 50
242.84207745463479
 51
269.4096212091117764
  0
ARC
  5
2360D
  8
0
 10
4587.8960005869221277
 20
254.0497427082677007
 30
0.0
 40
0.0479826556978214
 50
89.6953387238703641
 51
119.522393364671899
  0
ARC
  5
2360E
  8
0
 10
4587.9028541536417833
 20
254.0503817657682077
 30
0.0
 40
0.0512810741731245
 50
73.7643335891387864
 51
89.9652935544494312
  0
ARC
  5
2360F
  8
0
 10
4587.9019052836210903
 20
254.0475297412941131
 30
0.0
 40
0.0542847718190306
 50
51.6036657260969065
 51
73.644395803493282
  0
ARC
  5
23610
  8
0
 10
4587.8991366710833972
 20
254.0440232307036013
 30
0.0
 40
0.0587525198306734
 50
32.9884484449568021
 51
51.6114988960087118
  0
ARC
  5
23611
  8
0
 10
4587.8957961894711843
 20
254.041839123461898
 30
0.0
 40
0.0627436323107531
 50
12.6276077497981003
 51
33.0004972468803714
  0
ARC
  5
23612
  8
0
 10
4587.894750753950575
 20
254.0415083462982011
 30
0.0
 40
0.0638361622391829
 50
349.9085299504586146
 51
12.71218328304961
  0
ARC
  5
23613
  8
0
 10
4587.8996569572000226
 20
254.0402377210550071
 30
0.0
 40
0.0587845247234344
 50
313.7024647689351013
 51
350.289924915046015
  0
ARC
  5
23614
  8
0
 10
4587.904623856523358
 20
254.0352847150728053
 30
0.0
 40
0.0517723882036071
 50
278.3105553373658836
 51
313.5158122625579153
  0
ARC
  5
23615
  8
0
 10
4587.9049816243714304
 20
254.0346603767663112
 30
0.0
 40
0.0511035754628956
 50
251.7348111524709964
 51
278.0148229887911953
  0
ARC
  5
23616
  8
0
 10
4587.9059186156973738
 20
254.0375780304505895
 30
0.0
 40
0.0541678995707058
 50
235.6266489429613102
 51
251.7608909224940135
  0
ARC
  5
23617
  8
0
 10
4587.9078761188820863
 20
254.0404429125667036
 30
0.0
 40
0.0576376784184735
 50
220.1920685568832994
 51
235.6284260674468953
  0
ARC
  5
23618
  8
0
 10
4587.9119810674310429
 20
254.0435853709730054
 30
0.0
 40
0.0628018724995537
 50
180.8919710977945954
 51
219.9652103188670935
  0
ARC
  5
23619
  8
0
 10
4587.9105676610706723
 20
254.0439695944276934
 30
0.0
 40
0.0613959622996386
 50
147.5832475999175983
 51
181.2710277960921985
  0
ARC
  5
2361A
  8
0
 10
4587.9041512880667142
 20
254.0482153539936974
 30
0.0
 40
0.0537035994740989
 50
112.7914411989289931
 51
147.7374128076295108
  0
ARC
  5
2361B
  8
0
 10
4587.9028359813937641
 20
254.0514608128696068
 30
0.0
 40
0.0502020418071934
 50
89.9438075180225525
 51
112.8423548604415032
  0
ARC
  5
2361C
  8
0
 10
4587.8922698668538942
 20
254.5169383605403937
 30
0.0
 40
0.0688190946402195
 50
270.4688443766222008
 51
324.302834969997491
  0
ARC
  5
2361D
  8
0
 10
4587.8848678863014356
 20
254.5228129299283069
 30
0.0
 40
0.0782594559607325
 50
323.9720971548194939
 51
1.3462451659611181
  0
ARC
  5
2361E
  8
0
 10
4587.8853817203080325
 20
254.5231927394991942
 30
0.0
 40
0.0777377097427875
 50
1.0752843370768379
 51
38.1314200558466183
  0
ARC
  5
2361F
  8
0
 10
4587.8922472778403971
 20
254.5289326660989957
 30
0.0
 40
0.0687936215340074
 50
37.9017578991828969
 51
89.5121688487446647
  0
ARC
  5
23620
  8
0
 10
4587.8930152619341243
 20
254.5154914778381112
 30
0.0
 40
0.067370154452466
 50
232.6080124359496892
 51
269.8449919024386077
  0
ARC
  5
23621
  8
0
 10
4587.8987884237440085
 20
254.5221879679010044
 30
0.0
 40
0.0761981263293944
 50
184.0540084818262869
 51
232.2168303906084077
  0
ARC
  5
23622
  8
0
 10
4587.8993791737757419
 20
254.5233571704939095
 30
0.0
 40
0.0768782817381756
 50
132.8721134068379968
 51
184.8921144157916956
  0
ARC
  5
23623
  8
0
 10
4587.8931498759257011
 20
254.5298225448395044
 30
0.0
 40
0.0679019886826335
 50
90.2673831079984836
 51
132.7316358436123096
  0
ARC
  5
23624
  8
0
 10
4587.895923446129018
 20
254.5232538255544057
 30
0.0
 40
0.0774227318689269
 50
138.0706026280780918
 51
180.2450596042355926
  0
ARC
  5
23625
  8
0
 10
4587.8893861053902583
 20
254.5291023087158919
 30
0.0
 40
0.068651116088202
 50
93.3358798729797741
 51
138.0562008994808139
  0
ARC
  5
23626
  8
0
 10
4587.8906163179517534
 20
254.4625699032501984
 30
0.0
 40
0.1351682212759949
 50
89.1546936090712876
 51
92.2153365869464068
  0
ARC
  5
23627
  8
0
 10
4587.8969479776542357
 20
254.5234407817127931
 30
0.0
 40
0.0784482660997933
 50
180.3784040398066963
 51
220.0713022458774049
  0
ARC
  5
23628
  8
0
 10
4587.8840581742351787
 20
254.5059079565027105
 30
0.0
 40
0.0575260636155917
 50
214.9658409190593886
 51
272.3931475591992921
  0
ARC
  5
23629
  8
0
 10
4587.891113953470267
 20
254.5217534390311869
 30
0.0
 40
0.0953420502304138
 50
306.6950309452582815
 51
353.3050945403189189
  0
ARC
  5
2362A
  8
0
 10
4587.8836153436941458
 20
254.523736894631412
 30
0.0
 40
0.1030265900743786
 50
352.6957219550500895
 51
36.9137154919870127
  0
ARC
  5
2362B
  8
0
 10
4587.8933429213584532
 20
254.5319070677539059
 30
0.0
 40
0.090344526876731
 50
36.4761876824985407
 51
83.9998604886136349
  0
ARC
  5
2362C
  8
0
 10
4587.8950364231995991
 20
254.5365331620679967
 30
0.0
 40
0.0855751759726989
 50
84.8037699378096619
 51
138.6712352565288882
  0
ARC
  5
2362D
  8
0
 10
4587.903767829095159
 20
254.5287125481409021
 30
0.0
 40
0.0972964998758204
 50
138.6083903089152045
 51
176.1178986760627083
  0
ARC
  5
2362E
  8
0
 10
4587.9089543014133596
 20
254.5276574087131962
 30
0.0
 40
0.1025449084676488
 50
175.7258984716341104
 51
216.2908747705365045
  0
ARC
  5
2362F
  8
0
 10
4587.9001256844276213
 20
254.5199894096145101
 30
0.0
 40
0.0908952894091026
 50
215.6888448841611137
 51
265.890332331123318
  0
ARC
  5
23630
  8
0
 10
4587.8984851636505482
 20
254.5135702606523864
 30
0.0
 40
0.0843832755948773
 50
266.6890386637139727
 51
306.5161781002606176
  0
ARC
  5
23631
  8
0
 10
4588.1163729292557036
 20
254.521443214665112
 30
0.0
 40
0.0537509610409243
 50
273.704897474631025
 51
317.5808579837707271
  0
ARC
  5
23632
  8
0
 10
4588.1139701734509799
 20
254.5221668166612972
 30
0.0
 40
0.0560233909510444
 50
318.6921980162259729
 51
5.3979782319815364
  0
ARC
  5
23633
  8
0
 10
4588.1164460530308133
 20
254.5236327106877923
 30
0.0
 40
0.0534346673429329
 50
4.0827597692928421
 51
42.6025848945297909
  0
ARC
  5
23634
  8
0
 10
4588.1145518480161627
 20
254.5227281121721887
 30
0.0
 40
0.0554446853693971
 50
41.9656337274523068
 51
86.0455183006818629
  0
ARC
  5
23635
  8
0
 10
4588.1198639502317747
 20
254.5151445527606882
 30
0.0
 40
0.0473397410916124
 50
257.2534002200653731
 51
269.7530633580778954
  0
ARC
  5
23636
  8
0
 10
4588.1201444301259471
 20
254.5165756677980937
 30
0.0
 40
0.0487974900940558
 50
243.1781428998824879
 51
257.3029413138664268
  0
ARC
  5
23637
  8
0
 10
4588.1184310429607649
 20
254.5306930452229039
 30
0.0
 40
0.0473479081436483
 50
90.2027101515806038
 51
105.4209290668638062
  0
ARC
  5
23638
  8
0
 10
4588.1185189376337803
 20
254.5303416427109937
 30
0.0
 40
0.0477100322958999
 50
105.4104684639914069
 51
119.0757652848850938
  0
ARC
  5
23639
  8
0
 10
4588.1273120016130633
 20
254.51403234489959
 30
0.0
 40
0.0501617770973594
 50
266.0424554332304865
 51
302.7154468911011804
  0
ARC
  5
2363A
  8
0
 10
4588.1235960345493368
 20
254.5191335276057885
 30
0.0
 40
0.0564633012093165
 50
303.0903600483966898
 51
338.4078632954316959
  0
ARC
  5
2363B
  8
0
 10
4588.1168594925211437
 20
254.5219242328734026
 30
0.0
 40
0.0637541961313982
 50
338.303752462401178
 51
13.0855354813043299
  0
ARC
  5
2363C
  8
0
 10
4588.1199688062060886
 20
254.5232955789780931
 30
0.0
 40
0.0604184445028607
 50
12.4864058883815208
 51
53.7168160210805183
  0
ARC
  5
2363D
  8
0
 10
4588.1248631405824199
 20
254.5295401568039892
 30
0.0
 40
0.0524889202546602
 50
53.9896435609773917
 51
79.6412432429781632
  0
ARC
  5
2363E
  8
0
 10
4588.1253644795151558
 20
254.5319774572907932
 30
0.0
 40
0.0500012287933706
 50
79.7041685443054604
 51
105.7822247269321991
  0
ARC
  5
2363F
  8
0
 10
4588.1257720413250354
 20
254.530731585167814
 30
0.0
 40
0.0513110116400142
 50
105.8417898175416951
 51
126.3855669224640934
  0
ARC
  5
23640
  8
0
 10
4588.1277031828403778
 20
254.516083903139986
 30
0.0
 40
0.0522360334186085
 50
235.5129836891152877
 51
265.7697133668538072
  0
ARC
  5
23641
  8
0
 10
4588.1321783686917115
 20
254.5222860436174983
 30
0.0
 40
0.059882374445421
 50
196.8731218392250071
 51
235.3437059284021871
  0
ARC
  5
23642
  8
0
 10
4588.1357483724450503
 20
254.5239716697269046
 30
0.0
 40
0.0637905558417904
 50
163.7124791108184922
 51
197.3912512730348112
  0
ARC
  5
23643
  8
0
 10
4588.1297226928882083
 20
254.5260504977406129
 30
0.0
 40
0.0574244976449966
 50
126.7882144053396019
 51
164.0172450795598138
  0
ARC
  5
23644
  8
0
 10
4589.74789443593545
 20
253.620070847021907
 30
0.0
 40
0.0769587951928386
 50
280.7334515042388148
 51
2.333536147769427
  0
ARC
  5
23645
  8
0
 10
4589.7139801743442149
 20
255.5912645767886886
 30
0.0
 40
0.0938556365550963
 50
0.2720474160105945
 51
25.2603219040183404
  0
ARC
  5
23646
  8
0
 10
4589.733452836700053
 20
255.6014124118703137
 30
0.0
 40
0.0719198176477589
 50
24.5688982472805506
 51
58.3416237803388427
  0
ARC
  5
23647
  8
0
 10
4589.7430817224112616
 20
255.6159563304761946
 30
0.0
 40
0.0544892923754307
 50
58.9332228072495496
 51
89.705944499230327
  0
ARC
  5
23648
  8
0
 10
4588.9027617751253274
 20
255.5931380200628951
 30
0.0
 40
0.0848243869623844
 50
149.5862168733416127
 51
181.0160605857977032
  0
ARC
  5
23649
  8
0
 10
4588.8919061952783522
 20
255.5995087090618085
 30
0.0
 40
0.0722375172379388
 50
121.797741195565095
 51
149.585018016760813
  0
ARC
  5
2364A
  8
0
 10
4588.8871746625545711
 20
255.6070120597796915
 30
0.0
 40
0.063367204537755
 50
90.127373623605493
 51
121.7365180666841979
  0
LINE
  5
2364B
  8
0
 10
4588.8179507256281795
 20
255.591633856933214
 30
0.0
 11
4588.8438284990279499
 21
253.6231272737331892
 31
0.0
  0
ARC
  5
2364C
  8
0
 10
4588.9315945628686677
 20
253.6241139531782949
 30
0.0
 40
0.0877695170172163
 50
180.6441403825652117
 51
206.9445884813418104
  0
ARC
  5
2364D
  8
0
 10
4588.9218169731575472
 20
253.6187672871002121
 30
0.0
 40
0.0766313402364989
 50
206.6935506696401035
 51
234.4374339511211929
  0
ARC
  5
2364E
  8
0
 10
4588.9147499148439238
 20
253.6088149283501139
 30
0.0
 40
0.06442515649213
 50
234.4024906912694064
 51
269.5508555495072756
  0
ARC
  5
2364F
  8
0
 10
4588.8839176168048652
 20
255.5929329617370058
 30
0.0
 40
0.086377390872876
 50
158.6217847943113952
 51
180.8601007018511098
  0
ARC
  5
23650
  8
0
 10
4588.8721058489036295
 20
255.598517970803897
 30
0.0
 40
0.0733479364232346
 50
117.1248002831223971
 51
159.3209876753421099
  0
ARC
  5
23651
  8
0
 10
4588.8666779540044445
 20
255.6074823561505127
 30
0.0
 40
0.0628991507049036
 50
90.0766752683555865
 51
116.4472669660874971
  0
LINE
  5
23652
  8
0
 10
4588.797551662528349
 20
255.5916362338332135
 30
0.0
 11
4588.823343379128346
 21
253.6231295477332139
 31
0.0
  0
ARC
  5
23653
  8
0
 10
4588.9115428498043912
 20
253.6241598464090998
 30
0.0
 40
0.0882038726091103
 50
180.6692803478163967
 51
202.7227745033910935
  0
ARC
  5
23654
  8
0
 10
4588.903069351042177
 20
253.620209785864489
 30
0.0
 40
0.0788631168646371
 50
202.4536743520349944
 51
231.8738819786956924
  0
ARC
  5
23655
  8
0
 10
4588.8950319626883356
 20
253.6104247747167051
 30
0.0
 40
0.0662040605111113
 50
232.1174429089842022
 51
257.053045880510922
  0
ARC
  5
23656
  8
0
 10
4588.8937479620108206
 20
253.6059484245664919
 30
0.0
 40
0.0615543309935337
 50
257.2842962442146018
 51
269.9653437653016113
  0
ARC
  5
23657
  8
0
 10
4590.2807692477272212
 20
253.5706348652005033
 30
0.0
 40
0.284720113162079
 50
159.6509574203303998
 51
177.4840087760316862
  0
ARC
  5
23658
  8
0
 10
4590.2147096775033788
 20
253.5958687319665046
 30
0.0
 40
0.2140095354127713
 50
140.2713081754106952
 51
159.83505068748741
  0
ARC
  5
23659
  8
0
 10
4590.16404529184274
 20
253.6377740067815125
 30
0.0
 40
0.1482607872479719
 50
120.0079304644033016
 51
140.2118701555496045
  0
ARC
  5
2365A
  8
0
 10
4590.1443730480796148
 20
253.6721177781174958
 30
0.0
 40
0.1086821970994986
 50
90.4449690369641672
 51
120.0821061499146936
  0
ARC
  5
2365B
  8
0
 10
4590.3298495345934498
 20
253.5658799748815113
 30
0.0
 40
0.290082904605815
 50
161.7725660772094045
 51
176.5901402068433867
  0
ARC
  5
2365C
  8
0
 10
4590.2689431767048518
 20
253.5875036956107067
 30
0.0
 40
0.2254739127918985
 50
141.8884408504914916
 51
162.150640267981089
  0
ARC
  5
2365D
  8
0
 10
4590.2169685306580504
 20
253.6278369431940973
 30
0.0
 40
0.1596866210733264
 50
123.9460798249912017
 51
141.7650674435558074
  0
ARC
  5
2365E
  8
0
 10
4590.1977620479810867
 20
253.6558465920604135
 30
0.0
 40
0.1257260399938216
 50
107.6397340339080984
 51
123.8129827336897932
  0
ARC
  5
2365F
  8
0
 10
4590.192969501560583
 20
253.6702294517326948
 30
0.0
 40
0.1105673592936543
 50
90.0820211948354057
 51
107.5315578975665005
  0
ARC
  5
23660
  8
0
 10
4590.1927513046175591
 20
253.6684903129907127
 30
0.0
 40
0.1123064007249145
 50
88.7775229850834648
 51
89.9694327280805055
  0
ARC
  5
23661
  8
0
 10
4590.1914569016389578
 20
253.6630912384700878
 30
0.0
 40
0.1177377644573978
 50
54.7558693988055296
 51
88.2038044534368026
  0
ARC
  5
23662
  8
0
 10
4590.1537859312766159
 20
253.6118883319549866
 30
0.0
 40
0.1812977765163477
 50
26.5383408326699985
 51
54.3707256419538609
  0
ARC
  5
23663
  8
0
 10
4590.0693336252943482
 20
253.5681058096922982
 30
0.0
 40
0.2764174273872236
 50
3.1164888485372328
 51
26.8360791635841487
  0
ARC
  5
23664
  8
0
 10
4590.2940446397606138
 20
253.5662534815733977
 30
0.0
 40
0.2194597895988961
 50
158.1733468409169063
 51
176.7110017810765896
  0
ARC
  5
23665
  8
0
 10
4590.2392875088971778
 20
253.5892403463114135
 30
0.0
 40
0.1600845266608342
 50
134.9443681353604916
 51
158.5242146118214919
  0
ARC
  5
23666
  8
0
 10
4590.1993851685620029
 20
253.6288725783686004
 30
0.0
 40
0.1038455935748138
 50
107.528146843156506
 51
134.8088598118308994
  0
ARC
  5
23667
  8
0
 10
4590.192798886771925
 20
253.6470607381903903
 30
0.0
 40
0.0845221188517261
 50
74.798048996789305
 51
106.9840261674976034
  0
ARC
  5
23668
  8
0
 10
4590.1859358251031153
 20
253.6278643540250926
 30
0.0
 40
0.104858464088941
 50
42.4714780690543421
 51
73.9296646503586032
  0
ARC
  5
23669
  8
0
 10
4590.1389004459360876
 20
253.5845818573012878
 30
0.0
 40
0.1687778212286763
 50
18.8833864397886089
 51
42.5279603593579978
  0
ARC
  5
2366A
  8
0
 10
4590.0877752994183538
 20
253.5656194430899859
 30
0.0
 40
0.2232927887087151
 50
3.3954447982910811
 51
19.2414779207651883
  0
ARC
  5
2366B
  8
0
 10
4590.0270030040328493
 20
253.5637367090232033
 30
0.0
 40
0.2319094430201633
 50
3.7351841093126059
 51
21.0241114409288805
  0
ARC
  5
2366C
  8
0
 10
4590.0884389907751029
 20
253.5885312434635921
 30
0.0
 40
0.1656716443982265
 50
20.6426036825039994
 51
40.9415626270065403
  0
ARC
  5
2366D
  8
0
 10
4590.1348518341192175
 20
253.6297271392091943
 30
0.0
 40
0.1036195700017357
 50
40.5519204514490923
 51
71.3075893217690435
  0
ARC
  5
2366E
  8
0
 10
4590.0444613187673895
 20
253.5713491028278952
 30
0.0
 40
0.0674746658975672
 50
18.6112786064401803
 51
36.0913695897960309
  0
ARC
  5
2366F
  8
0
 10
4590.024555692028116
 20
253.5645797571283993
 30
0.0
 40
0.0884997707546204
 50
358.7977466692296957
 51
18.6517731011909405
  0
ARC
  5
23670
  8
0
 10
4590.0246817645884221
 20
253.5638598862562958
 30
0.0
 40
0.0883615314081357
 50
342.2828516599242903
 51
359.2627156801008255
  0
ARC
  5
23671
  8
0
 10
4590.041758813317756
 20
253.5583604241766977
 30
0.0
 40
0.0704208656628673
 50
325.451042270876826
 51
342.3168355045552858
  0
ARC
  5
23672
  8
0
 10
4590.1661257468658732
 20
253.5811714566602859
 30
0.0
 40
0.0735067763790537
 50
134.5041692892637002
 51
155.9766522959297106
  0
ARC
  5
23673
  8
0
 10
4590.1479166558992802
 20
253.6000212255156896
 30
0.0
 40
0.0472998071952404
 50
103.5159628424840008
 51
134.7782248962346898
  0
ARC
  5
23674
  8
0
 10
4590.145322711911831
 20
253.6075232339424019
 30
0.0
 40
0.0394068205439848
 50
66.9012705563522445
 51
102.3981445087929956
  0
ARC
  5
23675
  8
0
 10
4590.1367670251202071
 20
253.5907694909381007
 30
0.0
 40
0.0581884150139491
 50
31.3862015876556804
 51
65.62405582760789
  0
ARC
  5
23676
  8
0
 10
4590.0995492785968963
 20
253.5667064430969049
 30
0.0
 40
0.1024990058394501
 50
8.3371957229194145
 51
32.0340267231618867
  0
ARC
  5
23677
  8
0
 10
4590.0843956606468055
 20
253.562913434939702
 30
0.0
 40
0.1180527096155294
 50
340.1340068481155186
 51
9.0922476588716066
  0
ARC
  5
23678
  8
0
 10
4590.1248355288571474
 20
253.5478328340327892
 30
0.0
 40
0.0748960048669513
 50
314.3188225429665863
 51
340.4712392445007936
  0
ARC
  5
23679
  8
0
 10
4590.1452964382751816
 20
253.5269072634914949
 30
0.0
 40
0.0456295103584692
 50
283.2563415140604093
 51
314.2944984066551228
  0
ARC
  5
2367A
  8
0
 10
4590.1474074893731085
 20
253.5203950242627968
 30
0.0
 40
0.0388107777039102
 50
254.711903262344606
 51
282.4273925126497033
  0
ARC
  5
2367B
  8
0
 10
4590.1512902283548101
 20
253.5315447111443916
 30
0.0
 40
0.0505960857825527
 50
223.173645900377096
 51
253.7997383243983052
  0
ARC
  5
2367C
  8
0
 10
4590.1725016472091738
 20
253.5522026618787947
 30
0.0
 40
0.08020153649192
 50
204.9085942813543966
 51
223.5682817028815919
  0
ARC
  5
2367D
  8
0
 10
4590.2037524114302869
 20
253.5656324117277904
 30
0.0
 40
0.1142058308762235
 50
156.5411123263994
 51
204.4162225173504055
  0
LINE
  5
2367E
  8
0
 10
4591.6429351732267605
 20
256.8868690710331748
 30
0.0
 11
4591.9924890830088771
 21
256.8448236495884203
 31
0.0
  0
ARC
  5
2367F
  8
0
 10
4591.9891472074868943
 20
256.8049842122500195
 30
0.0
 40
0.039979355915694
 50
79.9602836853974424
 51
85.2050490781017658
  0
ARC
  5
23680
  8
0
 10
4591.9959135836252244
 20
256.843535218275008
 30
0.0
 40
0.0008410808860081
 50
47.1962280020406268
 51
76.0154102672389769
  0
ARC
  5
23681
  8
0
 10
4685.0089805595252983
 20
280.0579005090173723
 30
0.0
 40
95.865543440737909
 50
193.6209608294107056
 51
194.0134125411306059
  0
ARC
  5
23682
  8
0
 10
4566.9114382622201447
 20
290.0535054748323205
 30
0.0
 40
40.2660894228965418
 50
303.4578334266627166
 51
306.117382344317889
  0
ARC
  5
23683
  8
0
 10
4582.1471701810432933
 20
266.9045752173361734
 30
0.0
 40
12.5534209565203092
 50
299.2136934403418991
 51
303.6928647242588113
  0
ARC
  5
23684
  8
0
 10
4576.2694532954355964
 20
277.8859346884120214
 30
0.0
 40
25.0077920834377316
 50
297.6060426582146761
 51
298.6877607024117083
  0
ARC
  5
23685
  8
0
 10
4566.8973539436974534
 20
297.8041988143671119
 30
0.0
 40
47.0104851058181197
 50
295.9658953173359919
 51
296.4788545825463757
  0
ARC
  5
23686
  8
0
 10
4582.3219613903866048
 20
266.7234117891337064
 30
0.0
 40
12.3164334870606709
 50
289.1107670895012802
 51
294.7596505732680043
  0
ARC
  5
23687
  8
0
 10
4581.4039389825711623
 20
269.1330869865192881
 30
0.0
 40
14.8940685354283797
 50
286.7999944462411008
 51
289.4127915958445101
  0
ARC
  5
23688
  8
0
 10
4585.4957260715991652
 20
254.6729295199492071
 30
0.0
 40
0.0194209331883984
 50
287.0737489423427746
 51
332.6865061721986763
  0
ARC
  5
23689
  8
0
 10
4586.1612354014077937
 20
254.3857093082864935
 30
0.0
 40
0.7006738295865742
 50
145.6954400994654009
 51
150.1551086622826006
  0
ARC
  5
2368A
  8
0
 10
4585.8079025772403838
 20
254.6285549880064991
 30
0.0
 40
0.2719401640711296
 50
139.8364360902610031
 51
146.0047447145805961
  0
ARC
  5
2368B
  8
0
 10
4585.6235437156146872
 20
254.7865952732286985
 30
0.0
 40
0.0291803437229469
 50
116.5818579237309933
 51
143.5089675566871108
  0
ARC
  5
2368C
  8
0
 10
4585.5914462101764002
 20
254.8221548295256014
 30
0.0
 40
0.0212622486236814
 50
333.5706671364864064
 51
359.7333250125367954
  0
ARC
  5
2368D
  8
0
 10
4585.5929266976017971
 20
254.8219556334476863
 30
0.0
 40
0.0197817848418449
 50
0.290319077653772
 51
37.0738183694540524
  0
ARC
  5
2368E
  8
0
 10
4585.5931939213678561
 20
254.8222918837491022
 30
0.0
 40
0.0193661681541092
 50
36.7567004382437119
 51
70.9892557199801644
  0
ARC
  5
2368F
  8
0
 10
4585.5932851043853589
 20
254.8214187422481132
 30
0.0
 40
0.0201653902030443
 50
72.0423877821185101
 51
106.9633270745731011
  0
LINE
  5
23690
  8
0
 10
4585.5932217371118895
 20
254.8415840328889885
 30
0.0
 11
4585.6930083548259063
 21
254.8581401811273963
 31
0.0
  0
ARC
  5
23691
  8
0
 10
4583.1785398340298343
 20
262.9214437182452002
 30
0.0
 40
8.4321364381167019
 50
285.9697202905620088
 51
286.599280551632603
  0
ARC
  5
23692
  8
0
 10
4582.043732757266298
 20
266.7508005840938949
 30
0.0
 40
12.4259829194987894
 50
283.8755662630056804
 51
286.1423708725586152
  0
ARC
  5
23693
  8
0
 10
4582.4844673150173548
 20
264.9939250674049731
 30
0.0
 40
10.6146827487122994
 50
282.1998797146210904
 51
283.8402109725220726
  0
ARC
  5
23694
  8
0
 10
4582.8020137094927122
 20
263.5228109064386217
 30
0.0
 40
9.1096869712224962
 50
279.7088574204648239
 51
282.2030549781262039
  0
ARC
  5
23695
  8
0
 10
4582.5407212291893302
 20
265.1593117274144902
 30
0.0
 40
10.7668294634398105
 50
276.8458666040808112
 51
279.6107698237116779
  0
ARC
  5
23696
  8
0
 10
4582.2041553839490007
 20
267.8353473415043027
 30
0.0
 40
13.4639128434328192
 50
276.3533753034519123
 51
276.9104906388889162
  0
ARC
  5
23697
  8
0
 10
4581.6365161179046481
 20
273.1898413657766014
 30
0.0
 40
18.8483576057614215
 50
274.0262231796941137
 51
276.2671157208213799
  0
ARC
  5
23698
  8
0
 10
4579.5703848277316865
 20
301.4516176285317783
 30
0.0
 40
47.1855160181600226
 50
273.5124980323565183
 51
274.1193417867660855
  0
ARC
  5
23699
  8
0
 10
4578.7121613842718943
 20
314.8088443061258772
 30
0.0
 40
60.5702428144594975
 50
271.9896174172426981
 51
273.5486933387820727
  0
ARC
  5
2369A
  8
0
 10
4580.1414761486457792
 20
272.2705915263626935
 30
0.0
 40
18.0080764128320112
 50
270.9279993629409091
 51
272.1436322433777946
  0
ARC
  5
2369B
  8
0
 10
-2007.4463943420109899
 20
350578.2707688944065012
 30
0.0
 40
350385.9432978859986179
 50
271.0771924747053845
 51
271.0773261389188065
  0
ARC
  5
2369C
  8
0
 10
4567.2979509819542727
 20
908.048137896001208
 30
0.0
 40
653.9146563963944345
 50
270.8659003152591254
 51
271.079355676520322
  0
ARC
  5
2369D
  8
0
 10
4575.3830385835735797
 20
837.1565896311699362
 30
0.0
 40
582.9512032485853297
 50
270.1182554338732871
 51
270.176622192910088
  0
ARC
  5
2369E
  8
0
 10
4575.7123744040272868
 20
16.6159698513977787
 30
0.0
 40
237.5922651460157056
 50
89.7892706700297367
 51
89.9825003174543525
  0
ARC
  5
2369F
  8
0
 10
4584.9307184019171473
 20
-5587.6747450430721074
 30
0.0
 40
5841.8901280529325959
 50
90.0896995011175079
 51
90.0978252694887658
  0
ARC
  5
236A0
  8
0
 10
4575.0698453064151181
 20
194.0355192217340914
 30
0.0
 40
60.171455749320053
 50
90.1079879405763506
 51
90.4531204652517431
  0
ARC
  5
236A1
  8
0
 10
4574.9421266463796201
 20
213.8412878576432945
 30
0.0
 40
40.3653067832229766
 50
90.4941654734125649
 51
90.8007784953261563
  0
ARC
  5
236A2
  8
0
 10
4572.1265099778111107
 20
253.7704848101074901
 30
0.0
 40
0.3891103653547139
 50
131.2263522311075121
 51
150.9081658776715074
  0
ARC
  5
236A3
  8
0
 10
4572.1303687080389864
 20
253.7675421497432069
 30
0.0
 40
0.3938677921440458
 50
109.864860242552794
 51
131.3664220155262115
  0
ARC
  5
236A4
  8
0
 10
4572.2185549143287062
 20
253.4471575923479065
 30
0.0
 40
0.725617741196356
 50
94.2705456254378902
 51
107.8170556088592065
  0
ARC
  5
236A5
  8
0
 10
4572.4519780443915806
 20
251.6060516515393886
 30
0.0
 40
2.5807681032328742
 50
90.4981962910371607
 51
96.395120459158889
  0
ARC
  5
236A6
  8
0
 10
4574.4359895038323884
 20
127.9408013450410948
 30
0.0
 40
126.2618643072320026
 50
90.0263190736678496
 51
90.910536492798812
  0
ARC
  5
236A7
  8
0
 10
4574.4451614352947217
 20
516.4144134079159585
 30
0.0
 40
262.1502222820096222
 50
270.5453029652057921
 51
271.2853417199521004
  0
ARC
  5
236A8
  8
0
 10
4578.2294704949536026
 20
340.1566621238893049
 30
0.0
 40
85.8521019255701958
 50
271.3990496585817027
 51
272.4779254687348953
  0
ARC
  5
236A9
  8
0
 10
4581.2234228144379813
 20
278.1813908175142842
 30
0.0
 40
23.8073788186968116
 50
271.7277921424820875
 51
276.8496990789387269
  0
ARC
  5
236AA
  8
0
 10
4582.7367363392168045
 20
264.7144384596558098
 30
0.0
 40
10.2565856006454101
 50
277.4285950174278241
 51
286.3030231195568831
  0
ARC
  5
236AB
  8
0
 10
4581.596411163832272
 20
268.6599956926608002
 30
0.0
 40
14.3636089263286806
 50
286.2507154531434139
 51
289.7353653802042004
  0
ARC
  5
236AC
  8
0
 10
4582.2491653021943421
 20
266.9480308789458149
 30
0.0
 40
12.5316077503593792
 50
290.300703738129414
 51
292.765981351168989
  0
ARC
  5
236AD
  8
0
 10
4582.2265713645329015
 20
266.7109109456333158
 30
0.0
 40
12.3245449853298101
 50
295.4773496294059214
 51
297.9643400092538741
  0
ARC
  5
236AE
  8
0
 10
4582.0505040818470661
 20
267.0757404692138834
 30
0.0
 40
12.7293482029531209
 50
297.8942718620152164
 51
301.4932733788738801
  0
ARC
  5
236AF
  8
0
 10
4569.5927386329076398
 20
286.2404317362992856
 30
0.0
 40
35.5842752428450666
 50
302.4773609435345065
 51
306.3513945987323837
  0
ARC
  5
236B0
  8
0
 10
4042.6093154412778858
 20
66.0597167738373798
 30
0.0
 40
561.7543820498956393
 50
19.5717521772596612
 51
19.6234404671794387
  0
ARC
  5
236B1
  8
0
 10
4571.8114321685288814
 20
254.7440492027515972
 30
0.0
 40
0.078918558471734
 50
94.1847300775092862
 51
199.5852022872051066
  0
ARC
  5
236B2
  8
0
 10
4571.6253906099082087
 20
344.9339774560116894
 30
0.0
 40
90.1114417024717653
 50
270.1142784154193919
 51
271.3960162342914941
  0
ARC
  5
236B3
  8
0
 10
4570.7383397981284361
 20
441.649426598190189
 30
0.0
 40
186.8255743180818911
 50
270.9453570316608761
 51
272.426627462308204
  0
ARC
  5
236B4
  8
0
 10
4576.2482784589656148
 20
309.0951898308160253
 30
0.0
 40
54.1570198010964532
 50
272.5401947833188956
 51
276.2290807481617207
  0
ARC
  5
236B5
  8
0
 10
4580.2630932583333561
 20
274.2796630514167759
 30
0.0
 40
19.1126123993573884
 50
275.5890672037288027
 51
283.9967077390202803
  0
ARC
  5
236B6
  8
0
 10
4581.6455930609854477
 20
268.1915739173538782
 30
0.0
 40
12.8715681660487196
 50
284.5800654002879924
 51
299.9510302250154155
  0
ARC
  5
236B7
  8
0
 10
4577.3102085505279319
 20
275.8996603034563009
 30
0.0
 40
21.714935450623269
 50
299.7084630405187227
 51
305.921854008352625
  0
ARC
  5
236B8
  8
0
 10
4556.4205662659451264
 20
305.9820140996773148
 30
0.0
 40
58.336318987081583
 50
305.2029436404528155
 51
307.0313634811629981
  0
LINE
  5
236B9
  8
0
 10
4591.5580884146284006
 20
259.2362982868331756
 30
0.0
 11
4591.3264496447809506
 21
259.0592212658842186
 31
0.0
  0
LINE
  5
236BA
  8
0
 10
4591.3211799649279783
 20
259.098902765833202
 30
0.0
 11
4591.6738793986269229
 21
259.3475339416331735
 31
0.0
  0
ARC
  5
236BB
  8
0
 10
4591.5870364253723892
 20
259.3403729191311982
 30
0.0
 40
0.0871377200021379
 50
4.7139127313816864
 51
47.0606555650633069
  0
ARC
  5
236BC
  8
0
 10
4591.5988289339884432
 20
259.3521392563325776
 30
0.0
 40
0.0704932431500145
 50
47.5625527280707914
 51
89.9250134893187436
  0
ARC
  5
236BD
  8
0
 10
4591.5950866363928071
 20
259.3390884320346004
 30
0.0
 40
0.0836319612415933
 50
87.3720459585345992
 51
119.6301348808542002
  0
ARC
  5
236BE
  8
0
 10
4337.9935910604872333
 20
3635.959985660123948
 30
0.0
 40
3389.2118621275508303
 50
273.9558148030989742
 51
273.9561926798014042
  0
ARC
  5
236BF
  8
0
 10
4567.5629523365905698
 20
364.1607192136646063
 30
0.0
 40
109.374105154309305
 50
273.6538690712549169
 51
276.3477676899544235
  0
ARC
  5
236C0
  8
0
 10
4636.0816106531347032
 20
-666.658252409637953
 30
0.0
 40
923.7199918971754187
 50
93.8205048728715951
 51
93.9886952945153666
  0
ARC
  5
236C1
  8
0
 10
4575.9248587346583008
 20
289.7468159274137065
 30
0.0
 40
34.4920076969264073
 50
276.2095272354891904
 51
284.7929503422274138
  0
ARC
  5
236C2
  8
0
 10
4578.0951457565834062
 20
280.4612541926421159
 30
0.0
 40
24.9615726805229095
 50
285.4184488794501817
 51
296.0511910548368064
  0
ARC
  5
236C3
  8
0
 10
4577.4180517770500956
 20
282.1014555471152221
 30
0.0
 40
26.7327297197327987
 50
295.8110759133348893
 51
301.9229463778714262
  0
LINE
  5
236C4
  8
0
 10
4591.2553108193269509
 20
258.4451469192331956
 30
0.0
 11
4591.2743740878313474
 21
258.3497838004532241
 31
0.0
  0
LINE
  5
236C5
  8
0
 10
4591.2743740878313474
 20
258.3497838004532241
 30
0.0
 11
4591.4527218667280977
 21
258.4503388632331848
 31
0.0
  0
ARC
  5
236C6
  8
0
 10
4571.6892339078540317
 20
253.4709406663241964
 30
0.0
 40
0.0251032116919145
 50
211.6936863748209987
 51
260.9344117870826949
  0
ARC
  5
236C7
  8
0
 10
4592.0040810099817463
 20
253.9360396457560967
 30
0.0
 40
0.0090374457946182
 50
165.6839284172037878
 51
178.3262315689094066
  0
ARC
  5
236C8
  8
0
 10
4589.5743218983707266
 20
255.4204534032743936
 30
0.0
 40
0.0415877448995293
 50
359.9791899351421876
 51
23.4792083307534014
  0
ATTDEF
  5
236CA
  8
DEFPOINTS
 10
4592.0565986338897346
 20
253.1346566006349974
 30
0.0
 40
0.001
  1
K-76421BR
  3

  2
MODELNUMBER
 70
     0
1001
ACDBATTR
1070
     0
1070
     1
  0
ATTDEF
  5
236CB
  8
DEFPOINTS
 10
4592.056472824231605
 20
253.1329897602558106
 30
0.0
 40
0.001
  1
C3
  3

  2
TRADENAME
 70
     0
1001
ACDBATTR
1070
     0
1070
     1
  0
ATTDEF
  5
236CC
  8
DEFPOINTS
 10
4592.0565986338897346
 20
253.1313232673016955
 30
0.0
 40
0.001
  1
TOILET SEAT
  3

  2
PRODUCT
 70
     0
1001
ACDBATTR
1070
     0
1070
     1
  0
ENDSEC
  0
EOF
