  0
SECTION
  2
HEADER
  9
$ACADVER
  1
AC1009
  9
$INSBASE
 10
4580.3150039430802281
 20
255.7546562264892884
 30
0.0
  9
$EXTMIN
 10
4570.6424189112331078
 20
254.8774522370387103
 30
-0.0000000000000058
  9
$EXTMAX
 10
4588.1456012610742619
 20
262.0547894540616767
 30
0.0000000000000104
  9
$LIMMIN
 10
0.0
 20
0.0
  9
$LIMMAX
 10
11.6929133858000007
 20
8.2677165353999982
  9
$ORTHOMODE
 70
     0
  9
$REGENMODE
 70
     1
  9
$FILLMODE
 70
     1
  9
$QTEXTMODE
 70
     0
  9
$MIRRTEXT
 70
     0
  9
$DRAGMODE
 70
     2
  9
$LTSCALE
 40
0.6431102362
  9
$OSMODE
 70
   575
  9
$ATTMODE
 70
     1
  9
$TEXTSIZE
 40
0.2
  9
$TRACEWID
 40
0.05
  9
$TEXTSTYLE
  7
STANDARD
  9
$CLAYER
  8
0
  9
$CELTYPE
  6
BYLAYER
  9
$CECOLOR
 62
   256
  9
$DIMSCALE
 40
1.0
  9
$DIMASZ
 40
0.1875
  9
$DIMEXO
 40
0.0625
  9
$DIMDLI
 40
0.4443307087
  9
$DIMRND
 40
0.0
  9
$DIMDLE
 40
0.0
  9
$DIMEXE
 40
0.125
  9
$DIMTP
 40
0.01
  9
$DIMTM
 40
0.01
  9
$DIMTXT
 40
2.0
  9
$DIMCEN
 40
0.1052362205
  9
$DIMTSZ
 40
0.0
  9
$DIMTOL
 70
     1
  9
$DIMLIM
 70
     0
  9
$DIMTIH
 70
     1
  9
$DIMTOH
 70
     1
  9
$DIMSE1
 70
     0
  9
$DIMSE2
 70
     0
  9
$DIMTAD
 70
     0
  9
$DIMZIN
 70
     0
  9
$DIMBLK
  1

  9
$DIMASO
 70
     1
  9
$DIMSHO
 70
     1
  9
$DIMPOST
  1
\X
  9
$DIMAPOST
  1

  9
$DIMALT
 70
     1
  9
$DIMALTD
 70
     2
  9
$DIMALTF
 40
25.3999999999999986
  9
$DIMLFAC
 40
1.0
  9
$DIMTOFL
 70
     0
  9
$DIMTVP
 40
0.0
  9
$DIMTIX
 70
     0
  9
$DIMSOXD
 70
     0
  9
$DIMSAH
 70
     0
  9
$DIMBLK1
  1

  9
$DIMBLK2
  1

  9
$DIMSTYLE
  2
STANDARD
  9
$DIMCLRD
 70
     0
  9
$DIMCLRE
 70
     0
  9
$DIMCLRT
 70
     0
  9
$DIMTFAC
 40
1.0
  9
$DIMGAP
 40
0.09
  9
$LUNITS
 70
     2
  9
$LUPREC
 70
     4
  9
$SKETCHINC
 40
0.1
  9
$FILLETRAD
 40
0.0
  9
$AUNITS
 70
     0
  9
$AUPREC
 70
     0
  9
$MENU
  1
.
  9
$ELEVATION
 40
0.0
  9
$PELEVATION
 40
0.0
  9
$THICKNESS
 40
0.0
  9
$LIMCHECK
 70
     0
  9
$BLIPMODE
 70
     0
  9
$CHAMFERA
 40
0.0
  9
$CHAMFERB
 40
0.0
  9
$SKPOLY
 70
     0
  9
$TDCREATE
 40
2458060.468368056230247
  9
$TDUPDATE
 40
2459505.0888078701682389
  9
$TDINDWG
 40
0.4873681713
  9
$TDUSRTIMER
 40
0.4873681713
  9
$USRTIMER
 70
     1
  9
$ANGBASE
 50
0.0
  9
$ANGDIR
 70
     0
  9
$PDMODE
 70
     0
  9
$PDSIZE
 40
0.3125
  9
$PLINEWID
 40
0.0
  9
$COORDS
 70
     1
  9
$SPLFRAME
 70
     0
  9
$SPLINETYPE
 70
     6
  9
$SPLINESEGS
 70
     8
  9
$ATTDIA
 70
     1
  9
$ATTREQ
 70
     1
  9
$HANDLING
 70
     1
  9
$HANDSEED
  5
22836
  9
$SURFTAB1
 70
     6
  9
$SURFTAB2
 70
     6
  9
$SURFTYPE
 70
     6
  9
$SURFU
 70
     6
  9
$SURFV
 70
     6
  9
$UCSNAME
  2

  9
$UCSORG
 10
0.0
 20
0.0
 30
0.0
  9
$UCSXDIR
 10
1.0
 20
0.0
 30
0.0
  9
$UCSYDIR
 10
0.0
 20
1.0
 30
0.0
  9
$PUCSNAME
  2

  9
$PUCSORG
 10
0.0
 20
0.0
 30
0.0
  9
$PUCSXDIR
 10
1.0
 20
0.0
 30
0.0
  9
$PUCSYDIR
 10
0.0
 20
1.0
 30
0.0
  9
$USERI1
 70
     0
  9
$USERI2
 70
     0
  9
$USERI3
 70
     0
  9
$USERI4
 70
     0
  9
$USERI5
 70
     0
  9
$USERR1
 40
0.0
  9
$USERR2
 40
0.0
  9
$USERR3
 40
0.0
  9
$USERR4
 40
0.0
  9
$USERR5
 40
0.0
  9
$WORLDVIEW
 70
     1
  9
$SHADEDGE
 70
     3
  9
$SHADEDIF
 70
    70
  9
$TILEMODE
 70
     1
  9
$MAXACTVP
 70
    64
  9
$PLIMCHECK
 70
     0
  9
$PEXTMIN
 10
1.0000000000000000E+20
 20
1.0000000000000000E+20
 30
1.0000000000000000E+20
  9
$PEXTMAX
 10
-1.0000000000000000E+20
 20
-1.0000000000000000E+20
 30
-1.0000000000000000E+20
  9
$PLIMMIN
 10
0.0
 20
0.0
  9
$PLIMMAX
 10
12.0
 20
9.0
  9
$UNITMODE
 70
     0
  9
$VISRETAIN
 70
     1
  9
$PLINEGEN
 70
     0
  9
$PSLTSCALE
 70
     1
  0
ENDSEC
  0
SECTION
  2
TABLES
  0
TABLE
  2
VPORT
 70
     1
  0
VPORT
  2
*ACTIVE
 70
     0
 10
0.0
 20
0.0
 11
1.0
 21
1.0
 12
668.0286536151101018
 22
125.886515734345906
 13
0.0
 23
0.0
 14
1.0
 24
1.0
 15
0.0
 25
0.0
 16
0.0
 26
0.0
 36
60.4960186965801583
 17
3911.3653564453120453
 27
132.5796051025390057
 37
0.0
 40
10.7249265276057901
 41
2.4943639291465369
 42
50.0
 43
0.0
 44
0.0
 50
0.0
 51
0.0
 71
     0
 72
   100
 73
     1
 74
     1
 75
     0
 76
     0
 77
     0
 78
     0
  0
ENDTAB
  0
TABLE
  2
LTYPE
 70
     2
  0
LTYPE
  2
CONTINUOUS
 70
     0
  3
Solid line
 72
    65
 73
     0
 40
0.0
  0
LTYPE
  2
PHANTOM2
 70
     0
  3
___ _ _ ___ _ _ ___ _ _ ___ _ _
 72
    65
 73
     6
 40
1.25
 49
0.625
 49
-0.125
 49
0.125
 49
-0.125
 49
0.125
 49
-0.125
  0
ENDTAB
  0
TABLE
  2
LAYER
 70
     2
  0
LAYER
  2
0
 70
     0
 62
   255
  6
CONTINUOUS
  0
LAYER
  2
DEFPOINTS
 70
     0
 62
     7
  6
CONTINUOUS
  0
ENDTAB
  0
TABLE
  2
STYLE
 70
     1
  0
STYLE
  2
STANDARD
 70
     0
 40
0.0
 41
0.8
 50
0.0
 71
     0
 42
0.2
  3
txt
  4

  0
ENDTAB
  0
TABLE
  2
VIEW
 70
     0
  0
ENDTAB
  0
TABLE
  2
UCS
 70
     0
  0
ENDTAB
  0
TABLE
  2
APPID
 70
    11
  0
APPID
  2
ACAD
 70
     0
  0
APPID
  2
ACAD_MLEADERVER
 70
     0
  0
APPID
  2
ACAD_EXEMPT_FROM_CAD_STANDARDS
 70
     0
  0
APPID
  2
ACAD_NAV_VCDISPLAY
 70
     0
  0
APPID
  2
ACAECLAYERSTANDARD
 70
     0
  0
APPID
  2
ACCMTRANSPARENCY
 70
     0
  0
APPID
  2
ACAD_DSTYLE_DIMJAG
 70
     0
  0
APPID
  2
ACAD_DSTYLE_DIMTALN
 70
     0
  0
APPID
  2
ACDBATTR
 70
     0
  0
APPID
  2
ACADANNOTATIVE
 70
     0
  0
APPID
  2
DCO15
 70
     0
  0
ENDTAB
  0
TABLE
  2
DIMSTYLE
 70
     1
  0
DIMSTYLE
  2
STANDARD
 70
     0
  3

  4

  5

  6

  7

 40
1.0
 41
0.1875
 42
0.0625
 43
0.38
 44
0.125
 45
0.0
 46
0.0
 47
0.01
 48
0.01
140
0.15625
141
0.09
142
0.0
143
25.3999999999999986
144
1.0
145
0.0
146
1.0
147
0.09
 71
     1
 72
     0
 73
     1
 74
     1
 75
     0
 76
     0
 77
     0
 78
     4
170
     0
171
     2
172
     0
173
     0
174
     0
175
     0
176
     0
177
     0
178
     0
  0
ENDTAB
  0
ENDSEC
  0
SECTION
  2
BLOCKS
  0
BLOCK
  8
0
  2
$MODEL_SPACE
 70
     0
 10
0.0
 20
0.0
 30
0.0
  3
$MODEL_SPACE
  1

  0
ENDBLK
  5
21
  8
0
  0
BLOCK
 67
     1
  8
0
  2
$PAPER_SPACE
 70
     0
 10
0.0
 20
0.0
 30
0.0
  3
$PAPER_SPACE
  1

  0
ENDBLK
  5
1D
 67
     1
  8
0
  0
ENDSEC
  0
SECTION
  2
ENTITIES
  0
LINE
  5
224EA
  8
0
 10
4570.9117906399023923
 20
256.7116481769219831
 30
0.0
 11
4570.9604739712804076
 21
256.6043869754893194
 31
0.0
  0
LINE
  5
224EB
  8
0
 10
4571.5512244838791958
 20
256.3452074075893279
 30
0.0
 11
4571.5512244838791958
 21
256.436223526445815
 31
0.0
  0
LINE
  5
224EC
  8
0
 10
4571.7559488933802641
 20
256.4306943291317111
 30
0.0
 11
4571.7559488933802641
 21
256.3452074075893279
 31
0.0
  0
LINE
  5
224ED
  8
0
 10
4572.0630355075791158
 20
256.3452074075893279
 30
0.0
 11
4572.0630355075791158
 21
256.4392968027386246
 31
0.0
  0
LINE
  5
224EE
  8
0
 10
4572.2677599169801397
 20
256.4499278135634199
 30
0.0
 11
4572.2677599169801397
 21
256.3452074075893279
 31
0.0
  0
LINE
  5
224EF
  8
0
 10
4572.6713595517803697
 20
255.8963855318893081
 30
0.0
 11
4572.6713595517803697
 21
256.0105634983739264
 31
0.0
  0
LINE
  5
224F0
  8
0
 10
4572.7657914130786594
 20
256.4408629989893029
 30
0.0
 11
4572.7657914130786594
 21
256.4820074002187766
 31
0.0
  0
LINE
  5
224F1
  8
0
 10
4572.8346888156802379
 20
256.0105616013569261
 30
0.0
 11
4572.8346888156802379
 21
255.7856900036892966
 31
0.0
  0
LINE
  5
224F2
  8
0
 10
4572.9705158224787738
 20
256.4962851011895282
 30
0.0
 11
4572.9705158224787738
 21
256.464752990389286
 31
0.0
  0
LINE
  5
224F3
  8
0
 10
4573.1135289430803823
 20
256.506358038868882
 30
0.0
 11
4573.1135289430803823
 21
256.0814278800892794
 31
0.0
  0
LINE
  5
224F4
  8
0
 10
4572.7595740217793718
 20
258.290333933189288
 30
0.0
 11
4572.7574240319800083
 21
258.2383617282329737
 31
0.0
  0
LINE
  5
224F5
  8
0
 10
4572.6192438015787047
 20
256.4274262009893164
 30
0.0
 11
4572.6381987533795836
 21
256.4079896356893187
 31
0.0
  0
LINE
  5
224F6
  8
0
 10
4573.6459405108789724
 20
255.7743412658892908
 30
0.0
 11
4573.6459405108789724
 21
255.7546562264892884
 31
0.0
  0
LINE
  5
224F7
  8
0
 10
4574.0147530012800416
 20
255.7546562264892884
 30
0.0
 11
4574.0147532212804435
 21
255.7743412658892908
 31
0.0
  0
LINE
  5
224F8
  8
0
 10
4574.0551697914788747
 20
255.7546562264892884
 30
0.0
 11
4574.0551697914788747
 21
255.7743412658892908
 31
0.0
  0
LINE
  5
224F9
  8
0
 10
4574.1298807920811669
 20
255.7743412658892908
 30
0.0
 11
4574.1298807920811669
 21
255.7546562264892884
 31
0.0
  0
LINE
  5
224FA
  8
0
 10
4574.1385990688559104
 20
256.6220081604486154
 30
0.0
 11
4574.1385984467788148
 21
256.5809431365893261
 31
0.0
  0
LINE
  5
224FB
  8
0
 10
4574.3919971049799642
 20
255.7546562264892884
 30
0.0
 11
4574.3919971057803195
 21
255.7743412658892908
 31
0.0
  0
LINE
  5
224FC
  8
0
 10
4574.4297353506799482
 20
255.7546562264892884
 30
0.0
 11
4574.4297353506799482
 21
255.7743412658892908
 31
0.0
  0
LINE
  5
224FD
  8
0
 10
4574.1625548363135749
 20
256.6237867330111726
 30
0.0
 11
4574.1625240120802118
 21
256.5827052638892951
 31
0.0
  0
LINE
  5
224FE
  8
0
 10
4572.9765945386798194
 20
255.7743412658892908
 30
0.0
 11
4573.0261081056787589
 21
255.7546562264892884
 31
0.0
  0
LINE
  5
224FF
  8
0
 10
4572.6713595517803697
 20
255.8963855318893081
 30
0.0
 11
4572.8346888156802379
 21
255.8308399256108885
 31
0.0
  0
LINE
  5
22500
  8
0
 10
4572.6381987533795836
 20
256.4079896356893187
 30
0.0
 11
4572.6455147332799243
 21
256.4042625257893064
 31
0.0
  0
LINE
  5
22501
  8
0
 10
4575.4435236271801841
 20
255.7310341792893098
 30
0.0
 11
4575.4238385878788904
 21
255.7507192185892961
 31
0.0
  0
LINE
  5
22502
  8
0
 10
4575.4238385878788904
 20
255.7507192185892961
 30
0.0
 11
4575.4238385878788904
 21
255.7546562264892884
 31
0.0
  0
LINE
  5
22503
  8
0
 10
4575.5585024550800881
 20
255.7310341792893098
 30
0.0
 11
4575.5585024550800881
 21
255.6916641003892892
 31
0.0
  0
LINE
  5
22504
  8
0
 10
4575.6693347201799043
 20
255.7743412658892908
 30
0.0
 11
4575.6693347201799043
 21
255.7546562264892884
 31
0.0
  0
LINE
  5
22505
  8
0
 10
4575.6890197594802885
 20
256.0105322323416885
 30
0.0
 11
4575.6890197594802885
 21
255.7743412658892908
 31
0.0
  0
LINE
  5
22506
  8
0
 10
4575.6993191969813779
 20
255.8727664626892988
 30
0.0
 11
4575.6993191969813779
 21
255.7546562264892884
 31
0.0
  0
LINE
  5
22507
  8
0
 10
4575.7087047988798076
 20
256.0105314430044814
 30
0.0
 11
4575.7087047988798076
 21
255.7743412658892908
 31
0.0
  0
LINE
  5
22508
  8
0
 10
4574.1315848196800289
 20
256.0814274145893137
 30
0.0
 11
4574.2255914090974329
 21
256.2959506318887861
 31
0.0
  0
LINE
  5
22509
  8
0
 10
4575.8404851378800231
 20
255.691664100189314
 30
0.0
 11
4575.8404851378800231
 21
255.7310341792893098
 31
0.0
  0
LINE
  5
2250A
  8
0
 10
4575.8589559140800702
 20
255.9852016064893121
 30
0.0
 11
4575.8589559140800702
 21
255.8648924469893018
 31
0.0
  0
LINE
  5
2250B
  8
0
 10
4575.872342415879757
 20
255.8648924469893018
 30
0.0
 11
4575.872342415879757
 21
255.9835349340181097
 31
0.0
  0
LINE
  5
2250C
  8
0
 10
4575.8797259016801036
 20
255.7310341792893098
 30
0.0
 11
4575.8797259016801036
 21
255.691664100189314
 31
0.0
  0
LINE
  5
2250D
  8
0
 10
4576.0143897688803918
 20
255.7507192185892961
 30
0.0
 11
4576.0143897688803918
 21
255.7546562264892884
 31
0.0
  0
LINE
  5
2250E
  8
0
 10
4576.0164362289797282
 20
255.8648924469893018
 30
0.0
 11
4576.0164362289797282
 21
255.8333963839893102
 31
0.0
  0
LINE
  5
2250F
  8
0
 10
4576.0292976974797057
 20
255.8648924469893018
 30
0.0
 11
4576.0292976974797057
 21
255.8333963839893102
 31
0.0
  0
LINE
  5
22510
  8
0
 10
4576.1558452020790355
 20
255.9440145405548037
 30
0.0
 11
4576.1558452020790355
 21
255.8648924469893018
 31
0.0
  0
LINE
  5
22511
  8
0
 10
4576.310551491879778
 20
255.8333963839893102
 30
0.0
 11
4576.310551491879778
 21
255.8648924469893018
 31
0.0
  0
LINE
  5
22512
  8
0
 10
4576.3798380860789621
 20
255.8648924469893018
 30
0.0
 11
4576.3798380860789621
 21
255.8333963839893102
 31
0.0
  0
LINE
  5
22513
  8
0
 10
4576.3888132462816429
 20
255.9609434979111882
 30
0.0
 11
4576.3888132716792825
 21
255.8648924469893018
 31
0.0
  0
LINE
  5
22514
  8
0
 10
4575.694241953279743
 20
255.9594623774893023
 30
0.0
 11
4575.6944799899802092
 21
255.9626198375893011
 31
0.0
  0
LINE
  5
22515
  8
0
 10
4578.6822233788789163
 20
255.108870536089313
 30
0.0
 11
4578.7609635181797785
 21
255.1091794618893118
 31
0.0
  0
LINE
  5
22516
  8
0
 10
4579.347826763078956
 20
255.1093258484893056
 30
0.0
 11
4578.814802307078935
 21
255.1074756396893122
 31
0.0
  0
LINE
  5
22517
  8
0
 10
4578.6287419656800921
 20
255.106829795989313
 30
0.0
 11
4578.2071573537787117
 21
255.1053664117893049
 31
0.0
  0
LINE
  5
22518
  8
0
 10
4579.4488622791786838
 20
254.8968679889892996
 30
0.0
 11
4580.3150039430802281
 21
254.8968679889892996
 31
0.0
  0
LINE
  5
22519
  8
0
 10
4579.4488622791786838
 20
254.9145082651893119
 30
0.0
 11
4580.3150039430802281
 21
254.9145082651893119
 31
0.0
  0
LINE
  5
2251A
  8
0
 10
4580.3150039430802281
 20
254.9438102947893015
 30
0.0
 11
4579.6457126728801086
 21
254.9438102947893015
 31
0.0
  0
LINE
  5
2251B
  8
0
 10
4579.6457126728801086
 20
254.9598799552892956
 30
0.0
 11
4579.7638229090798632
 21
254.9598799552892956
 31
0.0
  0
LINE
  5
2251C
  8
0
 10
4579.6850827516791469
 20
255.0005814785893108
 30
0.0
 11
4580.3150039430802281
 21
255.0005814785893108
 31
0.0
  0
LINE
  5
2251D
  8
0
 10
4579.3491729105799095
 20
255.2822170591892927
 30
0.0
 11
4577.9466144467787672
 21
255.2822154995893129
 31
0.0
  0
LINE
  5
2251E
  8
0
 10
4579.3791122580796582
 20
255.2940263052892931
 30
0.0
 11
4577.9324967180791646
 21
255.2940263052892931
 31
0.0
  0
LINE
  5
2251F
  8
0
 10
4577.6467907443802687
 20
255.6850780947893043
 30
0.0
 11
4577.6378386571796
 21
255.6948018064892949
 31
0.0
  0
LINE
  5
22520
  8
0
 10
4576.539838906879595
 20
255.8648924469893018
 30
0.0
 11
4576.539838906879595
 21
255.8333963839893102
 31
0.0
  0
LINE
  5
22521
  8
0
 10
4576.6535866886797521
 20
255.7743412658892908
 30
0.0
 11
4576.6535866886797521
 21
255.8333963839893102
 31
0.0
  0
LINE
  5
22522
  8
0
 10
4576.6732717279801363
 20
255.8333963839893102
 30
0.0
 11
4576.6732717279801363
 21
255.7743412355893042
 31
0.0
  0
LINE
  5
22523
  8
0
 10
4576.6929567673796555
 20
255.7546562264892884
 30
0.0
 11
4576.6929567673796555
 21
255.7743412658892908
 31
0.0
  0
LINE
  5
22524
  8
0
 10
4576.6460394994801391
 20
255.7546562264892884
 30
0.0
 11
4576.6460411045800356
 21
255.7743412658892908
 31
0.0
  0
LINE
  5
22525
  8
0
 10
4579.4488622791786838
 20
255.4987507146892938
 30
0.0
 11
4579.4107145370580838
 21
255.4987507146892938
 31
0.0
  0
LINE
  5
22526
  8
0
 10
4575.6306970661798914
 20
255.6129239429893119
 30
0.0
 11
4575.8075312904802558
 21
255.6129239429893119
 31
0.0
  0
LINE
  5
22527
  8
0
 10
4577.325576452380119
 20
255.6365459902893065
 30
0.0
 11
4577.6378386571796
 21
255.6365459902893065
 31
0.0
  0
LINE
  5
22528
  8
0
 10
4577.6467907443802687
 20
255.6850780947893043
 30
0.0
 11
4577.6782867998790607
 21
255.6850780947893043
 31
0.0
  0
LINE
  5
22529
  8
0
 10
4575.6482946918804373
 20
255.6916641004893052
 30
0.0
 11
4575.7506929014798516
 21
255.6916641004893052
 31
0.0
  0
LINE
  5
2252A
  8
0
 10
4579.4488622791786838
 20
255.6956011083892975
 30
0.0
 11
4579.4104752493803971
 21
255.6956011083892975
 31
0.0
  0
LINE
  5
2252B
  8
0
 10
4579.379112312180041
 20
255.7270971713892891
 30
0.0
 11
4579.032159819379558
 21
255.7270971713892891
 31
0.0
  0
LINE
  5
2252C
  8
0
 10
4578.2794493265801066
 20
255.7270971713892891
 30
0.0
 11
4577.9300050717802151
 21
255.7270971713892891
 31
0.0
  0
LINE
  5
2252D
  8
0
 10
4575.4435236271801841
 20
255.7310341792893098
 30
0.0
 11
4575.9947047295800076
 21
255.7310341792893098
 31
0.0
  0
LINE
  5
2252E
  8
0
 10
4579.6067811722614351
 20
255.7368418876378087
 30
0.0
 11
4579.6457126728801086
 21
255.736844948989301
 31
0.0
  0
LINE
  5
2252F
  8
0
 10
4579.3475780711787593
 20
255.7467822107892914
 30
0.0
 11
4579.1988704215800681
 21
255.7467822107892914
 31
0.0
  0
LINE
  5
22530
  8
0
 10
4578.1011676195803375
 20
255.7467822107892914
 30
0.0
 11
4577.9000281274802546
 21
255.7467822107892914
 31
0.0
  0
LINE
  5
22531
  8
0
 10
4578.1991767982799502
 20
255.7467822107892914
 30
0.0
 11
4578.276918147379547
 21
255.7467822107892914
 31
0.0
  0
LINE
  5
22532
  8
0
 10
4579.032159819379558
 20
255.7467822107892914
 30
0.0
 11
4579.1071891907740792
 21
255.7467822107892914
 31
0.0
  0
LINE
  5
22533
  8
0
 10
4575.4238385878788904
 20
255.7507192185892961
 30
0.0
 11
4576.0143897688803918
 21
255.7507192185892961
 31
0.0
  0
LINE
  5
22534
  8
0
 10
4579.2079103471642156
 20
255.7525282885893034
 30
0.0
 11
4579.1099011684709694
 21
255.7525282885893034
 31
0.0
  0
LINE
  5
22535
  8
0
 10
4578.2082167238795591
 20
255.7525282885893034
 30
0.0
 11
4578.110207545179037
 21
255.7525282885893034
 31
0.0
  0
LINE
  5
22536
  8
0
 10
4573.0261081056787589
 20
255.7546562264892884
 30
0.0
 11
4578.0966476567809877
 21
255.7546562264892884
 31
0.0
  0
LINE
  5
22537
  8
0
 10
4578.2674608626803092
 20
255.7546562264892884
 30
0.0
 11
4578.276918147379547
 21
255.7546562264892884
 31
0.0
  0
LINE
  5
22538
  8
0
 10
4579.032159819379558
 20
255.7546562264892884
 30
0.0
 11
4579.0375357727789378
 21
255.7546562264892884
 31
0.0
  0
LINE
  5
22539
  8
0
 10
4579.2082519914210934
 20
255.7546562264892884
 30
0.0
 11
4579.4488622713788573
 21
255.7546562264892884
 31
0.0
  0
LINE
  5
2253A
  8
0
 10
4572.8356086287376456
 20
255.7743412658892908
 30
0.0
 11
4575.6890197594802885
 21
255.7743412658892908
 31
0.0
  0
LINE
  5
2253B
  8
0
 10
4575.7087047988798076
 20
255.7743412658892908
 30
0.0
 11
4576.6535863123799572
 21
255.7743412658892908
 31
0.0
  0
LINE
  5
2253C
  8
0
 10
4576.6732750113787915
 20
255.7743412658892908
 30
0.0
 11
4578.0709095232787149
 21
255.7743412658892908
 31
0.0
  0
LINE
  5
2253D
  8
0
 10
4578.276918147379547
 20
255.7940229388892988
 30
0.0
 11
4578.2709382688635742
 21
255.7940228162487983
 31
0.0
  0
LINE
  5
2253E
  8
0
 10
4579.0375357727789378
 20
255.794028564589297
 30
0.0
 11
4579.032159819379558
 21
255.7940673354310945
 31
0.0
  0
LINE
  5
2253F
  8
0
 10
4579.032159819379558
 20
255.8238360421892992
 30
0.0
 11
4578.2794493265801066
 21
255.8238360421892992
 31
0.0
  0
LINE
  5
22540
  8
0
 10
4578.1147275079802057
 20
255.8255223660893023
 30
0.0
 11
4578.2715605072899052
 21
255.8255223662893059
 31
0.0
  0
LINE
  5
22541
  8
0
 10
4579.0556156239799748
 20
255.825522366589297
 30
0.0
 11
4579.2124303099790268
 21
255.8255223664893094
 31
0.0
  0
LINE
  5
22542
  8
0
 10
4579.0497123258255669
 20
255.8294593760892894
 30
0.0
 11
4579.0331784129002699
 21
255.8294593760892894
 31
0.0
  0
LINE
  5
22543
  8
0
 10
4578.2781837369802815
 20
255.8294593760892894
 30
0.0
 11
4578.2715421939801672
 21
255.8294593760892894
 31
0.0
  0
LINE
  5
22544
  8
0
 10
4580.3150039430802281
 20
255.8333963839893102
 30
0.0
 11
4576.0164362289797282
 21
255.8333963839893102
 31
0.0
  0
LINE
  5
22545
  8
0
 10
4580.3150039430802281
 20
255.8648924469893018
 30
0.0
 11
4575.8589559140800702
 21
255.8648924469893018
 31
0.0
  0
LINE
  5
22546
  8
0
 10
4575.7087044262789277
 20
255.8727664626892988
 30
0.0
 11
4575.6890197594802885
 21
255.8727664626892988
 31
0.0
  0
LINE
  5
22547
  8
0
 10
4580.3150039430802281
 20
256.0696168563893025
 30
0.0
 11
4574.2176653104797879
 21
256.0696168563893025
 31
0.0
  0
LINE
  5
22548
  8
0
 10
4578.0966476567809877
 20
255.7940130837893093
 30
0.0
 11
4578.0709095232787149
 21
255.7940465923911972
 31
0.0
  0
LINE
  5
22549
  8
0
 10
4577.325576452380119
 20
255.6365459902893065
 30
0.0
 11
4577.325576452380119
 21
255.7546562264892884
 31
0.0
  0
LINE
  5
2254A
  8
0
 10
4577.4016181846800464
 20
255.7546562264892884
 30
0.0
 11
4577.4016181846800464
 21
255.7743401499893139
 31
0.0
  0
LINE
  5
2254B
  8
0
 10
4577.6378386571796
 20
255.7546562264892884
 30
0.0
 11
4577.6378386571796
 21
255.6365459902893065
 31
0.0
  0
LINE
  5
2254C
  8
0
 10
4574.0485154580801463
 20
256.0814221143892837
 30
0.0
 11
4573.1271743360812252
 21
256.0814278800892794
 31
0.0
  0
LINE
  5
2254D
  8
0
 10
4573.1135289430803823
 20
256.0814278800892794
 30
0.0
 11
4572.8933116547786994
 21
256.0814278800892794
 31
0.0
  0
LINE
  5
2254E
  8
0
 10
4574.0485154580801463
 20
256.0814221143892837
 30
0.0
 11
4574.1315848196800289
 21
256.0814274145893137
 31
0.0
  0
LINE
  5
2254F
  8
0
 10
4572.2677599169801397
 20
256.3452074075893279
 30
0.0
 11
4572.0630355075791158
 21
256.3452074075893279
 31
0.0
  0
LINE
  5
22550
  8
0
 10
4571.7559488933802641
 20
256.3452074075893279
 30
0.0
 11
4571.5512244838791958
 21
256.3452074075893279
 31
0.0
  0
LINE
  5
22551
  8
0
 10
4572.6455147332799243
 20
256.4042625257893064
 30
0.0
 11
4572.6576520345033714
 21
256.4042625257893064
 31
0.0
  0
LINE
  5
22552
  8
0
 10
4573.1135289430803823
 20
256.4160735493892957
 30
0.0
 11
4573.1272029862038835
 21
256.4160735493892957
 31
0.0
  0
LINE
  5
22553
  8
0
 10
4577.6772087358804129
 20
255.7743412658892908
 30
0.0
 11
4577.6772087358804129
 21
255.7546562264892884
 31
0.0
  0
LINE
  5
22554
  8
0
 10
4577.6782867998790607
 20
255.7546562264892884
 30
0.0
 11
4577.6782867998790607
 21
255.5909409182893057
 31
0.0
  0
LINE
  5
22555
  8
0
 10
4577.8952780757799701
 20
255.6837900845893046
 30
0.0
 11
4577.8952780791787518
 21
255.5184357540892961
 31
0.0
  0
LINE
  5
22556
  8
0
 10
4577.8952780778799934
 20
255.334177903889298
 30
0.0
 11
4577.8952780791787518
 21
255.5184357540892961
 31
0.0
  0
LINE
  5
22557
  8
0
 10
4578.0709095232787149
 20
255.7743412658892908
 30
0.0
 11
4578.0709095232787149
 21
255.8333963839893102
 31
0.0
  0
LINE
  5
22558
  8
0
 10
4578.0966476567809877
 20
255.8333963839893102
 30
0.0
 11
4578.0966476567809877
 21
255.7467822107892914
 31
0.0
  0
LINE
  5
22559
  8
0
 10
4578.1011676195803375
 20
255.8333963839893102
 30
0.0
 11
4578.1011676195803375
 21
255.7467822107892914
 31
0.0
  0
LINE
  5
2255A
  8
0
 10
4578.110207545179037
 20
255.8333963839893102
 30
0.0
 11
4578.110207545179037
 21
255.7525282885893034
 31
0.0
  0
LINE
  5
2255B
  8
0
 10
4578.110207545179037
 20
255.752528288689291
 30
0.0
 11
4578.110207545179037
 21
255.8333963839893102
 31
0.0
  0
LINE
  5
2255C
  8
0
 10
4578.1147275079802057
 20
255.8255223660893023
 30
0.0
 11
4578.1147275079802057
 21
255.8333963839893102
 31
0.0
  0
LINE
  5
2255D
  8
0
 10
4578.1991767982799502
 20
255.752528288689291
 30
0.0
 11
4578.1991767982799502
 21
255.7467822107892914
 31
0.0
  0
LINE
  5
2255E
  8
0
 10
4578.276918147379547
 20
255.8238360421892992
 30
0.0
 11
4578.276918147379547
 21
255.7270971713892891
 31
0.0
  0
LINE
  5
2255F
  8
0
 10
4578.2794493265801066
 20
255.8238360421892992
 30
0.0
 11
4578.2794493265801066
 21
255.7270971713892891
 31
0.0
  0
LINE
  5
22560
  8
0
 10
4574.1625240120802118
 20
256.5827052638892951
 30
0.0
 11
4574.2532623939478071
 21
256.5935230738036807
 31
0.0
  0
LINE
  5
22561
  8
0
 10
4575.3267619792814003
 20
256.8317466941892917
 30
0.0
 11
4574.7611663437801326
 21
256.8305553710893037
 31
0.0
  0
LINE
  5
22562
  8
0
 10
4579.032159819379558
 20
255.8238360421892992
 30
0.0
 11
4579.032159819379558
 21
255.7270971713892891
 31
0.0
  0
LINE
  5
22563
  8
0
 10
4579.0375357727789378
 20
255.8294593760892894
 30
0.0
 11
4579.0375357727789378
 21
255.7467822107892914
 31
0.0
  0
LINE
  5
22564
  8
0
 10
4579.0556156239799748
 20
255.825522366589297
 30
0.0
 11
4579.0556156239799748
 21
255.8333963839893102
 31
0.0
  0
LINE
  5
22565
  8
0
 10
4579.1988704215800681
 20
255.7467822107892914
 30
0.0
 11
4579.1988704215800681
 21
255.7525282885893034
 31
0.0
  0
LINE
  5
22566
  8
0
 10
4579.2124303099790268
 20
255.8255223664893094
 30
0.0
 11
4579.2124303099790268
 21
255.8333963839893102
 31
0.0
  0
LINE
  5
22567
  8
0
 10
4579.4104752493803971
 20
255.6956011083892975
 30
0.0
 11
4579.4104752493803971
 21
255.5098377341892046
 31
0.0
  0
LINE
  5
22568
  8
0
 10
4579.41057026838007
 20
255.1723335820892942
 30
0.0
 11
4579.4105702507276874
 21
255.3192475936320989
 31
0.0
  0
LINE
  5
22569
  8
0
 10
4579.4104752515795553
 20
255.7546562264892884
 30
0.0
 11
4579.4104752493803971
 21
255.6956011083892975
 31
0.0
  0
LINE
  5
2256A
  8
0
 10
4579.4488622791786838
 20
255.8333963839893102
 30
0.0
 11
4579.4488622791786838
 21
254.8968679889892996
 31
0.0
  0
LINE
  5
2256B
  8
0
 10
4575.9947047295800076
 20
255.7310341792893098
 30
0.0
 11
4576.0143897688803918
 21
255.7507192185892961
 31
0.0
  0
LINE
  5
2256C
  8
0
 10
4579.6067638429803992
 20
255.8333963839893102
 30
0.0
 11
4579.6067811722859915
 21
255.7368418875772988
 31
0.0
  0
LINE
  5
2256D
  8
0
 10
4579.6457126728801086
 20
254.9438102947893015
 30
0.0
 11
4579.6457126728801086
 21
255.8333963839893102
 31
0.0
  0
LINE
  5
2256E
  8
0
 10
4579.6752402319798421
 20
255.5231257662892972
 30
0.0
 11
4579.6752402319798421
 21
255.8333963839893102
 31
0.0
  0
LINE
  5
2256F
  8
0
 10
4579.6850827516791469
 20
255.8333963839893102
 30
0.0
 11
4579.6850827516791469
 21
255.0005814785893108
 31
0.0
  0
LINE
  5
22570
  8
0
 10
4579.7638229090798632
 20
254.9598799552892956
 30
0.0
 11
4579.7638229090798632
 21
255.0005814785893108
 31
0.0
  0
ARC
  5
22571
  8
0
 10
4574.7312148220798917
 20
256.6338311212892904
 30
0.0
 40
2.0854028060999998
 50
184.3923065055545862
 51
186.2083771754147961
  0
ARC
  5
22572
  8
0
 10
4574.743476284848839
 20
256.0268170109528114
 30
0.0
 40
0.8039330132168009
 50
88.7391393176806247
 51
99.8034822070481056
  0
ARC
  5
22573
  8
0
 10
4574.5017658215756455
 20
256.5190650310452725
 30
0.0
 40
0.2375849488638505
 50
144.0457645531226945
 51
169.0070200336442952
  0
ARC
  5
22574
  8
0
 10
4577.9306804788138834
 20
255.3303010843094967
 30
0.0
 40
0.0363202189152867
 50
259.5812428312576117
 51
272.8663376621091743
  0
ARC
  5
22575
  8
0
 10
4577.0866613065791171
 20
256.0702550404893145
 30
0.0
 40
0.3175623069
 50
263.6252692133379014
 51
269.9993231063774033
  0
ARC
  5
22576
  8
0
 10
4577.0867000510788785
 20
256.0692436209893117
 30
0.0
 40
0.3165508902
 50
269.9923081777948823
 51
276.3849217585159863
  0
ARC
  5
22577
  8
0
 10
4578.2016546346058021
 20
255.8406296801848043
 30
0.0
 40
0.079586684668366
 50
347.8184145662347078
 51
354.7854338404059718
  0
ARC
  5
22578
  8
0
 10
4579.6457126728801086
 20
255.0459948091892954
 30
0.0
 40
0.1181102362
 50
70.5287793312046603
 51
90.0
  0
ARC
  5
22579
  8
0
 10
4579.3475784909787762
 20
255.1723307314892963
 30
0.0
 40
0.062992032
 50
270.2256471196815824
 51
0.0
  0
ARC
  5
2257A
  8
0
 10
4579.3488137846889003
 20
255.3428665614029001
 30
0.0
 40
0.0607528783359265
 50
299.8726302702355042
 51
307.678387023914695
  0
ARC
  5
2257B
  8
0
 10
4579.3491961610379803
 20
255.3422111625461923
 30
0.0
 40
0.0599941078621782
 50
269.9777952672706078
 51
299.8677262461366126
  0
ARC
  5
2257C
  8
0
 10
4579.3791120152409349
 20
255.3252620436749964
 30
0.0
 40
0.0312357383866265
 50
270.0004454390993942
 51
298.8268254434316873
  0
ARC
  5
2257D
  8
0
 10
4578.8458503524816479
 20
255.848855554789111
 30
0.0
 40
0.2047826064976592
 50
354.5650288900944247
 51
355.6705859549974207
  0
ARC
  5
2257E
  8
0
 10
4579.3475781216802716
 20
255.6837900847891945
 30
0.0
 40
0.062992126000087
 50
34.6662117800874796
 51
90.000045933272304
  0
ARC
  5
2257F
  8
0
 10
4580.3161646414073402
 20
268.0075309455804131
 30
0.0
 40
12.2911771146810302
 50
265.9536751463155042
 51
266.6913439658957259
  0
ARC
  5
22580
  8
0
 10
4580.3150040114796866
 20
267.6842988618893173
 30
0.0
 40
11.9610299307000005
 50
266.9811517566644739
 51
269.9999996723310005
  0
ARC
  5
22581
  8
0
 10
4586.080426880836967
 20
251.149961762138588
 30
0.0
 40
13.0033147193666192
 50
155.45874162801681
 51
157.7129889757582077
  0
ARC
  5
22582
  8
0
 10
5338.4275511609521345
 20
182.4433528023596125
 30
0.0
 40
769.3333182537003267
 50
174.4779788165955949
 51
174.5127280434591057
  0
LINE
  5
22583
  8
0
 10
4579.032159819379558
 20
255.8238360421892992
 30
0.0
 11
4579.0331605571791442
 21
255.8293036248892918
 31
0.0
  0
LINE
  5
22584
  8
0
 10
4579.0331605571791442
 20
255.8293036248892918
 30
0.0
 11
4579.0336297616577212
 21
255.8333963839893102
 31
0.0
  0
LINE
  5
22585
  8
0
 10
4578.276918147379547
 20
255.8238360421892992
 30
0.0
 11
4578.2758889022643416
 21
255.8294593760892894
 31
0.0
  0
LINE
  5
22586
  8
0
 10
4579.3701093045156085
 20
255.8333963839893102
 30
0.0
 11
4579.3701374347174351
 21
255.7546562264892884
 31
0.0
  0
LINE
  5
22587
  8
0
 10
4579.3701233714546106
 20
255.7940211625235918
 30
0.0
 11
4579.2118282143919714
 21
255.794068370587695
 31
0.0
  0
LINE
  5
22588
  8
0
 10
4575.8218371329076035
 20
256.0105269065866764
 30
0.0
 11
4572.6197293169689146
 21
256.0105640980426074
 31
0.0
  0
LINE
  5
22589
  8
0
 10
4574.1967487422798513
 20
256.0918599850892861
 30
0.0
 11
4574.2499418657798742
 21
256.4682544096892798
 31
0.0
  0
LINE
  5
2258A
  8
0
 10
4574.1625240120802118
 20
256.5827052638892951
 30
0.0
 11
4574.1385984467788148
 21
256.5809431365893261
 31
0.0
  0
LINE
  5
2258B
  8
0
 10
4573.1271743360812252
 20
256.0814278800892794
 30
0.0
 11
4573.1272107986251285
 21
256.5073259724043737
 31
0.0
  0
LINE
  5
2258C
  8
0
 10
4572.8933116547786994
 20
256.0814278800892794
 30
0.0
 11
4572.893312130358936
 21
256.4490073753538013
 31
0.0
  0
LINE
  5
2258D
  8
0
 10
4574.2499418657798742
 20
256.4682544096892798
 30
0.0
 11
4574.2685404247813494
 21
256.5643698013893186
 31
0.0
  0
LINE
  5
2258E
  8
0
 10
4573.0339386030582318
 20
256.5007421453731808
 30
0.0
 11
4573.033933483779947
 21
256.0814278800892794
 31
0.0
  0
LINE
  5
2258F
  8
0
 10
4574.5851546632811733
 20
256.8149236768892933
 30
0.0
 11
4572.1543308227928719
 21
256.6160618212427948
 31
0.0
  0
ARC
  5
22590
  8
0
 10
4571.1089382551335802
 20
256.7060473001411083
 30
0.0
 40
0.1799346136481416
 50
214.4012369383058001
 51
231.2092115404213075
  0
ARC
  5
22591
  8
0
 10
4578.701779103883382
 20
253.8945655576661125
 30
0.0
 40
1.214462435431465
 50
90.9226378717785764
 51
93.4478187863003456
  0
ARC
  5
22592
  8
0
 10
4578.7567979268378622
 20
254.1260401773965043
 30
0.0
 40
0.9831481093142856
 50
86.6176633370756264
 51
89.7572375860139289
  0
ARC
  5
22593
  8
0
 10
4578.1481994557725557
 20
255.5837906614410997
 30
0.0
 40
0.4699670285209333
 50
179.1284371953526886
 51
234.5854196662043876
  0
ARC
  5
22594
  8
0
 10
4578.1873660457076767
 20
255.659608116887398
 30
0.0
 40
0.5545835318700157
 50
235.8268604616310995
 51
272.0451357567354194
  0
ARC
  5
22595
  8
0
 10
3427.0457148817408779
 20
230.6195988285560077
 30
0.0
 40
1152.6335345329669053
 50
1.2315142774842349
 51
1.2373546801308311
  0
ARC
  5
22596
  8
0
 10
4579.5910716796934139
 20
255.5246998973724999
 30
0.0
 40
0.0841832708012624
 50
310.4716615139464011
 51
358.9285718731983934
  0
ARC
  5
22597
  8
0
 10
4579.3790333415563509
 20
255.6956553160102033
 30
0.0
 40
0.031441954551794
 50
359.9012189451893846
 51
89.8560939278895745
  0
ARC
  5
22598
  8
0
 10
4579.321910671106707
 20
255.7548204133208003
 30
0.0
 40
0.0268966192374363
 50
342.6111253597817949
 51
359.6502433692490968
  0
ARC
  5
22599
  8
0
 10
4578.9080240594448696
 20
255.8017669662393985
 30
0.0
 40
0.3039016830135238
 50
350.6757355849214264
 51
358.5483981980796102
  0
ARC
  5
2259A
  8
0
 10
4578.4140089633201569
 20
255.8250730684457039
 30
0.0
 40
0.7984214730773225
 50
357.7745023617055722
 51
0.0322422227666189
  0
ARC
  5
2259B
  8
0
 10
4579.1006644455737842
 20
255.7533747215987887
 30
0.0
 40
0.0092754244496323
 50
314.7040044962632805
 51
354.7641638227253225
  0
ARC
  5
2259C
  8
0
 10
4578.2694545517897495
 20
255.8249319841933129
 30
0.0
 40
0.7861612938684091
 50
357.5162873916477793
 51
0.0430273317080209
  0
ARC
  5
2259D
  8
0
 10
4578.7027940363186644
 20
255.8037167079631899
 30
0.0
 40
0.3523178112524166
 50
352.8096843348540119
 51
357.9092600780268754
  0
ARC
  5
2259E
  8
0
 10
4579.0144728493160073
 20
255.7625755215190111
 30
0.0
 40
0.0379835902573042
 50
335.4307349546801902
 51
355.5352469859116127
  0
ARC
  5
2259F
  8
0
 10
4579.119024150374571
 20
255.8349324049414975
 30
0.0
 40
0.0757830577828948
 50
184.1414888184266943
 51
191.7113327879542908
  0
ARC
  5
225A0
  8
0
 10
4578.9680189988002894
 20
255.8359709130180022
 30
0.0
 40
0.0819524239655905
 50
347.7584603517834125
 51
355.442755217028207
  0
ARC
  5
225A1
  8
0
 10
4579.0596343391653136
 20
255.8223817686505868
 30
0.0
 40
0.0150838636059436
 50
190.8210702262474001
 51
202.2243387086585074
  0
ARC
  5
225A2
  8
0
 10
4579.0482060304930201
 20
255.8177044156643092
 30
0.0
 40
0.002735439559118
 50
202.0714994885906037
 51
221.4065242780000915
  0
ARC
  5
225A3
  8
0
 10
4579.0466666475440434
 20
255.8163499868678912
 30
0.0
 40
0.0006850355535925
 50
221.5966912916807985
 51
253.0304049859213933
  0
ARC
  5
225A4
  8
0
 10
4579.0465773587156946
 20
255.8161227723531113
 30
0.0
 40
0.0004420659800187
 50
255.5048167942346993
 51
299.8036309601823746
  0
ARC
  5
225A5
  8
0
 10
4579.0461664949616534
 20
255.8167533708908081
 30
0.0
 40
0.0011942467203109
 50
301.8716128940257022
 51
328.5234261699184799
  0
ARC
  5
225A6
  8
0
 10
4579.0421528984115866
 20
255.8191907937664098
 30
0.0
 40
0.0058899819553581
 50
328.6881536373159065
 51
343.7642335712899921
  0
ARC
  5
225A7
  8
0
 10
4579.0312485502108757
 20
255.8228427423657934
 30
0.0
 40
0.0173865293995355
 50
342.256229695533591
 51
345.8563054795353082
  0
ARC
  5
225A8
  8
0
 10
4578.2715597923788664
 20
255.8343621509937975
 30
0.0
 40
0.0082409856105401
 50
323.4926577249050865
 51
353.2700016140710204
  0
ARC
  5
225A9
  8
0
 10
4578.2465299636405689
 20
255.7571355437470118
 30
0.0
 40
0.0210772282009232
 50
330.5798959769497856
 51
353.2446492513901148
  0
ARC
  5
225AA
  8
0
 10
4577.8989321899089191
 20
255.8070466994799119
 30
0.0
 40
0.3722339913472263
 50
351.9089793618049953
 51
357.9949013402252831
  0
ARC
  5
225AB
  8
0
 10
4577.3796563924934162
 20
255.8273850149589066
 30
0.0
 40
0.8919060597684584
 50
357.8563222020209764
 51
0.3861714790371759
  0
ARC
  5
225AC
  8
0
 10
4578.177496751707622
 20
255.7593047372837987
 30
0.0
 40
0.0314584956064654
 50
341.8185568724932182
 51
347.5604661806736999
  0
ARC
  5
225AD
  8
0
 10
4578.1975534333969335
 20
255.7526823777145069
 30
0.0
 40
0.0103368784285891
 50
331.9782881474703231
 51
342.0042167869099785
  0
ARC
  5
225AE
  8
0
 10
4578.2042495024652453
 20
255.7490399841177009
 30
0.0
 40
0.0027154638188573
 50
311.2010459934588198
 51
333.4457324439027275
  0
ARC
  5
225AF
  8
0
 10
4578.2054670448642355
 20
255.7476460730779877
 30
0.0
 40
0.0008646845916533
 50
272.4989589489762238
 51
311.3396163057572039
  0
ARC
  5
225B0
  8
0
 10
4577.6481434032803008
 20
255.8177773553989027
 30
0.0
 40
0.4666483814920833
 50
351.9622854667679235
 51
0.950987548882463
  0
ARC
  5
225B1
  8
0
 10
4577.9300366040051813
 20
255.6956632391770086
 30
0.0
 40
0.031433948027665
 50
90.0574749226414042
 51
180.1132480791198986
  0
ARC
  5
225B2
  8
0
 10
4577.9293161437472008
 20
255.3241667516425082
 30
0.0
 40
0.0300411990123005
 50
177.4137632108624132
 51
260.0246818158208271
  0
ARC
  5
225B3
  8
0
 10
4576.6751139445459557
 20
255.3924541166846893
 30
0.0
 40
1.226019952021804
 50
356.8705124614302235
 51
2.8794562932609669
  0
ARC
  5
225B4
  8
0
 10
4579.1121538629640781
 20
255.5030149153361094
 30
0.0
 40
1.21355640708416
 50
179.8312815469620887
 51
182.3127431206517883
  0
LINE
  5
225B5
  8
0
 10
4577.8986027173787079
 20
255.6956011083887006
 30
0.0
 11
4577.8986027173787079
 21
255.506588460639307
 31
0.0
  0
ARC
  5
225B6
  8
0
 10
4577.9451367315687094
 20
255.3320957277653918
 30
0.0
 40
0.0499021122313253
 50
177.608627317926306
 51
271.6969066008334721
  0
ARC
  5
225B7
  8
0
 10
4577.9591783414398378
 20
255.6828813603636092
 30
0.0
 40
0.0639067268064878
 50
90.7770028956360164
 51
179.1852529425277964
  0
ARC
  5
225B8
  8
0
 10
4577.9008331496461324
 20
255.7901071008211886
 30
0.0
 40
0.0433323684671054
 50
234.8965722770153945
 51
268.9355064639494799
  0
ARC
  5
225B9
  8
0
 10
4576.2206681947700417
 20
258.7821192015060205
 30
0.0
 40
2.8261820728504481
 50
273.4108540142991046
 51
279.7105789620940186
  0
ARC
  5
225BA
  8
0
 10
4578.8398517552614067
 20
243.1331272021770928
 30
0.0
 40
13.0405062763539998
 50
97.2415390451879773
 51
99.4562712037240146
  0
ARC
  5
225BB
  8
0
 10
4576.6809113473000252
 20
250.329771364245687
 30
0.0
 40
5.6387428474429369
 50
92.9693644343640813
 51
95.3429853689651594
  0
ARC
  5
225BC
  8
0
 10
4574.5810129622359455
 20
245.6834516610869912
 30
0.0
 40
10.3807151577897496
 50
81.2741089232824407
 51
82.9285258288990548
  0
ARC
  5
225BD
  8
0
 10
4572.696928609349925
 20
251.3905467843403869
 30
0.0
 40
5.577568431722713
 50
55.4643711077011901
 51
57.0250483076045285
  0
ARC
  5
225BE
  8
0
 10
4575.6512577434541527
 20
255.7287140766908919
 30
0.0
 40
0.0371682715655984
 50
176.4211804409601996
 51
265.4275331781338991
  0
ARC
  5
225BF
  8
0
 10
4575.6904985075070726
 20
255.7287140768144127
 30
0.0
 40
0.0371682717407741
 50
176.4211798764785897
 51
265.4275321913090124
  0
ARC
  5
225C0
  8
0
 10
4575.747729849253119
 20
255.728714076814299
 30
0.0
 40
0.0371682717405875
 50
274.572467808220722
 51
3.5788201238042019
  0
ARC
  5
225C1
  8
0
 10
4575.6333643876760107
 20
255.6878362058386926
 30
0.0
 40
0.0749597340486996
 50
177.0728599902651013
 51
267.9607914866402893
  0
ARC
  5
225C2
  8
0
 10
4575.7656226628150762
 20
255.6878367032034021
 30
0.0
 40
0.0749602504031502
 50
272.0396093589603197
 51
2.9267390191528189
  0
ARC
  5
225C3
  8
0
 10
4575.8048639691251083
 20
255.6878362057913137
 30
0.0
 40
0.0749597339998727
 50
272.0392084832730006
 51
2.9271398948453138
  0
ARC
  5
225C4
  8
0
 10
4575.5816178486256831
 20
255.9677129385185879
 30
0.0
 40
0.1129259080388951
 50
350.3819135980720034
 51
355.8101385786220021
  0
ARC
  5
225C5
  8
0
 10
4575.6756723338112351
 20
255.9527698901057988
 30
0.0
 40
0.0177240338810447
 50
318.8569536499305173
 51
347.2070359479694162
  0
ARC
  5
225C6
  8
0
 10
4575.7131209223998667
 20
255.9543755177315063
 30
0.0
 40
0.0169885797643197
 50
215.8690362530790878
 51
254.9331064948603114
  0
ARC
  5
225C7
  8
0
 10
4575.7253162645220073
 20
255.9591899107037989
 30
0.0
 40
0.0298688134344947
 50
188.9517093690284923
 51
209.6333862173941895
  0
ARC
  5
225C8
  8
0
 10
4575.8736802646872093
 20
255.9880054195691059
 30
0.0
 40
0.1809894091597408
 50
188.0628939831663047
 51
190.6547265690167876
  0
ARC
  5
225C9
  8
0
 10
4576.3753282729212515
 20
256.0478751757356122
 30
0.0
 40
0.6861653277934295
 50
183.1197340167580876
 51
187.1373870714263035
  0
ARC
  5
225CA
  8
0
 10
4572.9065310002906699
 20
255.7858011549685955
 30
0.0
 40
0.0718422705950592
 50
180.0886456076370052
 51
189.1787214041457048
  0
ARC
  5
225CB
  8
0
 10
4572.6768284796071384
 20
256.4713505210265794
 30
0.0
 40
0.072424726676287
 50
194.0997242161087115
 51
217.3355878662121086
  0
ARC
  5
225CC
  8
0
 10
4572.8536774260892344
 20
256.5287784359023249
 30
0.0
 40
0.2582441396196417
 50
193.0045631846720937
 51
196.899812071138399
  0
ARC
  5
225CD
  8
0
 10
4572.9511120993720397
 20
256.5328057374402988
 30
0.0
 40
0.3405065538732559
 50
190.3496240658278111
 51
196.0743453189666923
  0
ARC
  5
225CE
  8
0
 10
4572.7082745732041076
 20
256.4593691790831258
 30
0.0
 40
0.0868934865417993
 50
193.8797260075942006
 51
216.2488442137440927
  0
ARC
  5
225CF
  8
0
 10
4572.7817713925105636
 20
257.1930573214767719
 30
0.0
 40
0.7523640465393957
 50
268.7829638632857723
 51
284.5289107083410158
  0
ARC
  5
225D0
  8
0
 10
4574.2166288486669146
 20
256.0895983338879773
 30
0.0
 40
0.0200083406638366
 50
173.5096759495534116
 51
272.9693356119159944
  0
ARC
  5
225D1
  8
0
 10
4574.6197563448276924
 20
256.4125319837451116
 30
0.0
 40
0.3960096957370012
 50
109.4939786384981062
 51
141.5911633491562043
  0
ARC
  5
225D2
  8
0
 10
4574.71018013478988
 20
256.2174158715401973
 30
0.0
 40
0.6104481517535203
 50
99.7699940916795214
 51
111.3835643450357935
  0
ARC
  5
225D3
  8
0
 10
4574.2934689095536669
 20
-114.720610075385693
 30
0.0
 40
371.5537935691056077
 50
89.0714032425806437
 51
89.8406599280260991
  0
ARC
  5
225D4
  8
0
 10
4579.57035317806276
 20
256.3899032622892946
 30
0.0
 40
5.3209882009041554
 50
177.4069075447322064
 51
179.1562935042790912
  0
ARC
  5
225D5
  8
0
 10
4555.2737342208029077
 20
508.7711577008691961
 30
0.0
 40
252.8948149413944009
 50
273.9431562879807984
 51
274.2779922021617267
  0
ARC
  5
225D6
  8
0
 10
4570.7757129839919799
 20
283.2061677180254833
 30
0.0
 40
26.797809199174651
 50
272.7534543898672155
 51
274.0416971286211947
  0
ARC
  5
225D7
  8
0
 10
4571.6887828682820327
 20
264.3137621444715251
 30
0.0
 40
7.8833539471581524
 50
270.4881648535244949
 51
272.721070197576978
  0
ARC
  5
225D8
  8
0
 10
4571.724554281856399
 20
259.0611095236042729
 30
0.0
 40
2.6306025387627341
 50
266.2220572255704951
 51
270.6838058641995985
  0
ARC
  5
225D9
  8
0
 10
4571.6147952799010454
 20
257.4530351408204751
 30
0.0
 40
1.0187968910602561
 50
255.4950864497012049
 51
266.4225391061493724
  0
ARC
  5
225DA
  8
0
 10
4370.2663850855442433
 20
3002.7589795665357997
 30
0.0
 40
2753.6942723109000326
 50
274.2398419133260177
 51
274.2482537359217076
  0
ARC
  5
225DB
  8
0
 10
4564.8338260688560695
 20
375.1551735011033202
 30
0.0
 40
118.8969281877458997
 50
273.4851657868189818
 51
274.3498130533037056
  0
ARC
  5
225DC
  8
0
 10
4571.5952174598760394
 20
263.5615166238555958
 30
0.0
 40
7.0987159352907048
 50
268.0981107452951164
 51
273.7668912471776821
  0
ARC
  5
225DD
  8
0
 10
4571.3926771758024188
 20
257.3038942633623947
 30
0.0
 40
0.8378352756986304
 50
241.7577493480353041
 51
267.7390777044308834
  0
ARC
  5
225DE
  8
0
 10
4571.2455090571083929
 20
271.2496745660232023
 30
0.0
 40
14.6618068110987601
 50
271.2373361676657737
 51
273.5537949108925773
  0
ARC
  5
225DF
  8
0
 10
4571.4534558683126306
 20
260.4700764593234794
 30
0.0
 40
3.8803115942071278
 50
267.787615459174674
 51
271.6046425410439724
  0
ARC
  5
225E0
  8
0
 10
4571.3194686067499788
 20
257.4647875156902046
 30
0.0
 40
0.8722734940240112
 50
256.1550530360955236
 51
268.961617846408501
  0
ARC
  5
225E1
  8
0
 10
4571.381062922107958
 20
257.6042854047743731
 30
0.0
 40
1.0227991351486669
 50
247.3832279769304137
 51
254.6746734707303972
  0
ARC
  5
225E2
  8
0
 10
4571.0512195635428725
 20
256.8354830892058089
 30
0.0
 40
0.1864819300846578
 50
221.6101371849273107
 51
250.0949932050401117
  0
ARC
  5
225E3
  8
0
 10
4570.9573824573353704
 20
256.7564677890011922
 30
0.0
 40
0.0639328666952566
 50
194.1688684700428951
 51
224.5106477998980097
  0
ARC
  5
225E4
  8
0
 10
4570.9554138703024364
 20
256.7525878245822923
 30
0.0
 40
0.0611624428537902
 50
149.8425586341751909
 51
191.0946994304935913
  0
ARC
  5
225E5
  8
0
 10
4571.0483086674739752
 20
256.7104427380174911
 30
0.0
 40
0.1629777512297345
 50
133.3011905467272982
 51
153.440500123315303
  0
ARC
  5
225E6
  8
0
 10
4571.2194042332894242
 20
256.4826122765950913
 30
0.0
 40
0.4472538550346166
 50
119.2248677225038023
 51
129.2320147301498992
  0
ARC
  5
225E7
  8
0
 10
4571.9178682468900661
 20
255.0885268053839923
 30
0.0
 40
2.0061634904347851
 50
107.5159058415484026
 51
117.1941362083885991
  0
ARC
  5
225E8
  8
0
 10
4577.8286088523582293
 20
237.005497446927393
 30
0.0
 40
21.0306005870150194
 50
105.5035791466179944
 51
108.0450480769064967
  0
ARC
  5
225E9
  8
0
 10
4550.686634641810997
 20
330.7420597443324937
 30
0.0
 40
76.5581360273905318
 50
286.3258925944854241
 51
286.7565458010533916
  0
LINE
  5
225EA
  8
0
 10
4570.9642399418789864
 20
256.7438701626892907
 30
0.0
 11
4570.9642399418789864
 21
256.7385591893918786
 31
0.0
  0
ARC
  5
225EB
  8
0
 10
4571.0050613330777196
 20
256.7759227800256099
 30
0.0
 40
0.0519014090126767
 50
191.410677312031396
 51
218.1387086923971026
  0
ARC
  5
225EC
  8
0
 10
4570.9976731117822055
 20
256.7735011402818941
 30
0.0
 40
0.0441895375947313
 50
164.8622006313231907
 51
190.2279870042110019
  0
ARC
  5
225ED
  8
0
 10
4571.0261100352654466
 20
256.7641196877489733
 30
0.0
 40
0.0741075265161889
 50
141.5038834913158041
 51
163.6019800845548104
  0
ARC
  5
225EE
  8
0
 10
4571.115634103622142
 20
256.6921286597254266
 30
0.0
 40
0.1889862317632653
 50
126.8497380449726961
 51
141.3163670129789864
  0
ARC
  5
225EF
  8
0
 10
4571.3140293718179237
 20
256.4282255974949862
 30
0.0
 40
0.5191459220626256
 50
117.4091052970285034
 51
126.9038772033154032
  0
ARC
  5
225F0
  8
0
 10
4571.512468038438783
 20
256.0703287446842751
 30
0.0
 40
0.9282856029709124
 50
109.3857467409652031
 51
118.1132392920094958
  0
ARC
  5
225F1
  8
0
 10
4571.482508328055701
 20
256.0469952555263262
 30
0.0
 40
0.9410408718119395
 50
100.5304761571274952
 51
107.1929573577180008
  0
ARC
  5
225F2
  8
0
 10
4571.5984349804230078
 20
255.4630196896864902
 30
0.0
 40
1.5363847017019661
 50
94.8865929535077584
 51
100.8007626205515948
  0
ARC
  5
225F3
  8
0
 10
4571.8773389864909404
 20
250.6116198450604031
 30
0.0
 40
6.3953419014670958
 50
92.1887415180860614
 51
93.6737216383935021
  0
ARC
  5
225F4
  8
0
 10
4568.9113274781548171
 20
317.2161982014695241
 30
0.0
 40
60.2753848816668381
 50
272.5880986121638898
 51
273.1764699530089047
  0
ARC
  5
225F5
  8
0
 10
4572.4346442151390875
 20
254.0040404053017937
 30
0.0
 40
3.0349243736503939
 50
87.1845970406736086
 51
93.463907421274385
  0
ARC
  5
225F6
  8
0
 10
4572.5409402970199153
 20
256.2839361815903203
 30
0.0
 40
0.752581901487832
 50
80.1848993572442339
 51
86.7417479861400835
  0
ARC
  5
225F7
  8
0
 10
4572.6417582104731991
 20
256.853599749545026
 30
0.0
 40
0.1740844583237504
 50
60.1108261349635171
 51
80.9195780132443474
  0
ARC
  5
225F8
  8
0
 10
4572.8824626770410759
 20
257.2653583376480242
 30
0.0
 40
0.3028755127490086
 50
239.4488147240778062
 51
245.682946520809196
  0
ARC
  5
225F9
  8
0
 10
4573.1825175004651101
 20
257.9422456162841968
 30
0.0
 40
1.043281573998722
 50
245.9739216318768058
 51
252.1565961842441084
  0
ARC
  5
225FA
  8
0
 10
4573.5512033043469273
 20
259.0639592212169759
 30
0.0
 40
2.2240211928174509
 50
251.9700884771102949
 51
257.9165411684430183
  0
ARC
  5
225FB
  8
0
 10
4573.5873244771310056
 20
259.2111123571244207
 30
0.0
 40
2.37547972649145
 50
257.8076076892562014
 51
260.0396553898644925
  0
ARC
  5
225FC
  8
0
 10
4573.1690414154008977
 20
256.8149240092745913
 30
0.0
 40
0.0569955877038327
 50
63.6463662039481619
 51
82.5353341901341793
  0
ARC
  5
225FD
  8
0
 10
4573.192526432433624
 20
256.8623467977491828
 30
0.0
 40
0.0040761568211192
 50
5.2292207611426242
 51
63.5450279922876504
  0
ARC
  5
225FE
  8
0
 10
4572.6504891944396149
 20
256.8613405800555824
 30
0.0
 40
0.5460981679292555
 50
359.6272505418044148
 51
0.144548471872483
  0
ARC
  5
225FF
  8
0
 10
4571.1308313738982179
 20
256.9182315195815249
 30
0.0
 40
0.2450201041912388
 50
227.1634491129119056
 51
249.3517378803331042
  0
ARC
  5
22600
  8
0
 10
4571.3391743838938055
 20
257.4001049897049143
 30
0.0
 40
0.7698146234239382
 50
247.4879842074971066
 51
258.484622473780405
  0
ARC
  5
22601
  8
0
 10
4571.4897818222752903
 20
258.3233809106910144
 30
0.0
 40
1.704967840843765
 50
259.7193239987660718
 51
271.611698560704383
  0
ARC
  5
22602
  8
0
 10
4571.4709222463352489
 20
264.735235332358684
 30
0.0
 40
8.1164227673266414
 50
270.4716547294008251
 51
273.1631823887695987
  0
ARC
  5
22603
  8
0
 10
4571.5173776696601635
 20
261.6324463476664164
 30
0.0
 40
5.0173507271881128
 50
274.5887945323333952
 51
282.0470502150919856
  0
ARC
  5
22604
  8
0
 10
4563.4412835982311663
 20
306.4449224871573847
 30
0.0
 40
50.549440506247322
 50
280.3978656821752793
 51
280.9636498905704798
  0
ARC
  5
22605
  8
0
 10
4572.9200896523052506
 20
257.6296417753375749
 30
0.0
 40
0.8226854378905667
 50
279.4447062460778852
 51
288.0164712922904755
  0
ARC
  5
22606
  8
0
 10
4573.1499050559295938
 20
256.9274155778454087
 30
0.0
 40
0.0838223072468696
 50
287.0901008101860157
 51
303.8335408083291895
  0
ARC
  5
22607
  8
0
 10
4580.0859603005537792
 20
899.1811296607783106
 30
0.0
 40
642.3175288100915168
 50
269.7609698392207065
 51
270.020431069862525
  0
ARC
  5
22608
  8
0
 10
4578.2178079001505466
 20
493.7368548683904805
 30
0.0
 40
236.8690545195013044
 50
269.2063909527745977
 51
269.8037073275365856
  0
ARC
  5
22609
  8
0
 10
4575.3798355986182287
 20
286.8364354160626135
 30
0.0
 40
29.9491872918122297
 50
266.5044728831641123
 51
269.1528149671784149
  0
ARC
  5
2260A
  8
0
 10
4573.7351467793787378
 20
259.5457670438431137
 30
0.0
 40
2.6091091428503468
 50
254.194662101721093
 51
266.014762187646113
  0
ARC
  5
2260B
  8
0
 10
4573.2181381648097158
 20
257.6635085585816114
 30
0.0
 40
0.6573722888188187
 50
240.5882639316876066
 51
252.8689751418343121
  0
ARC
  5
2260C
  8
0
 10
4573.0212524692387888
 20
257.3178912948289963
 30
0.0
 40
0.2596195790607774
 50
214.3047085062960093
 51
240.9818149864103987
  0
ARC
  5
2260D
  8
0
 10
4573.0413264887947662
 20
257.323841542745015
 30
0.0
 40
0.27962849891167
 50
189.9127572324985067
 51
212.9935679750693964
  0
ARC
  5
2260E
  8
0
 10
4573.6516910031432417
 20
257.4155103875507962
 30
0.0
 40
0.8967832304017157
 50
184.2931215272446082
 51
188.9688642956546119
  0
ARC
  5
2260F
  8
0
 10
4579.2698621154931971
 20
438.9155471865204845
 30
0.0
 40
181.4723336032284919
 50
269.4933306573806249
 51
269.6700198369792929
  0
ARC
  5
22610
  8
0
 10
4578.3759101955247388
 20
338.601420287510507
 30
0.0
 40
81.1542240678748641
 50
267.7183621024370836
 51
269.4981639132445252
  0
ARC
  5
22611
  8
0
 10
4575.9890203420436592
 20
276.1457940471221946
 30
0.0
 40
18.6533624203358315
 50
264.6893903102858872
 51
267.4067185998604259
  0
ARC
  5
22612
  8
0
 10
4574.4758432810058366
 20
261.0990187414897719
 30
0.0
 40
3.532962826441234
 50
253.6033998384529866
 51
266.5389600361738189
  0
ARC
  5
22613
  8
0
 10
4573.9151940233241476
 20
259.1381162303296719
 30
0.0
 40
1.4936285343815809
 50
236.6096286698623885
 51
253.0017336576802904
  0
ARC
  5
22614
  8
0
 10
4573.5065329827766618
 20
258.524297557848513
 30
0.0
 40
0.7562314917112121
 50
217.5138729115124079
 51
236.8671059687561069
  0
ARC
  5
22615
  8
0
 10
4573.2249296360741937
 20
258.3086174750956161
 30
0.0
 40
0.4015231120329873
 50
179.3449320239575968
 51
217.5716115494157918
  0
ARC
  5
22616
  8
0
 10
4573.530076888883741
 20
258.3038830382333231
 30
0.0
 40
0.7067056467889472
 50
165.6767402693984934
 51
179.2439596879025032
  0
ARC
  5
22617
  8
0
 10
4575.2935328349622068
 20
257.7248207551671157
 30
0.0
 40
2.5616425268550369
 50
147.5152404406381095
 51
162.8843282231896978
  0
ARC
  5
22618
  8
0
 10
4574.020292336042985
 20
258.1283051259727017
 30
0.0
 40
1.271087724071956
 50
156.4680560812975045
 51
172.6764344310128081
  0
ARC
  5
22619
  8
0
 10
4575.2895073154868442
 20
257.4962255174194752
 30
0.0
 40
2.6881011418272842
 50
143.3554559835868076
 51
154.9168629864518891
  0
ARC
  5
2261A
  8
0
 10
4580.6348449355391494
 20
253.5855847351774059
 30
0.0
 40
9.3111627888911617
 50
136.4755181755915885
 51
143.6793841198679047
  0
ARC
  5
2261B
  8
0
 10
4577.8394825363893688
 20
256.0503809720083837
 30
0.0
 40
5.5885847780067133
 50
124.0873956724609002
 51
135.0616679430690112
  0
ARC
  5
2261C
  8
0
 10
4578.8808673584117059
 20
254.5385658432292075
 30
0.0
 40
7.4243120295539793
 50
114.2330645376750056
 51
124.2043191736469936
  0
ARC
  5
2261D
  8
0
 10
4578.8482886353631329
 20
254.4700088565107023
 30
0.0
 40
7.4736799680110746
 50
105.4937119344361065
 51
113.7895840019182998
  0
ARC
  5
2261E
  8
0
 10
4579.2701370738441256
 20
252.5871867808776017
 30
0.0
 40
9.4012640585130356
 50
99.798487289291856
 51
104.9059209731776008
  0
ARC
  5
2261F
  8
0
 10
4579.9614497522998136
 20
248.0496180972928926
 30
0.0
 40
13.9905863625600198
 50
92.8960400747075568
 51
99.4258477076581215
  0
ARC
  5
22620
  8
0
 10
4580.4480258637031511
 20
232.5457138793526042
 30
0.0
 40
29.5007722479493211
 50
90.2583532524824363
 51
92.3184976368625172
  0
ARC
  5
22621
  8
0
 10
4579.3777701094950316
 20
255.327425179490092
 30
0.0
 40
0.0337780995470113
 50
299.0518020693000949
 51
332.9710951491222772
  0
ARC
  5
22622
  8
0
 10
4579.3785455708020891
 20
255.3272548628067966
 30
0.0
 40
0.0330105474906788
 50
332.6227655361778943
 51
356.9924022197794784
  0
ARC
  5
22623
  8
0
 10
4578.017986895310969
 20
255.3901449212881118
 30
0.0
 40
1.3950213131348621
 50
357.3449170800860202
 51
0.0914763764393608
  0
LINE
  5
22624
  8
0
 10
4587.9586483343800865
 20
255.8963855318893081
 30
0.0
 11
4587.9586483343800865
 21
256.0105634983739264
 31
0.0
  0
LINE
  5
22625
  8
0
 10
4587.8727241492479152
 20
258.2349703428224075
 30
0.0
 11
4587.8719541752789155
 21
257.8774950306893174
 31
0.0
  0
LINE
  5
22626
  8
0
 10
4587.8719541752789155
 20
257.8774950306893174
 30
0.0
 11
4587.8710965912787287
 21
257.3538927805893195
 31
0.0
  0
LINE
  5
22627
  8
0
 10
4587.7953190704802182
 20
256.0105616013569261
 30
0.0
 11
4587.7953190704802182
 21
255.7856900036892966
 31
0.0
  0
LINE
  5
22628
  8
0
 10
4587.8704338643801748
 20
258.290333933189288
 30
0.0
 11
4587.8727241492479152
 21
258.2349703428224075
 31
0.0
  0
LINE
  5
22629
  8
0
 10
4586.9840673752787552
 20
255.7743412658892908
 30
0.0
 11
4586.9840673752787552
 21
255.7546562264892884
 31
0.0
  0
LINE
  5
2262A
  8
0
 10
4586.6152548848804145
 20
255.7546562264892884
 30
0.0
 11
4586.6152546648800126
 21
255.7743412658892908
 31
0.0
  0
LINE
  5
2262B
  8
0
 10
4586.5748380946788529
 20
255.7546562264892884
 30
0.0
 11
4586.5748380946788529
 21
255.7743412658892908
 31
0.0
  0
LINE
  5
2262C
  8
0
 10
4586.5001270940801987
 20
255.7743412658892908
 30
0.0
 11
4586.5001270940801987
 21
255.7546562264892884
 31
0.0
  0
LINE
  5
2262D
  8
0
 10
4586.2380107811786729
 20
255.7546562264892884
 30
0.0
 11
4586.2380107803792271
 21
255.7743412658892908
 31
0.0
  0
LINE
  5
2262E
  8
0
 10
4586.2002725354795984
 20
255.7546562264892884
 30
0.0
 11
4586.2002725354795984
 21
255.7743412658892908
 31
0.0
  0
LINE
  5
2262F
  8
0
 10
4587.6534133474797272
 20
255.7743412658892908
 30
0.0
 11
4587.6038997804789688
 21
255.7546562264892884
 31
0.0
  0
LINE
  5
22630
  8
0
 10
4587.9586483343800865
 20
255.8963855318893081
 30
0.0
 11
4587.7953190704802182
 21
255.8308399256108885
 31
0.0
  0
LINE
  5
22631
  8
0
 10
4584.9606731659787329
 20
255.7743412658892908
 30
0.0
 11
4584.9606731659787329
 21
255.7546562264892884
 31
0.0
  0
LINE
  5
22632
  8
0
 10
4584.7710519720803859
 20
255.9852016064893121
 30
0.0
 11
4584.7710519720803859
 21
255.8648924469893018
 31
0.0
  0
LINE
  5
22633
  8
0
 10
4584.7576654702797896
 20
255.8648924469893018
 30
0.0
 11
4584.7576654702797896
 21
255.9835349340181097
 31
0.0
  0
LINE
  5
22634
  8
0
 10
4584.6135716571798184
 20
255.8648924469893018
 30
0.0
 11
4584.6135716571798184
 21
255.8333963839893102
 31
0.0
  0
LINE
  5
22635
  8
0
 10
4584.6007101886798409
 20
255.8648924469893018
 30
0.0
 11
4584.6007101886798409
 21
255.8333963839893102
 31
0.0
  0
LINE
  5
22636
  8
0
 10
4584.4741626840786921
 20
255.9440145405548037
 30
0.0
 11
4584.4741626840786921
 21
255.8648924469893018
 31
0.0
  0
LINE
  5
22637
  8
0
 10
4584.3194563942788591
 20
255.8333963839893102
 30
0.0
 11
4584.3194563942788591
 21
255.8648924469893018
 31
0.0
  0
LINE
  5
22638
  8
0
 10
4584.2411946398779037
 20
255.9609434979111882
 30
0.0
 11
4584.2411946269712644
 21
255.9121365414893035
 31
0.0
  0
LINE
  5
22639
  8
0
 10
4581.1811456069790438
 20
254.8968679889892996
 30
0.0
 11
4580.3150039430802281
 21
254.8968679889892996
 31
0.0
  0
LINE
  5
2263A
  8
0
 10
4581.1811456069790438
 20
254.9145082651893119
 30
0.0
 11
4580.3150039430802281
 21
254.9145082651893119
 31
0.0
  0
LINE
  5
2263B
  8
0
 10
4580.3150039430802281
 20
254.9438102947893015
 30
0.0
 11
4580.9842952132803475
 21
254.9438102947893015
 31
0.0
  0
LINE
  5
2263C
  8
0
 10
4580.9842952132803475
 20
254.9598799552892956
 30
0.0
 11
4580.8661849770796834
 21
254.9598799552892956
 31
0.0
  0
LINE
  5
2263D
  8
0
 10
4580.9449251344803997
 20
255.0005814785893108
 30
0.0
 11
4580.3150039430802281
 21
255.0005814785893108
 31
0.0
  0
LINE
  5
2263E
  8
0
 10
4581.0232267138999305
 20
255.7368418876378087
 30
0.0
 11
4580.9842952132803475
 21
255.736844948989301
 31
0.0
  0
LINE
  5
2263F
  8
0
 10
4587.6038997804789688
 20
255.7546562264892884
 30
0.0
 11
4581.1811457437788704
 21
255.7546562264892884
 31
0.0
  0
LINE
  5
22640
  8
0
 10
4587.7943992574209915
 20
255.7743412658892908
 30
0.0
 11
4584.9409881266801676
 21
255.7743412658892908
 31
0.0
  0
LINE
  5
22641
  8
0
 10
4584.9409881266801676
 20
255.7743412658892908
 30
0.0
 11
4584.2147685677318805
 21
255.7743412658892908
 31
0.0
  0
LINE
  5
22642
  8
0
 10
4583.0779541433148552
 20
255.7743411701320895
 30
0.0
 11
4581.2008307830801641
 21
255.774340965589289
 31
0.0
  0
LINE
  5
22643
  8
0
 10
4580.3150039430802281
 20
255.8333963839893102
 30
0.0
 11
4583.0362670066433566
 21
255.8333963839893102
 31
0.0
  0
LINE
  5
22644
  8
0
 10
4584.2600400876690401
 20
255.8333963839893102
 30
0.0
 11
4584.6135716571798184
 21
255.8333963839893102
 31
0.0
  0
LINE
  5
22645
  8
0
 10
4580.3150039430802281
 20
255.8648924469893018
 30
0.0
 11
4583.0159507061171098
 21
255.8648924469893018
 31
0.0
  0
LINE
  5
22646
  8
0
 10
4580.3150039430802281
 20
256.0696168563893025
 30
0.0
 11
4587.9707637722804066
 21
256.0696168563893025
 31
0.0
  0
LINE
  5
22647
  8
0
 10
4582.9527991502791338
 20
255.7743412658892908
 30
0.0
 11
4582.9527991502791338
 21
255.7546562264892884
 31
0.0
  0
LINE
  5
22648
  8
0
 10
4585.3032459068799653
 20
256.8317466941892917
 30
0.0
 11
4585.868841542381233
 21
256.8305553710893037
 31
0.0
  0
LINE
  5
22649
  8
0
 10
4581.1811456069790438
 20
255.8333963839893102
 30
0.0
 11
4581.1811456069790438
 21
254.8968679889892996
 31
0.0
  0
LINE
  5
2264A
  8
0
 10
4581.0232440431800569
 20
255.8333963839893102
 30
0.0
 11
4581.0232267138726456
 21
255.7368418875772988
 31
0.0
  0
LINE
  5
2264B
  8
0
 10
4580.9842952132803475
 20
254.9438102947893015
 30
0.0
 11
4580.9842952132803475
 21
255.8333963839893102
 31
0.0
  0
LINE
  5
2264C
  8
0
 10
4580.9547676541787951
 20
255.5231257662892972
 30
0.0
 11
4580.9547676541787951
 21
255.8333963839893102
 31
0.0
  0
LINE
  5
2264D
  8
0
 10
4580.9449251344803997
 20
255.8333963839893102
 30
0.0
 11
4580.9449251344803997
 21
255.0005814785893108
 31
0.0
  0
LINE
  5
2264E
  8
0
 10
4580.8661849770796834
 20
254.9598799552892956
 30
0.0
 11
4580.8661849770796834
 21
255.0005814785893108
 31
0.0
  0
ARC
  5
2264F
  8
0
 10
4583.5433465795804295
 20
256.0702550404893145
 30
0.0
 40
0.3175623069
 50
270.0006768936225967
 51
276.3747307866620986
  0
ARC
  5
22650
  8
0
 10
4583.5433078350788492
 20
256.0692436209893117
 30
0.0
 40
0.3165508902
 50
263.6150782414839
 51
270.0076918222051177
  0
ARC
  5
22651
  8
0
 10
4580.9842952132803475
 20
255.0459948091892954
 30
0.0
 40
0.1181102362
 50
90.0
 51
109.4712206687952971
  0
ARC
  5
22652
  8
0
 10
4580.3138432447522064
 20
268.0075309455804131
 30
0.0
 40
12.2911771146810302
 50
273.3086560341042741
 51
274.0463248536844958
  0
ARC
  5
22653
  8
0
 10
4580.3150038746789505
 20
267.6842988618893173
 30
0.0
 40
11.9610299307000005
 50
270.0000003276689995
 51
273.0188482433355261
  0
ARC
  5
22654
  8
0
 10
4371.0361190910653022
 20
235.3044808319882009
 30
0.0
 40
217.959809394889902
 50
5.4512937680352751
 51
5.7689097829321758
  0
LINE
  5
22655
  8
0
 10
4584.8081707532528526
 20
256.0105269065866764
 30
0.0
 11
4588.0101650672831965
 21
256.0105640967241811
 31
0.0
  0
ARC
  5
22656
  8
0
 10
4581.0389362064670422
 20
255.5246998973724999
 30
0.0
 40
0.0841832708012624
 50
181.0714281268016066
 51
229.5283384860537126
  0
ARC
  5
22657
  8
0
 10
4583.9490965388604309
 20
250.329771364245687
 30
0.0
 40
5.6387428474429369
 50
84.6570146310348264
 51
87.0306355656359045
  0
ARC
  5
22658
  8
0
 10
4586.0489949239236012
 20
245.6834516610869912
 30
0.0
 40
10.3807151577897496
 50
97.0714741711009594
 51
98.725891076717545
  0
ARC
  5
22659
  8
0
 10
4587.9330792768087122
 20
251.3905467843403869
 30
0.0
 40
5.577568431722713
 50
122.9749516923953934
 51
124.5356288922988028
  0
ARC
  5
2265A
  8
0
 10
4587.7234768858688767
 20
255.7858011549685955
 30
0.0
 40
0.0718422705950592
 50
350.8212785958543236
 51
359.9113543923629095
  0
ARC
  5
2265B
  8
0
 10
4586.3365389766049702
 20
-114.720610075385693
 30
0.0
 40
371.5537935691056077
 50
90.1593400719739151
 51
90.9285967574193705
  0
ARC
  5
2265C
  8
0
 10
4580.5440475856057674
 20
899.1811296607783106
 30
0.0
 40
642.3175288100915168
 50
269.979568930137475
 51
270.2390301607792935
  0
ARC
  5
2265D
  8
0
 10
4582.4121999860080905
 20
493.7368548683904805
 30
0.0
 40
236.8690545195013044
 50
270.1962926724633007
 51
270.7936090472254023
  0
ARC
  5
2265E
  8
0
 10
4585.2501722875422274
 20
286.8364354160626135
 30
0.0
 40
29.9491872918122297
 50
270.8471850328215851
 51
273.4955271168358877
  0
ARC
  5
2265F
  8
0
 10
4586.8948611067798993
 20
259.5457670438431137
 30
0.0
 40
2.6091091428503468
 50
273.9852378123540007
 51
285.8053378982788786
  0
ARC
  5
22660
  8
0
 10
4587.4118697213489213
 20
257.6635085585816114
 30
0.0
 40
0.6573722888188187
 50
287.1310248581656879
 51
299.4117360683123934
  0
ARC
  5
22661
  8
0
 10
4587.6087554169216673
 20
257.3178912948289963
 30
0.0
 40
0.2596195790607774
 50
299.0181850135896866
 51
325.6952914937040191
  0
ARC
  5
22662
  8
0
 10
4587.5886813973656899
 20
257.323841542745015
 30
0.0
 40
0.27962849891167
 50
327.0064320249305752
 51
350.0872427675014933
  0
ARC
  5
22663
  8
0
 10
4587.4423041100317278
 20
257.3526644698371797
 30
0.0
 40
0.4287942405427142
 50
349.6604531420045987
 51
0.1641279467400377
  0
ARC
  5
22664
  8
0
 10
4581.3601457706663496
 20
438.9155471865204845
 30
0.0
 40
181.4723336032284919
 50
270.3299801630207071
 51
270.5066693426193751
  0
ARC
  5
22665
  8
0
 10
4582.2540976906338983
 20
338.601420287510507
 30
0.0
 40
81.1542240678748641
 50
270.5018360867554748
 51
272.2816378975629164
  0
ARC
  5
22666
  8
0
 10
4584.6409875441158874
 20
276.1457940471221946
 30
0.0
 40
18.6533624203358315
 50
272.5932814001395741
 51
275.3106096897141128
  0
ARC
  5
22667
  8
0
 10
4586.15416460515371
 20
261.0990187414897719
 30
0.0
 40
3.532962826441234
 50
273.4610399638261811
 51
286.396600161546985
  0
ARC
  5
22668
  8
0
 10
4586.7148138628363085
 20
259.1381162303296719
 30
0.0
 40
1.4936285343815809
 50
286.9982663423197096
 51
303.3903713301376115
  0
ARC
  5
22669
  8
0
 10
4587.1234749033828848
 20
258.524297557848513
 30
0.0
 40
0.7562314917112121
 50
303.1328940312437794
 51
322.4861270884875921
  0
ARC
  5
2266A
  8
0
 10
4587.4050782500853529
 20
258.3086174750956161
 30
0.0
 40
0.4015231120329873
 50
322.4283884505842934
 51
0.6550679760423548
  0
ARC
  5
2266B
  8
0
 10
4587.0999309972758056
 20
258.3038830382333231
 30
0.0
 40
0.7067056467889472
 50
0.756040312097463
 51
14.3232597306014409
  0
ARC
  5
2266C
  8
0
 10
4585.3364750511991588
 20
257.7248207551671157
 30
0.0
 40
2.5616425268550369
 50
17.1156717768102808
 51
32.4847595593618692
  0
ARC
  5
2266D
  8
0
 10
4586.6097155501165616
 20
258.1283051259727017
 30
0.0
 40
1.271087724071956
 50
7.323565568987136
 51
23.5319439187024706
  0
ARC
  5
2266E
  8
0
 10
4585.340500570671793
 20
257.4962255174194752
 30
0.0
 40
2.6881011418272842
 50
25.0831370135481286
 51
36.6445440164132066
  0
ARC
  5
2266F
  8
0
 10
4579.9951629506213067
 20
253.5855847351774059
 30
0.0
 40
9.3111627888911617
 50
36.3206158801321095
 51
43.5244818244083405
  0
ARC
  5
22670
  8
0
 10
4582.7905253497701779
 20
256.0503809720083837
 30
0.0
 40
5.5885847780067133
 50
44.9383320569309603
 51
55.9126043275391069
  0
ARC
  5
22671
  8
0
 10
4581.7491405277478407
 20
254.5385658432292075
 30
0.0
 40
7.4243120295539793
 50
55.7956808263530277
 51
65.7669354623249944
  0
ARC
  5
22672
  8
0
 10
4581.7817192507973232
 20
254.4700088565107023
 30
0.0
 40
7.4736799680110746
 50
66.2104159980817002
 51
74.5062880655639361
  0
ARC
  5
22673
  8
0
 10
4581.3598708123154211
 20
252.5871867808776017
 30
0.0
 40
9.4012640585130356
 50
75.0940790268224134
 51
80.201512710708144
  0
ARC
  5
22674
  8
0
 10
4580.6685581338606426
 20
248.0496180972928926
 30
0.0
 40
13.9905863625600198
 50
80.5741522923418643
 51
87.1039599252924575
  0
ARC
  5
22675
  8
0
 10
4580.181982022457305
 20
232.5457138793539968
 30
0.0
 40
29.5007722479479497
 50
87.6815023631375112
 51
89.7416467475175779
  0
ARC
  5
22676
  8
0
 10
4587.0310851249832922
 20
257.1320582346443189
 30
0.0
 40
0.864762486201614
 50
5.3708806718245672
 51
13.8050571637276391
  0
ARC
  5
22677
  8
0
 10
4587.970835965697006
 20
256.0887953583243757
 30
0.0
 40
0.0191786378130646
 50
269.7843231656967191
 51
7.367137635935431
  0
LINE
  5
22678
  8
0
 10
4587.9898604823702044
 20
256.0912218606899273
 30
0.0
 11
4587.8920510137595556
 21
257.2130020170092735
 31
0.0
  0
ARC
  5
22679
  8
0
 10
4585.2248964953250834
 20
282.2296587264377763
 30
0.0
 40
25.4072650334368397
 50
271.4523123434321974
 51
273.6009200575911109
  0
ARC
  5
2267A
  8
0
 10
4586.716671353889069
 20
259.495323389639907
 30
0.0
 40
2.6248284952910068
 50
272.2700412821193936
 51
285.3866973108583807
  0
ARC
  5
2267B
  8
0
 10
4587.1750086516049123
 20
257.9072350327077743
 30
0.0
 40
0.9722672088053069
 50
284.1762915382113874
 51
296.2289608158425835
  0
ARC
  5
2267C
  8
0
 10
4575.0592075235890661
 20
271.6401510472913969
 30
0.0
 40
14.8136309565629105
 50
266.9953299273946072
 51
268.6874427182967224
  0
ARC
  5
2267D
  8
0
 10
4576.049548131200936
 20
292.5693381848033141
 30
0.0
 40
35.7661203354400996
 50
266.1898142873196207
 51
267.1684591525378778
  0
ARC
  5
2267E
  8
0
 10
4573.8839690698587219
 20
259.3717555104137773
 30
0.0
 40
2.498419177685117
 50
256.0854189501907854
 51
265.1525171890335741
  0
ARC
  5
2267F
  8
0
 10
4573.5978074390195616
 20
258.2993320296718025
 30
0.0
 40
1.3887930847836909
 50
245.3297110848210991
 51
256.9053316995540968
  0
LINE
  5
22680
  8
0
 10
4584.2411946398779037
 20
255.9609434979111882
 30
0.0
 11
4584.1574640137632741
 21
255.9690105250089971
 31
0.0
  0
LINE
  5
22681
  8
0
 10
4581.2008295220812215
 20
255.7743412658892908
 30
0.0
 11
4581.2008307830801641
 21
255.8333963839893102
 31
0.0
  0
LINE
  5
22682
  8
0
 10
4584.7710519720803859
 20
255.8648924469893018
 30
0.0
 11
4584.2819629601817724
 21
255.8648924469893018
 31
0.0
  0
LINE
  5
22683
  8
0
 10
4584.2442850048928449
 20
255.9607823453316087
 30
0.0
 11
4584.3570487385350134
 21
256.0696168563893025
 31
0.0
  0
ARC
  5
22684
  8
0
 10
4583.1020518601953881
 20
255.7743457955241979
 30
0.0
 40
0.019689572726726
 50
215.1401514146722036
 51
269.9649130233376013
  0
LINE
  5
22685
  8
0
 10
4583.0859507796803882
 20
255.7630129017892955
 30
0.0
 11
4583.0172400476803887
 21
255.8603505290892883
 31
0.0
  0
ARC
  5
22686
  8
0
 10
4583.0239987620316242
 20
255.8647231315235047
 30
0.0
 40
0.0080498367525991
 50
92.3339426158796925
 51
212.9011595540501105
  0
LINE
  5
22687
  8
0
 10
4583.0236361713787119
 20
255.8727664626892988
 30
0.0
 11
4584.2742496807786665
 21
255.8727664626892988
 31
0.0
  0
ARC
  5
22688
  8
0
 10
4584.2739108303931062
 20
255.8647196094312051
 30
0.0
 40
0.0080539845381544
 50
324.7335322821605246
 51
87.5887178444042149
  0
LINE
  5
22689
  8
0
 10
4584.2804867125796591
 20
255.8600694007893139
 30
0.0
 11
4584.2055368986802932
 21
255.7623212109893132
 31
0.0
  0
ARC
  5
2268A
  8
0
 10
4584.1884199040578096
 20
255.7774455638366078
 30
0.0
 40
0.0228415751199927
 50
273.875696260003906
 51
318.5366056027098125
  0
LINE
  5
2268B
  8
0
 10
4583.0478265559795545
 20
255.8727664626892988
 30
0.0
 11
4583.0478414624803918
 21
255.9121365414893035
 31
0.0
  0
LINE
  5
2268C
  8
0
 10
4583.0478414624803918
 20
255.9121365414893035
 30
0.0
 11
4584.2508493143786836
 21
255.9121365414893035
 31
0.0
  0
LINE
  5
2268D
  8
0
 10
4584.2508493143786836
 20
255.9121365414893035
 30
0.0
 11
4584.2508493143786836
 21
255.8727664626892988
 31
0.0
  0
ARC
  5
2268E
  8
0
 10
4583.1469744577798338
 20
255.9436326044892951
 30
0.0
 40
0.0314960630000005
 50
90.0
 51
270.0
  0
LINE
  5
2268F
  8
0
 10
4583.1469744577798338
 20
255.9751286674892867
 30
0.0
 11
4583.1469744577798338
 21
256.0066247304893068
 31
0.0
  0
ARC
  5
22690
  8
0
 10
4583.1469744577798338
 20
256.0381207934893268
 30
0.0
 40
0.0314960630000005
 50
116.7030685858584036
 51
269.9999999990099013
  0
ARC
  5
22691
  8
0
 10
4583.1469744577798338
 20
256.0381207934893268
 30
0.0
 40
0.031496063000016
 50
90.0
 51
116.7030685858555046
  0
LINE
  5
22692
  8
0
 10
4583.1469744577798338
 20
255.9751286674892867
 30
0.0
 11
4584.1388102437804264
 21
255.9751286674892867
 31
0.0
  0
LINE
  5
22693
  8
0
 10
4583.1469744577798338
 20
256.0066247304893068
 30
0.0
 11
4584.1388102437804264
 21
256.0066247304893068
 31
0.0
  0
ARC
  5
22694
  8
0
 10
4584.1388102437804264
 20
255.9436326044892951
 30
0.0
 40
0.0314960630000005
 50
292.5314085072243984
 51
90.0
  0
LINE
  5
22695
  8
0
 10
4584.1388102437804264
 20
255.9751286674892867
 30
0.0
 11
4584.1388102437804264
 21
256.0066247304891931
 31
0.0
  0
ARC
  5
22696
  8
0
 10
4584.1388102437804264
 20
256.0381207934893268
 30
0.0
 40
0.0314960629999996
 50
270.0
 51
90.0
  0
ARC
  5
22697
  8
0
 10
4583.8102197881398752
 20
255.8648278704978054
 30
0.0
 40
0.0081147840173524
 50
101.9613713114535045
 51
209.8417312112707975
  0
LINE
  5
22698
  8
0
 10
4583.803183143680144
 20
255.8607903770893017
 30
0.0
 11
4583.8116122473802534
 21
255.764158313489304
 31
0.0
  0
ARC
  5
22699
  8
0
 10
4583.8258225263116401
 20
255.7699963163964014
 30
0.0
 40
0.0153584915213004
 50
202.3407586202027915
 51
267.1949806545886759
  0
ARC
  5
2269A
  8
0
 10
4583.9159533287811428
 20
255.8648088301877976
 30
0.0
 40
0.0082227304785413
 50
330.5327589615707211
 51
75.4116370499306754
  0
ARC
  5
2269B
  8
0
 10
4583.8981747751204239
 20
255.7694565341888904
 30
0.0
 40
0.0148335773912162
 50
273.8381352259743835
 51
338.752125172458193
  0
LINE
  5
2269C
  8
0
 10
4583.9119999853801346
 20
255.7640807942892991
 30
0.0
 11
4583.9231125075802993
 21
255.8607638563892976
 31
0.0
  0
LINE
  5
2269D
  8
0
 10
4583.833402201379613
 20
255.8727664626892988
 30
0.0
 11
4583.833402201379613
 21
255.9121365414893035
 31
0.0
  0
LINE
  5
2269E
  8
0
 10
4583.8946284450803432
 20
255.8727664626892988
 30
0.0
 11
4583.8946284450803432
 21
255.9121365414893035
 31
0.0
  0
ARC
  5
2269F
  8
0
 10
4583.8369371137514463
 20
255.9436326042394114
 30
0.0
 40
0.0323457250715101
 50
103.1615647324798033
 51
256.838435268537296
  0
ARC
  5
226A0
  8
0
 10
4583.8821424312409363
 20
255.9434001008789892
 30
0.0
 40
0.0329303400470577
 50
288.7867155586591821
 51
74.4732473137010658
  0
LINE
  5
226A1
  8
0
 10
4583.8295720658788923
 20
255.9751286674892867
 30
0.0
 11
4583.8295720658788923
 21
256.0066247304893068
 31
0.0
  0
LINE
  5
226A2
  8
0
 10
4583.8909435261803083
 20
255.9751286674892867
 30
0.0
 11
4583.8909435261803083
 21
256.0066247304893068
 31
0.0
  0
ARC
  5
226A3
  8
0
 10
4583.8369373624182117
 20
256.0381209909659219
 30
0.0
 40
0.032345973738766
 50
103.1649869157354971
 51
256.8380859128074007
  0
ARC
  5
226A4
  8
0
 10
4583.8824486749472271
 20
256.0381225972785728
 30
0.0
 40
0.032623275582665
 50
285.0933437795276859
 51
74.8823390352089433
  0
LINE
  5
226A6
  8
0
 10
4572.7574240319800083
 20
257.3483780807479206
 30
0.0
 11
4572.7574240319800083
 21
258.2383617282329737
 31
0.0
  0
LINE
  5
226A7
  8
0
 10
4578.2247251141052402
 20
257.4462231891853889
 30
0.0
 11
4582.4052827720543064
 21
257.4462231891853889
 31
0.0
  0
ATTDEF
  5
226A8
  8
DEFPOINTS
 10
4580.3149745488008193
 20
255.7535996225938106
 30
0.0
 40
0.001
  1
K-76421BR
  3

  2
MODELNUMBER
 70
     0
1001
ACDBATTR
1070
     0
1070
     1
  0
ATTDEF
  5
226A9
  8
DEFPOINTS
 10
4580.3148487391435992
 20
255.7519327822145954
 30
0.0
 40
0.001
  1
C3
  3

  2
TRADENAME
 70
     0
1001
ACDBATTR
1070
     0
1070
     1
  0
ATTDEF
  5
226AA
  8
DEFPOINTS
 10
4580.3149745488008193
 20
255.7502662892605088
 30
0.0
 40
0.001
  1
TOILET SEAT
  3

  2
PRODUCT
 70
     0
1001
ACDBATTR
1070
     0
1070
     1
  0
ENDSEC
  0
EOF
